  0
SECTION
  2
HEADER
  9
$EXTMIN
 10
7.375000
 20
14.803000
  9
$EXTMAX
 10
7.905000
 20
15.655000
  9
$LIMMIN
 10
7.375000
 20
14.803000
  9
$LIMMAX
 10
7.905000
 20
15.655000
  9
$FILLMODE
 70
  1
  0
ENDSEC
  0
SECTION
  2
TABLES
  0
TABLE
  2
LTYPE
 70
  1
  0
LTYPE
  2
CONTINUOUS
 70
 64
  3
Solid line
 72
 65
 73
  0
 40
0.0
  0
ENDTAB
  0
TABLE
  2
LAYER
 70
 1
  0
LAYER
  2
0
 70
  0
 62
7
  6
CONTINUOUS
  0
LAYER
  2
gg1
 70
  0
 62
1
  6
CONTINUOUS
  0
ENDTAB
  0
TABLE
  2
STYLE
 70
  1
  0
STYLE
  2
STANDARD
 70
  0
 40
0.0
 41
1.0
 50
0.0
 71
  0
 42
0.2
  3
txt
  4

  0
ENDTAB
  0
ENDSEC
  0
SECTION
  2
BLOCKS
  0
BLOCK
  8
0
  2
D10
 70
64
 10
0.0
 20
0.0
  3
D10
  0
CIRCLE
  8
0
 10
0.000000
 20
0.000000
 40
0.002500
 0
ENDBLK
  8
0
  0
BLOCK
  8
0
  2
D11
 70
64
 10
0.0
 20
0.0
  3
D11
  0
CIRCLE
  8
0
 10
0.000000
 20
0.000000
 40
0.005000
 0
ENDBLK
  8
0
  0
BLOCK
  8
0
  2
D12
 70
64
 10
0.0
 20
0.0
  3
D12
  0
CIRCLE
  8
0
 10
0.000000
 20
0.000000
 40
0.003000
 0
ENDBLK
  8
0
  0
BLOCK
  8
0
  2
D13
 70
64
 10
0.0
 20
0.0
  3
D13
  0
CIRCLE
  8
0
 10
0.000000
 20
0.000000
 40
0.001000
 0
ENDBLK
  8
0
  0
ENDSEC
  0
SECTION
  2
ENTITIES
  0
POLYLINE
  8
gg1
 62
1
 40
0.000000
 41
0.000000
 66
  1
  0
VERTEX
  8
gg1
 10
7.500000
 20
15.000000
  0
VERTEX
  8
gg1
 10
7.900000
 20
15.000000
  0
VERTEX
  8
gg1
 10
7.900000
 20
15.650000
  0
SEQEND
  8
gg1
  0
POLYLINE
  8
gg1
 62
1
 40
0.000000
 41
0.000000
 66
  1
  0
VERTEX
  8
gg1
 10
7.500000
 20
15.650000
  0
VERTEX
  8
gg1
 10
7.900000
 20
15.650000
  0
SEQEND
  8
gg1
  0
POLYLINE
  8
gg1
 62
1
 40
0.000000
 41
0.000000
 66
  1
  0
VERTEX
  8
gg1
 10
7.500000
 20
15.000000
  0
VERTEX
  8
gg1
 10
7.500000
 20
15.650000
  0
SEQEND
  8
gg1
  0
POLYLINE
  8
gg1
 62
1
 40
0.000000
 41
0.000000
 66
  1
  0
VERTEX
  8
gg1
 10
7.500000
 20
14.900000
  0
VERTEX
  8
gg1
 10
7.560000
 20
14.920000
  0
SEQEND
  8
gg1
  0
POLYLINE
  8
gg1
 62
1
 40
0.000000
 41
0.000000
 66
  1
  0
VERTEX
  8
gg1
 10
7.500000
 20
14.900000
  0
VERTEX
  8
gg1
 10
7.560000
 20
14.880000
  0
SEQEND
  8
gg1
  0
POLYLINE
  8
gg1
 62
1
 40
0.000000
 41
0.000000
 66
  1
  0
VERTEX
  8
gg1
 10
7.840000
 20
14.880000
  0
VERTEX
  8
gg1
 10
7.900000
 20
14.900000
  0
SEQEND
  8
gg1
  0
POLYLINE
  8
gg1
 62
1
 40
0.000000
 41
0.000000
 66
  1
  0
VERTEX
  8
gg1
 10
7.840000
 20
14.920000
  0
VERTEX
  8
gg1
 10
7.900000
 20
14.900000
  0
SEQEND
  8
gg1
  0
POLYLINE
  8
gg1
 62
1
 40
0.000000
 41
0.000000
 66
  1
  0
VERTEX
  8
gg1
 10
7.500000
 20
14.900000
  0
VERTEX
  8
gg1
 10
7.700000
 20
14.900000
  0
VERTEX
  8
gg1
 10
7.900000
 20
14.900000
  0
SEQEND
  8
gg1
  0
POLYLINE
  8
gg1
 62
1
 40
0.000000
 41
0.000000
 66
  1
  0
VERTEX
  8
gg1
 10
7.500000
 20
14.890000
  0
VERTEX
  8
gg1
 10
7.500000
 20
14.987500
  0
SEQEND
  8
gg1
  0
POLYLINE
  8
gg1
 62
1
 40
0.000000
 41
0.000000
 66
  1
  0
VERTEX
  8
gg1
 10
7.900000
 20
14.890000
  0
VERTEX
  8
gg1
 10
7.900000
 20
14.987500
  0
SEQEND
  8
gg1
  0
POLYLINE
  8
gg1
 62
1
 40
0.000000
 41
0.000000
 66
  1
  0
VERTEX
  8
gg1
 10
7.400000
 20
15.650000
  0
VERTEX
  8
gg1
 10
7.420000
 20
15.590000
  0
SEQEND
  8
gg1
  0
POLYLINE
  8
gg1
 62
1
 40
0.000000
 41
0.000000
 66
  1
  0
VERTEX
  8
gg1
 10
7.380000
 20
15.590000
  0
VERTEX
  8
gg1
 10
7.400000
 20
15.650000
  0
SEQEND
  8
gg1
  0
POLYLINE
  8
gg1
 62
1
 40
0.000000
 41
0.000000
 66
  1
  0
VERTEX
  8
gg1
 10
7.380000
 20
15.060000
  0
VERTEX
  8
gg1
 10
7.400000
 20
15.000000
  0
VERTEX
  8
gg1
 10
7.420000
 20
15.060000
  0
SEQEND
  8
gg1
  0
POLYLINE
  8
gg1
 62
1
 40
0.000000
 41
0.000000
 66
  1
  0
VERTEX
  8
gg1
 10
7.400000
 20
15.454100
  0
VERTEX
  8
gg1
 10
7.400000
 20
15.650000
  0
SEQEND
  8
gg1
  0
POLYLINE
  8
gg1
 62
1
 40
0.000000
 41
0.000000
 66
  1
  0
VERTEX
  8
gg1
 10
7.400000
 20
15.000000
  0
VERTEX
  8
gg1
 10
7.400000
 20
15.163900
  0
SEQEND
  8
gg1
  0
POLYLINE
  8
gg1
 62
1
 40
0.000000
 41
0.000000
 66
  1
  0
VERTEX
  8
gg1
 10
7.390000
 20
15.650000
  0
VERTEX
  8
gg1
 10
7.487500
 20
15.650000
  0
SEQEND
  8
gg1
  0
POLYLINE
  8
gg1
 62
1
 40
0.000000
 41
0.000000
 66
  1
  0
VERTEX
  8
gg1
 10
7.390000
 20
15.000000
  0
VERTEX
  8
gg1
 10
7.487500
 20
15.000000
  0
SEQEND
  8
gg1
  0
POLYLINE
  8
gg1
 62
1
 40
0.000000
 41
0.000000
 66
  1
  0
VERTEX
  8
gg1
 10
7.581000
 20
14.806000
  0
VERTEX
  8
gg1
 10
7.581000
 20
14.856000
  0
VERTEX
  8
gg1
 10
7.556000
 20
14.831000
  0
VERTEX
  8
gg1
 10
7.589300
 20
14.831000
  0
SEQEND
  8
gg1
  0
POLYLINE
  8
gg1
 62
1
 40
0.000000
 41
0.000000
 66
  1
  0
VERTEX
  8
gg1
 10
7.606000
 20
14.847700
  0
VERTEX
  8
gg1
 10
7.614300
 20
14.856000
  0
VERTEX
  8
gg1
 10
7.631000
 20
14.856000
  0
VERTEX
  8
gg1
 10
7.639300
 20
14.847700
  0
VERTEX
  8
gg1
 10
7.639300
 20
14.814300
  0
VERTEX
  8
gg1
 10
7.631000
 20
14.806000
  0
VERTEX
  8
gg1
 10
7.614300
 20
14.806000
  0
VERTEX
  8
gg1
 10
7.606000
 20
14.814300
  0
VERTEX
  8
gg1
 10
7.606000
 20
14.847700
  0
SEQEND
  8
gg1
  0
POLYLINE
  8
gg1
 62
1
 40
0.000000
 41
0.000000
 66
  1
  0
VERTEX
  8
gg1
 10
7.656000
 20
14.847700
  0
VERTEX
  8
gg1
 10
7.664300
 20
14.856000
  0
VERTEX
  8
gg1
 10
7.681000
 20
14.856000
  0
VERTEX
  8
gg1
 10
7.689300
 20
14.847700
  0
VERTEX
  8
gg1
 10
7.689300
 20
14.814300
  0
VERTEX
  8
gg1
 10
7.681000
 20
14.806000
  0
VERTEX
  8
gg1
 10
7.664300
 20
14.806000
  0
VERTEX
  8
gg1
 10
7.656000
 20
14.814300
  0
VERTEX
  8
gg1
 10
7.656000
 20
14.847700
  0
SEQEND
  8
gg1
  0
POLYLINE
  8
gg1
 62
1
 40
0.000000
 41
0.000000
 66
  1
  0
VERTEX
  8
gg1
 10
7.706000
 20
14.806000
  0
VERTEX
  8
gg1
 10
7.706000
 20
14.839300
  0
VERTEX
  8
gg1
 10
7.714300
 20
14.839300
  0
VERTEX
  8
gg1
 10
7.722600
 20
14.831000
  0
VERTEX
  8
gg1
 10
7.722600
 20
14.806000
  0
VERTEX
  8
gg1
 10
7.722600
 20
14.831000
  0
VERTEX
  8
gg1
 10
7.730900
 20
14.839300
  0
VERTEX
  8
gg1
 10
7.739300
 20
14.831000
  0
VERTEX
  8
gg1
 10
7.739300
 20
14.806000
  0
SEQEND
  8
gg1
  0
POLYLINE
  8
gg1
 62
1
 40
0.000000
 41
0.000000
 66
  1
  0
VERTEX
  8
gg1
 10
7.755900
 20
14.806000
  0
VERTEX
  8
gg1
 10
7.772600
 20
14.806000
  0
VERTEX
  8
gg1
 10
7.764300
 20
14.806000
  0
VERTEX
  8
gg1
 10
7.764300
 20
14.839300
  0
VERTEX
  8
gg1
 10
7.755900
 20
14.839300
  0
SEQEND
  8
gg1
  0
POLYLINE
  8
gg1
 62
1
 40
0.000000
 41
0.000000
 66
  1
  0
VERTEX
  8
gg1
 10
7.797600
 20
14.806000
  0
VERTEX
  8
gg1
 10
7.814200
 20
14.806000
  0
VERTEX
  8
gg1
 10
7.805900
 20
14.806000
  0
VERTEX
  8
gg1
 10
7.805900
 20
14.856000
  0
VERTEX
  8
gg1
 10
7.797600
 20
14.856000
  0
SEQEND
  8
gg1
  0
POLYLINE
  8
gg1
 62
1
 40
0.000000
 41
0.000000
 66
  1
  0
VERTEX
  8
gg1
 10
7.381000
 20
15.213200
  0
VERTEX
  8
gg1
 10
7.389300
 20
15.196500
  0
VERTEX
  8
gg1
 10
7.406000
 20
15.179900
  0
VERTEX
  8
gg1
 10
7.422700
 20
15.179900
  0
VERTEX
  8
gg1
 10
7.431000
 20
15.188200
  0
VERTEX
  8
gg1
 10
7.431000
 20
15.204900
  0
VERTEX
  8
gg1
 10
7.422700
 20
15.213200
  0
VERTEX
  8
gg1
 10
7.414300
 20
15.213200
  0
VERTEX
  8
gg1
 10
7.406000
 20
15.204900
  0
VERTEX
  8
gg1
 10
7.406000
 20
15.179900
  0
SEQEND
  8
gg1
  0
POLYLINE
  8
gg1
 62
1
 40
0.000000
 41
0.000000
 66
  1
  0
VERTEX
  8
gg1
 10
7.381000
 20
15.263200
  0
VERTEX
  8
gg1
 10
7.381000
 20
15.229900
  0
VERTEX
  8
gg1
 10
7.406000
 20
15.229900
  0
VERTEX
  8
gg1
 10
7.397700
 20
15.246500
  0
VERTEX
  8
gg1
 10
7.397700
 20
15.254900
  0
VERTEX
  8
gg1
 10
7.406000
 20
15.263200
  0
VERTEX
  8
gg1
 10
7.422700
 20
15.263200
  0
VERTEX
  8
gg1
 10
7.431000
 20
15.254900
  0
VERTEX
  8
gg1
 10
7.431000
 20
15.238200
  0
VERTEX
  8
gg1
 10
7.422700
 20
15.229900
  0
SEQEND
  8
gg1
  0
POLYLINE
  8
gg1
 62
1
 40
0.000000
 41
0.000000
 66
  1
  0
VERTEX
  8
gg1
 10
7.389300
 20
15.279800
  0
VERTEX
  8
gg1
 10
7.381000
 20
15.288200
  0
VERTEX
  8
gg1
 10
7.381000
 20
15.304800
  0
VERTEX
  8
gg1
 10
7.389300
 20
15.313200
  0
VERTEX
  8
gg1
 10
7.422700
 20
15.313200
  0
VERTEX
  8
gg1
 10
7.431000
 20
15.304800
  0
VERTEX
  8
gg1
 10
7.431000
 20
15.288200
  0
VERTEX
  8
gg1
 10
7.422700
 20
15.279800
  0
VERTEX
  8
gg1
 10
7.389300
 20
15.279800
  0
SEQEND
  8
gg1
  0
POLYLINE
  8
gg1
 62
1
 40
0.000000
 41
0.000000
 66
  1
  0
VERTEX
  8
gg1
 10
7.431000
 20
15.329800
  0
VERTEX
  8
gg1
 10
7.397700
 20
15.329800
  0
VERTEX
  8
gg1
 10
7.397700
 20
15.338200
  0
VERTEX
  8
gg1
 10
7.406000
 20
15.346500
  0
VERTEX
  8
gg1
 10
7.431000
 20
15.346500
  0
VERTEX
  8
gg1
 10
7.406000
 20
15.346500
  0
VERTEX
  8
gg1
 10
7.397700
 20
15.354800
  0
VERTEX
  8
gg1
 10
7.406000
 20
15.363100
  0
VERTEX
  8
gg1
 10
7.431000
 20
15.363100
  0
SEQEND
  8
gg1
  0
POLYLINE
  8
gg1
 62
1
 40
0.000000
 41
0.000000
 66
  1
  0
VERTEX
  8
gg1
 10
7.431000
 20
15.379800
  0
VERTEX
  8
gg1
 10
7.431000
 20
15.396500
  0
VERTEX
  8
gg1
 10
7.431000
 20
15.388100
  0
VERTEX
  8
gg1
 10
7.397700
 20
15.388100
  0
VERTEX
  8
gg1
 10
7.397700
 20
15.379800
  0
SEQEND
  8
gg1
  0
POLYLINE
  8
gg1
 62
1
 40
0.000000
 41
0.000000
 66
  1
  0
VERTEX
  8
gg1
 10
7.431000
 20
15.421500
  0
VERTEX
  8
gg1
 10
7.431000
 20
15.438100
  0
VERTEX
  8
gg1
 10
7.431000
 20
15.429800
  0
VERTEX
  8
gg1
 10
7.381000
 20
15.429800
  0
VERTEX
  8
gg1
 10
7.381000
 20
15.421500
  0
SEQEND
  8
gg1
  0
POLYLINE
  8
gg1
 62
1
 40
0.000000
 41
0.000000
 66
  1
  0
VERTEX
  8
gg1
 10
7.680000
 20
15.398000
  0
VERTEX
  8
gg1
 10
7.700000
 20
15.398000
  0
SEQEND
  8
gg1
  0
POLYLINE
  8
gg1
 62
1
 40
0.000000
 41
0.000000
 66
  1
  0
VERTEX
  8
gg1
 10
7.690000
 20
15.388000
  0
VERTEX
  8
gg1
 10
7.690000
 20
15.408000
  0
SEQEND
  8
gg1
  0
POLYLINE
  8
gg1
 62
1
 40
0.000000
 41
0.000000
 66
  1
  0
VERTEX
  8
gg1
 10
7.830000
 20
15.050000
  0
VERTEX
  8
gg1
 10
7.870000
 20
15.050000
  0
SEQEND
  8
gg1
  0
POLYLINE
  8
gg1
 62
1
 40
0.000000
 41
0.000000
 66
  1
  0
VERTEX
  8
gg1
 10
7.850000
 20
15.030000
  0
VERTEX
  8
gg1
 10
7.850000
 20
15.070000
  0
SEQEND
  8
gg1
  0
POLYLINE
  8
gg1
 62
1
 40
0.000000
 41
0.000000
 66
  1
  0
VERTEX
  8
gg1
 10
7.730000
 20
15.050000
  0
VERTEX
  8
gg1
 10
7.770000
 20
15.050000
  0
SEQEND
  8
gg1
  0
POLYLINE
  8
gg1
 62
1
 40
0.000000
 41
0.000000
 66
  1
  0
VERTEX
  8
gg1
 10
7.750000
 20
15.030000
  0
VERTEX
  8
gg1
 10
7.750000
 20
15.070000
  0
SEQEND
  8
gg1
  0
POLYLINE
  8
gg1
 62
1
 40
0.000000
 41
0.000000
 66
  1
  0
VERTEX
  8
gg1
 10
7.630000
 20
15.050000
  0
VERTEX
  8
gg1
 10
7.670000
 20
15.050000
  0
SEQEND
  8
gg1
  0
POLYLINE
  8
gg1
 62
1
 40
0.000000
 41
0.000000
 66
  1
  0
VERTEX
  8
gg1
 10
7.650000
 20
15.030000
  0
VERTEX
  8
gg1
 10
7.650000
 20
15.070000
  0
SEQEND
  8
gg1
  0
POLYLINE
  8
gg1
 62
1
 40
0.000000
 41
0.000000
 66
  1
  0
VERTEX
  8
gg1
 10
7.530000
 20
15.050000
  0
VERTEX
  8
gg1
 10
7.570000
 20
15.050000
  0
SEQEND
  8
gg1
  0
POLYLINE
  8
gg1
 62
1
 40
0.000000
 41
0.000000
 66
  1
  0
VERTEX
  8
gg1
 10
7.550000
 20
15.030000
  0
VERTEX
  8
gg1
 10
7.550000
 20
15.070000
  0
SEQEND
  8
gg1
  0
ENDSEC
  0
EOF
