  0
SECTION
  2
HEADER
  9
$EXTMIN
 10
-0.127000
 20
-0.198000
  9
$EXTMAX
 10
0.405000
 20
0.580000
  9
$LIMMIN
 10
-0.127000
 20
-0.198000
  9
$LIMMAX
 10
0.405000
 20
0.580000
  9
$FILLMODE
 70
  1
  0
ENDSEC
  0
SECTION
  2
TABLES
  0
TABLE
  2
LTYPE
 70
  1
  0
LTYPE
  2
CONTINUOUS
 70
 64
  3
Solid line
 72
 65
 73
  0
 40
0.0
  0
ENDTAB
  0
TABLE
  2
LAYER
 70
 1
  0
LAYER
  2
0
 70
  0
 62
7
  6
CONTINUOUS
  0
LAYER
  2
gg1
 70
  0
 62
1
  6
CONTINUOUS
  0
ENDTAB
  0
TABLE
  2
STYLE
 70
  1
  0
STYLE
  2
STANDARD
 70
  0
 40
0.0
 41
1.0
 50
0.0
 71
  0
 42
0.2
  3
txt
  4

  0
ENDTAB
  0
ENDSEC
  0
SECTION
  2
BLOCKS
  0
BLOCK
  8
0
  2
D10
 70
64
 10
0.0
 20
0.0
  3
D10
  0
CIRCLE
  8
0
 10
0.000000
 20
0.000000
 40
0.004000
 0
ENDBLK
  8
0
  0
BLOCK
  8
0
  2
D11
 70
64
 10
0.0
 20
0.0
  3
D11
  0
CIRCLE
  8
0
 10
0.000000
 20
0.000000
 40
0.005000
 0
ENDBLK
  8
0
  0
BLOCK
  8
0
  2
D12
 70
64
 10
0.0
 20
0.0
  3
D12
  0
CIRCLE
  8
0
 10
0.000000
 20
0.000000
 40
0.003000
 0
ENDBLK
  8
0
  0
BLOCK
  8
0
  2
D13
 70
64
 10
0.0
 20
0.0
  3
D13
  0
CIRCLE
  8
0
 10
0.000000
 20
0.000000
 40
0.001000
 0
ENDBLK
  8
0
  0
ENDSEC
  0
SECTION
  2
ENTITIES
  0
POLYLINE
  8
gg1
 62
1
 40
0.000000
 41
0.000000
 66
  1
  0
VERTEX
  8
gg1
 10
0.000000
 20
0.000000
  0
VERTEX
  8
gg1
 10
0.000000
 20
0.575000
  0
SEQEND
  8
gg1
  0
POLYLINE
  8
gg1
 62
1
 40
0.000000
 41
0.000000
 66
  1
  0
VERTEX
  8
gg1
 10
0.000000
 20
0.000000
  0
VERTEX
  8
gg1
 10
0.400000
 20
0.000000
  0
VERTEX
  8
gg1
 10
0.400000
 20
0.575000
  0
SEQEND
  8
gg1
  0
POLYLINE
  8
gg1
 62
1
 40
0.000000
 41
0.000000
 66
  1
  0
VERTEX
  8
gg1
 10
0.000000
 20
0.575000
  0
VERTEX
  8
gg1
 10
0.400000
 20
0.575000
  0
SEQEND
  8
gg1
  0
POLYLINE
  8
gg1
 62
1
 40
0.000000
 41
0.000000
 66
  1
  0
VERTEX
  8
gg1
 10
0.400000
 20
-0.110000
  0
VERTEX
  8
gg1
 10
0.400000
 20
-0.014000
  0
SEQEND
  8
gg1
  0
POLYLINE
  8
gg1
 62
1
 40
0.000000
 41
0.000000
 66
  1
  0
VERTEX
  8
gg1
 10
0.000000
 20
-0.110000
  0
VERTEX
  8
gg1
 10
0.000000
 20
0.000000
  0
SEQEND
  8
gg1
  0
POLYLINE
  8
gg1
 62
1
 40
0.000000
 41
0.000000
 66
  1
  0
VERTEX
  8
gg1
 10
0.200000
 20
-0.100000
  0
VERTEX
  8
gg1
 10
0.400000
 20
-0.100000
  0
SEQEND
  8
gg1
  0
POLYLINE
  8
gg1
 62
1
 40
0.000000
 41
0.000000
 66
  1
  0
VERTEX
  8
gg1
 10
0.000000
 20
-0.100000
  0
VERTEX
  8
gg1
 10
0.200000
 20
-0.100000
  0
SEQEND
  8
gg1
  0
POLYLINE
  8
gg1
 62
1
 40
0.000000
 41
0.000000
 66
  1
  0
VERTEX
  8
gg1
 10
0.340000
 20
-0.080000
  0
VERTEX
  8
gg1
 10
0.400000
 20
-0.100000
  0
SEQEND
  8
gg1
  0
POLYLINE
  8
gg1
 62
1
 40
0.000000
 41
0.000000
 66
  1
  0
VERTEX
  8
gg1
 10
0.340000
 20
-0.120000
  0
VERTEX
  8
gg1
 10
0.400000
 20
-0.100000
  0
SEQEND
  8
gg1
  0
POLYLINE
  8
gg1
 62
1
 40
0.000000
 41
0.000000
 66
  1
  0
VERTEX
  8
gg1
 10
0.000000
 20
-0.100000
  0
VERTEX
  8
gg1
 10
0.060000
 20
-0.120000
  0
SEQEND
  8
gg1
  0
POLYLINE
  8
gg1
 62
1
 40
0.000000
 41
0.000000
 66
  1
  0
VERTEX
  8
gg1
 10
0.000000
 20
-0.100000
  0
VERTEX
  8
gg1
 10
0.060000
 20
-0.080000
  0
SEQEND
  8
gg1
  0
POLYLINE
  8
gg1
 62
1
 40
0.000000
 41
0.000000
 66
  1
  0
VERTEX
  8
gg1
 10
-0.110000
 20
0.575000
  0
VERTEX
  8
gg1
 10
-0.014000
 20
0.575000
  0
SEQEND
  8
gg1
  0
POLYLINE
  8
gg1
 62
1
 40
0.000000
 41
0.000000
 66
  1
  0
VERTEX
  8
gg1
 10
-0.110000
 20
0.000000
  0
VERTEX
  8
gg1
 10
0.000000
 20
0.000000
  0
SEQEND
  8
gg1
  0
POLYLINE
  8
gg1
 62
1
 40
0.000000
 41
0.000000
 66
  1
  0
VERTEX
  8
gg1
 10
-0.100000
 20
0.442400
  0
VERTEX
  8
gg1
 10
-0.100000
 20
0.575000
  0
SEQEND
  8
gg1
  0
POLYLINE
  8
gg1
 62
1
 40
0.000000
 41
0.000000
 66
  1
  0
VERTEX
  8
gg1
 10
-0.100000
 20
0.000000
  0
VERTEX
  8
gg1
 10
-0.100000
 20
0.100600
  0
SEQEND
  8
gg1
  0
POLYLINE
  8
gg1
 62
1
 40
0.000000
 41
0.000000
 66
  1
  0
VERTEX
  8
gg1
 10
-0.120000
 20
0.515000
  0
VERTEX
  8
gg1
 10
-0.100000
 20
0.575000
  0
VERTEX
  8
gg1
 10
-0.080000
 20
0.515000
  0
SEQEND
  8
gg1
  0
POLYLINE
  8
gg1
 62
1
 40
0.000000
 41
0.000000
 66
  1
  0
VERTEX
  8
gg1
 10
-0.100000
 20
0.000000
  0
VERTEX
  8
gg1
 10
-0.080000
 20
0.060000
  0
SEQEND
  8
gg1
  0
POLYLINE
  8
gg1
 62
1
 40
0.000000
 41
0.000000
 66
  1
  0
VERTEX
  8
gg1
 10
-0.120000
 20
0.060000
  0
VERTEX
  8
gg1
 10
-0.100000
 20
0.000000
  0
SEQEND
  8
gg1
  0
POLYLINE
  8
gg1
 62
1
 40
0.000000
 41
0.000000
 66
  1
  0
VERTEX
  8
gg1
 10
0.080000
 20
-0.195000
  0
VERTEX
  8
gg1
 10
0.080000
 20
-0.135000
  0
VERTEX
  8
gg1
 10
0.050000
 20
-0.165000
  0
VERTEX
  8
gg1
 10
0.090000
 20
-0.165000
  0
SEQEND
  8
gg1
  0
POLYLINE
  8
gg1
 62
1
 40
0.000000
 41
0.000000
 66
  1
  0
VERTEX
  8
gg1
 10
0.110000
 20
-0.145000
  0
VERTEX
  8
gg1
 10
0.120000
 20
-0.135000
  0
VERTEX
  8
gg1
 10
0.140000
 20
-0.135000
  0
VERTEX
  8
gg1
 10
0.150000
 20
-0.145000
  0
VERTEX
  8
gg1
 10
0.150000
 20
-0.185000
  0
VERTEX
  8
gg1
 10
0.140000
 20
-0.195000
  0
VERTEX
  8
gg1
 10
0.120000
 20
-0.195000
  0
VERTEX
  8
gg1
 10
0.110000
 20
-0.185000
  0
VERTEX
  8
gg1
 10
0.110000
 20
-0.145000
  0
SEQEND
  8
gg1
  0
POLYLINE
  8
gg1
 62
1
 40
0.000000
 41
0.000000
 66
  1
  0
VERTEX
  8
gg1
 10
0.170000
 20
-0.145000
  0
VERTEX
  8
gg1
 10
0.180000
 20
-0.135000
  0
VERTEX
  8
gg1
 10
0.200000
 20
-0.135000
  0
VERTEX
  8
gg1
 10
0.209900
 20
-0.145000
  0
VERTEX
  8
gg1
 10
0.209900
 20
-0.185000
  0
VERTEX
  8
gg1
 10
0.200000
 20
-0.195000
  0
VERTEX
  8
gg1
 10
0.180000
 20
-0.195000
  0
VERTEX
  8
gg1
 10
0.170000
 20
-0.185000
  0
VERTEX
  8
gg1
 10
0.170000
 20
-0.145000
  0
SEQEND
  8
gg1
  0
POLYLINE
  8
gg1
 62
1
 40
0.000000
 41
0.000000
 66
  1
  0
VERTEX
  8
gg1
 10
0.229900
 20
-0.195000
  0
VERTEX
  8
gg1
 10
0.229900
 20
-0.155000
  0
VERTEX
  8
gg1
 10
0.239900
 20
-0.155000
  0
VERTEX
  8
gg1
 10
0.249900
 20
-0.165000
  0
VERTEX
  8
gg1
 10
0.249900
 20
-0.195000
  0
VERTEX
  8
gg1
 10
0.249900
 20
-0.165000
  0
VERTEX
  8
gg1
 10
0.259900
 20
-0.155000
  0
VERTEX
  8
gg1
 10
0.269900
 20
-0.165000
  0
VERTEX
  8
gg1
 10
0.269900
 20
-0.195000
  0
SEQEND
  8
gg1
  0
POLYLINE
  8
gg1
 62
1
 40
0.000000
 41
0.000000
 66
  1
  0
VERTEX
  8
gg1
 10
0.289900
 20
-0.195000
  0
VERTEX
  8
gg1
 10
0.309900
 20
-0.195000
  0
VERTEX
  8
gg1
 10
0.299900
 20
-0.195000
  0
VERTEX
  8
gg1
 10
0.299900
 20
-0.155000
  0
VERTEX
  8
gg1
 10
0.289900
 20
-0.155000
  0
SEQEND
  8
gg1
  0
POLYLINE
  8
gg1
 62
1
 40
0.000000
 41
0.000000
 66
  1
  0
VERTEX
  8
gg1
 10
0.339900
 20
-0.195000
  0
VERTEX
  8
gg1
 10
0.359900
 20
-0.195000
  0
VERTEX
  8
gg1
 10
0.349900
 20
-0.195000
  0
VERTEX
  8
gg1
 10
0.349900
 20
-0.135000
  0
VERTEX
  8
gg1
 10
0.339900
 20
-0.135000
  0
SEQEND
  8
gg1
  0
POLYLINE
  8
gg1
 62
1
 40
0.000000
 41
0.000000
 66
  1
  0
VERTEX
  8
gg1
 10
-0.124000
 20
0.156500
  0
VERTEX
  8
gg1
 10
-0.124000
 20
0.116500
  0
VERTEX
  8
gg1
 10
-0.094000
 20
0.116500
  0
VERTEX
  8
gg1
 10
-0.104000
 20
0.136500
  0
VERTEX
  8
gg1
 10
-0.104000
 20
0.146500
  0
VERTEX
  8
gg1
 10
-0.094000
 20
0.156500
  0
VERTEX
  8
gg1
 10
-0.074000
 20
0.156500
  0
VERTEX
  8
gg1
 10
-0.064000
 20
0.146500
  0
VERTEX
  8
gg1
 10
-0.064000
 20
0.126500
  0
VERTEX
  8
gg1
 10
-0.074000
 20
0.116500
  0
SEQEND
  8
gg1
  0
POLYLINE
  8
gg1
 62
1
 40
0.000000
 41
0.000000
 66
  1
  0
VERTEX
  8
gg1
 10
-0.124000
 20
0.176500
  0
VERTEX
  8
gg1
 10
-0.124000
 20
0.216500
  0
VERTEX
  8
gg1
 10
-0.114000
 20
0.216500
  0
VERTEX
  8
gg1
 10
-0.074000
 20
0.176500
  0
VERTEX
  8
gg1
 10
-0.064000
 20
0.176500
  0
SEQEND
  8
gg1
  0
POLYLINE
  8
gg1
 62
1
 40
0.000000
 41
0.000000
 66
  1
  0
VERTEX
  8
gg1
 10
-0.124000
 20
0.276500
  0
VERTEX
  8
gg1
 10
-0.124000
 20
0.236500
  0
VERTEX
  8
gg1
 10
-0.094000
 20
0.236500
  0
VERTEX
  8
gg1
 10
-0.104000
 20
0.256500
  0
VERTEX
  8
gg1
 10
-0.104000
 20
0.266500
  0
VERTEX
  8
gg1
 10
-0.094000
 20
0.276500
  0
VERTEX
  8
gg1
 10
-0.074000
 20
0.276500
  0
VERTEX
  8
gg1
 10
-0.064000
 20
0.266500
  0
VERTEX
  8
gg1
 10
-0.064000
 20
0.246500
  0
VERTEX
  8
gg1
 10
-0.074000
 20
0.236500
  0
SEQEND
  8
gg1
  0
POLYLINE
  8
gg1
 62
1
 40
0.000000
 41
0.000000
 66
  1
  0
VERTEX
  8
gg1
 10
-0.064000
 20
0.296500
  0
VERTEX
  8
gg1
 10
-0.104000
 20
0.296500
  0
VERTEX
  8
gg1
 10
-0.104000
 20
0.306500
  0
VERTEX
  8
gg1
 10
-0.094000
 20
0.316500
  0
VERTEX
  8
gg1
 10
-0.064000
 20
0.316500
  0
VERTEX
  8
gg1
 10
-0.094000
 20
0.316500
  0
VERTEX
  8
gg1
 10
-0.104000
 20
0.326500
  0
VERTEX
  8
gg1
 10
-0.094000
 20
0.336500
  0
VERTEX
  8
gg1
 10
-0.064000
 20
0.336500
  0
SEQEND
  8
gg1
  0
POLYLINE
  8
gg1
 62
1
 40
0.000000
 41
0.000000
 66
  1
  0
VERTEX
  8
gg1
 10
-0.064000
 20
0.356500
  0
VERTEX
  8
gg1
 10
-0.064000
 20
0.376500
  0
VERTEX
  8
gg1
 10
-0.064000
 20
0.366500
  0
VERTEX
  8
gg1
 10
-0.104000
 20
0.366500
  0
VERTEX
  8
gg1
 10
-0.104000
 20
0.356500
  0
SEQEND
  8
gg1
  0
POLYLINE
  8
gg1
 62
1
 40
0.000000
 41
0.000000
 66
  1
  0
VERTEX
  8
gg1
 10
-0.064000
 20
0.406500
  0
VERTEX
  8
gg1
 10
-0.064000
 20
0.426500
  0
VERTEX
  8
gg1
 10
-0.064000
 20
0.416500
  0
VERTEX
  8
gg1
 10
-0.124000
 20
0.416500
  0
VERTEX
  8
gg1
 10
-0.124000
 20
0.406500
  0
SEQEND
  8
gg1
  0
POLYLINE
  8
gg1
 62
1
 40
0.000000
 41
0.000000
 66
  1
  0
VERTEX
  8
gg1
 10
0.030000
 20
0.050000
  0
VERTEX
  8
gg1
 10
0.070000
 20
0.050000
  0
SEQEND
  8
gg1
  0
POLYLINE
  8
gg1
 62
1
 40
0.000000
 41
0.000000
 66
  1
  0
VERTEX
  8
gg1
 10
0.050000
 20
0.030000
  0
VERTEX
  8
gg1
 10
0.050000
 20
0.070000
  0
SEQEND
  8
gg1
  0
POLYLINE
  8
gg1
 62
1
 40
0.000000
 41
0.000000
 66
  1
  0
VERTEX
  8
gg1
 10
0.130000
 20
0.050000
  0
VERTEX
  8
gg1
 10
0.170000
 20
0.050000
  0
SEQEND
  8
gg1
  0
POLYLINE
  8
gg1
 62
1
 40
0.000000
 41
0.000000
 66
  1
  0
VERTEX
  8
gg1
 10
0.150000
 20
0.030000
  0
VERTEX
  8
gg1
 10
0.150000
 20
0.070000
  0
SEQEND
  8
gg1
  0
POLYLINE
  8
gg1
 62
1
 40
0.000000
 41
0.000000
 66
  1
  0
VERTEX
  8
gg1
 10
0.230000
 20
0.050000
  0
VERTEX
  8
gg1
 10
0.270000
 20
0.050000
  0
SEQEND
  8
gg1
  0
POLYLINE
  8
gg1
 62
1
 40
0.000000
 41
0.000000
 66
  1
  0
VERTEX
  8
gg1
 10
0.250000
 20
0.030000
  0
VERTEX
  8
gg1
 10
0.250000
 20
0.070000
  0
SEQEND
  8
gg1
  0
POLYLINE
  8
gg1
 62
1
 40
0.000000
 41
0.000000
 66
  1
  0
VERTEX
  8
gg1
 10
0.330000
 20
0.050000
  0
VERTEX
  8
gg1
 10
0.370000
 20
0.050000
  0
SEQEND
  8
gg1
  0
POLYLINE
  8
gg1
 62
1
 40
0.000000
 41
0.000000
 66
  1
  0
VERTEX
  8
gg1
 10
0.350000
 20
0.030000
  0
VERTEX
  8
gg1
 10
0.350000
 20
0.070000
  0
SEQEND
  8
gg1
  0
POLYLINE
  8
gg1
 62
1
 40
0.000000
 41
0.000000
 66
  1
  0
VERTEX
  8
gg1
 10
0.141500
 20
0.309500
  0
VERTEX
  8
gg1
 10
0.156500
 20
0.309500
  0
SEQEND
  8
gg1
  0
POLYLINE
  8
gg1
 62
1
 40
0.000000
 41
0.000000
 66
  1
  0
VERTEX
  8
gg1
 10
0.149000
 20
0.302000
  0
VERTEX
  8
gg1
 10
0.149000
 20
0.317000
  0
SEQEND
  8
gg1
  0
POLYLINE
  8
gg1
 62
1
 40
0.000000
 41
0.000000
 66
  1
  0
VERTEX
  8
gg1
 10
0.302500
 20
0.235000
  0
VERTEX
  8
gg1
 10
0.317500
 20
0.235000
  0
SEQEND
  8
gg1
  0
POLYLINE
  8
gg1
 62
1
 40
0.000000
 41
0.000000
 66
  1
  0
VERTEX
  8
gg1
 10
0.310000
 20
0.227500
  0
VERTEX
  8
gg1
 10
0.310000
 20
0.242500
  0
SEQEND
  8
gg1
  0
POLYLINE
  8
gg1
 62
1
 40
0.000000
 41
0.000000
 66
  1
  0
VERTEX
  8
gg1
 10
0.072500
 20
0.405000
  0
VERTEX
  8
gg1
 10
0.087500
 20
0.405000
  0
SEQEND
  8
gg1
  0
POLYLINE
  8
gg1
 62
1
 40
0.000000
 41
0.000000
 66
  1
  0
VERTEX
  8
gg1
 10
0.080000
 20
0.397500
  0
VERTEX
  8
gg1
 10
0.080000
 20
0.412500
  0
SEQEND
  8
gg1
  0
POLYLINE
  8
gg1
 62
1
 40
0.000000
 41
0.000000
 66
  1
  0
VERTEX
  8
gg1
 10
0.255000
 20
0.530000
  0
VERTEX
  8
gg1
 10
0.270000
 20
0.530000
  0
SEQEND
  8
gg1
  0
POLYLINE
  8
gg1
 62
1
 40
0.000000
 41
0.000000
 66
  1
  0
VERTEX
  8
gg1
 10
0.262500
 20
0.522500
  0
VERTEX
  8
gg1
 10
0.262500
 20
0.537500
  0
SEQEND
  8
gg1
  0
POLYLINE
  8
gg1
 62
1
 40
0.000000
 41
0.000000
 66
  1
  0
VERTEX
  8
gg1
 10
0.207500
 20
0.399000
  0
VERTEX
  8
gg1
 10
0.222500
 20
0.399000
  0
SEQEND
  8
gg1
  0
POLYLINE
  8
gg1
 62
1
 40
0.000000
 41
0.000000
 66
  1
  0
VERTEX
  8
gg1
 10
0.215000
 20
0.391500
  0
VERTEX
  8
gg1
 10
0.215000
 20
0.406500
  0
SEQEND
  8
gg1
  0
POLYLINE
  8
gg1
 62
1
 40
0.000000
 41
0.000000
 66
  1
  0
VERTEX
  8
gg1
 10
0.207500
 20
0.367000
  0
VERTEX
  8
gg1
 10
0.222500
 20
0.367000
  0
SEQEND
  8
gg1
  0
POLYLINE
  8
gg1
 62
1
 40
0.000000
 41
0.000000
 66
  1
  0
VERTEX
  8
gg1
 10
0.215000
 20
0.359500
  0
VERTEX
  8
gg1
 10
0.215000
 20
0.374500
  0
SEQEND
  8
gg1
  0
POLYLINE
  8
gg1
 62
1
 40
0.000000
 41
0.000000
 66
  1
  0
VERTEX
  8
gg1
 10
0.207500
 20
0.335000
  0
VERTEX
  8
gg1
 10
0.222500
 20
0.335000
  0
SEQEND
  8
gg1
  0
POLYLINE
  8
gg1
 62
1
 40
0.000000
 41
0.000000
 66
  1
  0
VERTEX
  8
gg1
 10
0.215000
 20
0.327500
  0
VERTEX
  8
gg1
 10
0.215000
 20
0.342500
  0
SEQEND
  8
gg1
  0
POLYLINE
  8
gg1
 62
1
 40
0.000000
 41
0.000000
 66
  1
  0
VERTEX
  8
gg1
 10
0.247500
 20
0.175000
  0
VERTEX
  8
gg1
 10
0.262500
 20
0.175000
  0
SEQEND
  8
gg1
  0
POLYLINE
  8
gg1
 62
1
 40
0.000000
 41
0.000000
 66
  1
  0
VERTEX
  8
gg1
 10
0.255000
 20
0.167500
  0
VERTEX
  8
gg1
 10
0.255000
 20
0.182500
  0
SEQEND
  8
gg1
  0
POLYLINE
  8
gg1
 62
1
 40
0.000000
 41
0.000000
 66
  1
  0
VERTEX
  8
gg1
 10
0.032500
 20
0.170000
  0
VERTEX
  8
gg1
 10
0.047500
 20
0.170000
  0
SEQEND
  8
gg1
  0
POLYLINE
  8
gg1
 62
1
 40
0.000000
 41
0.000000
 66
  1
  0
VERTEX
  8
gg1
 10
0.040000
 20
0.162500
  0
VERTEX
  8
gg1
 10
0.040000
 20
0.177500
  0
SEQEND
  8
gg1
  0
POLYLINE
  8
gg1
 62
1
 40
0.000000
 41
0.000000
 66
  1
  0
VERTEX
  8
gg1
 10
0.032500
 20
0.365000
  0
VERTEX
  8
gg1
 10
0.047500
 20
0.365000
  0
SEQEND
  8
gg1
  0
POLYLINE
  8
gg1
 62
1
 40
0.000000
 41
0.000000
 66
  1
  0
VERTEX
  8
gg1
 10
0.040000
 20
0.357500
  0
VERTEX
  8
gg1
 10
0.040000
 20
0.372500
  0
SEQEND
  8
gg1
  0
POLYLINE
  8
gg1
 62
1
 40
0.000000
 41
0.000000
 66
  1
  0
VERTEX
  8
gg1
 10
0.352500
 20
0.500000
  0
VERTEX
  8
gg1
 10
0.367500
 20
0.500000
  0
SEQEND
  8
gg1
  0
POLYLINE
  8
gg1
 62
1
 40
0.000000
 41
0.000000
 66
  1
  0
VERTEX
  8
gg1
 10
0.360000
 20
0.492500
  0
VERTEX
  8
gg1
 10
0.360000
 20
0.507500
  0
SEQEND
  8
gg1
  0
POLYLINE
  8
gg1
 62
1
 40
0.000000
 41
0.000000
 66
  1
  0
VERTEX
  8
gg1
 10
0.114500
 20
0.366000
  0
VERTEX
  8
gg1
 10
0.129500
 20
0.366000
  0
SEQEND
  8
gg1
  0
POLYLINE
  8
gg1
 62
1
 40
0.000000
 41
0.000000
 66
  1
  0
VERTEX
  8
gg1
 10
0.122000
 20
0.358500
  0
VERTEX
  8
gg1
 10
0.122000
 20
0.373500
  0
SEQEND
  8
gg1
  0
POLYLINE
  8
gg1
 62
1
 40
0.000000
 41
0.000000
 66
  1
  0
VERTEX
  8
gg1
 10
0.143500
 20
0.496000
  0
VERTEX
  8
gg1
 10
0.158500
 20
0.496000
  0
SEQEND
  8
gg1
  0
POLYLINE
  8
gg1
 62
1
 40
0.000000
 41
0.000000
 66
  1
  0
VERTEX
  8
gg1
 10
0.151000
 20
0.488500
  0
VERTEX
  8
gg1
 10
0.151000
 20
0.503500
  0
SEQEND
  8
gg1
  0
ENDSEC
  0
EOF
