  0
SECTION
  2
HEADER
  9
$EXTMIN
 10
-0.127000
 20
-0.139000
  9
$EXTMAX
 10
0.855000
 20
1.225000
  9
$LIMMIN
 10
-0.127000
 20
-0.139000
  9
$LIMMAX
 10
0.855000
 20
1.225000
  9
$FILLMODE
 70
  1
  0
ENDSEC
  0
SECTION
  2
TABLES
  0
TABLE
  2
LTYPE
 70
  1
  0
LTYPE
  2
CONTINUOUS
 70
 64
  3
Solid line
 72
 65
 73
  0
 40
0.0
  0
ENDTAB
  0
TABLE
  2
LAYER
 70
 1
  0
LAYER
  2
0
 70
  0
 62
7
  6
CONTINUOUS
  0
LAYER
  2
gg1
 70
  0
 62
1
  6
CONTINUOUS
  0
ENDTAB
  0
TABLE
  2
STYLE
 70
  1
  0
STYLE
  2
STANDARD
 70
  0
 40
0.0
 41
1.0
 50
0.0
 71
  0
 42
0.2
  3
txt
  4

  0
ENDTAB
  0
ENDSEC
  0
SECTION
  2
BLOCKS
  0
BLOCK
  8
0
  2
D10
 70
64
 10
0.0
 20
0.0
  3
D10
  0
CIRCLE
  8
0
 10
0.000000
 20
0.000000
 40
0.005000
 0
ENDBLK
  8
0
  0
BLOCK
  8
0
  2
D11
 70
64
 10
0.0
 20
0.0
  3
D11
  0
CIRCLE
  8
0
 10
0.000000
 20
0.000000
 40
0.003000
 0
ENDBLK
  8
0
  0
BLOCK
  8
0
  2
D12
 70
64
 10
0.0
 20
0.0
  3
D12
  0
CIRCLE
  8
0
 10
0.000000
 20
0.000000
 40
0.002500
 0
ENDBLK
  8
0
  0
ENDSEC
  0
SECTION
  2
ENTITIES
  0
POLYLINE
  8
gg1
 62
1
 40
0.000000
 41
0.000000
 66
  1
  0
VERTEX
  8
gg1
 10
0.850000
 20
-0.110000
  0
VERTEX
  8
gg1
 10
0.850000
 20
-0.015000
  0
SEQEND
  8
gg1
  0
POLYLINE
  8
gg1
 62
1
 40
0.000000
 41
0.000000
 66
  1
  0
VERTEX
  8
gg1
 10
0.000000
 20
-0.110000
  0
VERTEX
  8
gg1
 10
0.000000
 20
-0.015000
  0
SEQEND
  8
gg1
  0
POLYLINE
  8
gg1
 62
1
 40
0.000000
 41
0.000000
 66
  1
  0
VERTEX
  8
gg1
 10
0.579900
 20
-0.100000
  0
VERTEX
  8
gg1
 10
0.850000
 20
-0.100000
  0
SEQEND
  8
gg1
  0
POLYLINE
  8
gg1
 62
1
 40
0.000000
 41
0.000000
 66
  1
  0
VERTEX
  8
gg1
 10
0.000000
 20
-0.100000
  0
VERTEX
  8
gg1
 10
0.238000
 20
-0.100000
  0
SEQEND
  8
gg1
  0
POLYLINE
  8
gg1
 62
1
 40
0.000000
 41
0.000000
 66
  1
  0
VERTEX
  8
gg1
 10
0.790000
 20
-0.080000
  0
VERTEX
  8
gg1
 10
0.850000
 20
-0.100000
  0
SEQEND
  8
gg1
  0
POLYLINE
  8
gg1
 62
1
 40
0.000000
 41
0.000000
 66
  1
  0
VERTEX
  8
gg1
 10
0.790000
 20
-0.120000
  0
VERTEX
  8
gg1
 10
0.850000
 20
-0.100000
  0
SEQEND
  8
gg1
  0
POLYLINE
  8
gg1
 62
1
 40
0.000000
 41
0.000000
 66
  1
  0
VERTEX
  8
gg1
 10
0.000000
 20
-0.100000
  0
VERTEX
  8
gg1
 10
0.060000
 20
-0.120000
  0
SEQEND
  8
gg1
  0
POLYLINE
  8
gg1
 62
1
 40
0.000000
 41
0.000000
 66
  1
  0
VERTEX
  8
gg1
 10
0.000000
 20
-0.100000
  0
VERTEX
  8
gg1
 10
0.060000
 20
-0.080000
  0
SEQEND
  8
gg1
  0
POLYLINE
  8
gg1
 62
1
 40
0.000000
 41
0.000000
 66
  1
  0
VERTEX
  8
gg1
 10
-0.110000
 20
1.220000
  0
VERTEX
  8
gg1
 10
-0.015000
 20
1.220000
  0
SEQEND
  8
gg1
  0
POLYLINE
  8
gg1
 62
1
 40
0.000000
 41
0.000000
 66
  1
  0
VERTEX
  8
gg1
 10
-0.110000
 20
0.000000
  0
VERTEX
  8
gg1
 10
-0.015000
 20
0.000000
  0
SEQEND
  8
gg1
  0
POLYLINE
  8
gg1
 62
1
 40
0.000000
 41
0.000000
 66
  1
  0
VERTEX
  8
gg1
 10
-0.100000
 20
0.789900
  0
VERTEX
  8
gg1
 10
-0.100000
 20
1.220000
  0
SEQEND
  8
gg1
  0
POLYLINE
  8
gg1
 62
1
 40
0.000000
 41
0.000000
 66
  1
  0
VERTEX
  8
gg1
 10
-0.100000
 20
0.000000
  0
VERTEX
  8
gg1
 10
-0.100000
 20
0.398100
  0
SEQEND
  8
gg1
  0
POLYLINE
  8
gg1
 62
1
 40
0.000000
 41
0.000000
 66
  1
  0
VERTEX
  8
gg1
 10
-0.120000
 20
1.160000
  0
VERTEX
  8
gg1
 10
-0.100000
 20
1.220000
  0
VERTEX
  8
gg1
 10
-0.080000
 20
1.160000
  0
SEQEND
  8
gg1
  0
POLYLINE
  8
gg1
 62
1
 40
0.000000
 41
0.000000
 66
  1
  0
VERTEX
  8
gg1
 10
-0.100000
 20
0.000000
  0
VERTEX
  8
gg1
 10
-0.080000
 20
0.060000
  0
SEQEND
  8
gg1
  0
POLYLINE
  8
gg1
 62
1
 40
0.000000
 41
0.000000
 66
  1
  0
VERTEX
  8
gg1
 10
-0.120000
 20
0.060000
  0
VERTEX
  8
gg1
 10
-0.100000
 20
0.000000
  0
SEQEND
  8
gg1
  0
POLYLINE
  8
gg1
 62
1
 40
0.000000
 41
0.000000
 66
  1
  0
VERTEX
  8
gg1
 10
0.000000
 20
0.000000
  0
VERTEX
  8
gg1
 10
0.850000
 20
0.000000
  0
VERTEX
  8
gg1
 10
0.850000
 20
1.220000
  0
SEQEND
  8
gg1
  0
POLYLINE
  8
gg1
 62
1
 40
0.000000
 41
0.000000
 66
  1
  0
VERTEX
  8
gg1
 10
0.000000
 20
1.220000
  0
VERTEX
  8
gg1
 10
0.850000
 20
1.220000
  0
SEQEND
  8
gg1
  0
POLYLINE
  8
gg1
 62
1
 40
0.000000
 41
0.000000
 66
  1
  0
VERTEX
  8
gg1
 10
0.000000
 20
0.000000
  0
VERTEX
  8
gg1
 10
0.000000
 20
1.220000
  0
SEQEND
  8
gg1
  0
POLYLINE
  8
gg1
 62
1
 40
0.000000
 41
0.000000
 66
  1
  0
VERTEX
  8
gg1
 10
0.254000
 20
-0.086000
  0
VERTEX
  8
gg1
 10
0.264000
 20
-0.076000
  0
VERTEX
  8
gg1
 10
0.284000
 20
-0.076000
  0
VERTEX
  8
gg1
 10
0.294000
 20
-0.086000
  0
VERTEX
  8
gg1
 10
0.294000
 20
-0.096000
  0
VERTEX
  8
gg1
 10
0.284000
 20
-0.106000
  0
VERTEX
  8
gg1
 10
0.294000
 20
-0.116000
  0
VERTEX
  8
gg1
 10
0.294000
 20
-0.126000
  0
VERTEX
  8
gg1
 10
0.284000
 20
-0.136000
  0
VERTEX
  8
gg1
 10
0.264000
 20
-0.136000
  0
VERTEX
  8
gg1
 10
0.254000
 20
-0.126000
  0
VERTEX
  8
gg1
 10
0.254000
 20
-0.116000
  0
VERTEX
  8
gg1
 10
0.264000
 20
-0.106000
  0
VERTEX
  8
gg1
 10
0.254000
 20
-0.096000
  0
VERTEX
  8
gg1
 10
0.254000
 20
-0.086000
  0
SEQEND
  8
gg1
  0
POLYLINE
  8
gg1
 62
1
 40
0.000000
 41
0.000000
 66
  1
  0
VERTEX
  8
gg1
 10
0.264000
 20
-0.106000
  0
VERTEX
  8
gg1
 10
0.284000
 20
-0.106000
  0
SEQEND
  8
gg1
  0
POLYLINE
  8
gg1
 62
1
 40
0.000000
 41
0.000000
 66
  1
  0
VERTEX
  8
gg1
 10
0.354000
 20
-0.076000
  0
VERTEX
  8
gg1
 10
0.314000
 20
-0.076000
  0
VERTEX
  8
gg1
 10
0.314000
 20
-0.106000
  0
VERTEX
  8
gg1
 10
0.334000
 20
-0.096000
  0
VERTEX
  8
gg1
 10
0.344000
 20
-0.096000
  0
VERTEX
  8
gg1
 10
0.354000
 20
-0.106000
  0
VERTEX
  8
gg1
 10
0.354000
 20
-0.126000
  0
VERTEX
  8
gg1
 10
0.344000
 20
-0.136000
  0
VERTEX
  8
gg1
 10
0.324000
 20
-0.136000
  0
VERTEX
  8
gg1
 10
0.314000
 20
-0.126000
  0
SEQEND
  8
gg1
  0
POLYLINE
  8
gg1
 62
1
 40
0.000000
 41
0.000000
 66
  1
  0
VERTEX
  8
gg1
 10
0.374000
 20
-0.086000
  0
VERTEX
  8
gg1
 10
0.384000
 20
-0.076000
  0
VERTEX
  8
gg1
 10
0.404000
 20
-0.076000
  0
VERTEX
  8
gg1
 10
0.414000
 20
-0.086000
  0
VERTEX
  8
gg1
 10
0.414000
 20
-0.126000
  0
VERTEX
  8
gg1
 10
0.404000
 20
-0.136000
  0
VERTEX
  8
gg1
 10
0.384000
 20
-0.136000
  0
VERTEX
  8
gg1
 10
0.374000
 20
-0.126000
  0
VERTEX
  8
gg1
 10
0.374000
 20
-0.086000
  0
SEQEND
  8
gg1
  0
POLYLINE
  8
gg1
 62
1
 40
0.000000
 41
0.000000
 66
  1
  0
VERTEX
  8
gg1
 10
0.434000
 20
-0.136000
  0
VERTEX
  8
gg1
 10
0.434000
 20
-0.096000
  0
VERTEX
  8
gg1
 10
0.444000
 20
-0.096000
  0
VERTEX
  8
gg1
 10
0.454000
 20
-0.106000
  0
VERTEX
  8
gg1
 10
0.454000
 20
-0.136000
  0
VERTEX
  8
gg1
 10
0.454000
 20
-0.106000
  0
VERTEX
  8
gg1
 10
0.464000
 20
-0.096000
  0
VERTEX
  8
gg1
 10
0.474000
 20
-0.106000
  0
VERTEX
  8
gg1
 10
0.474000
 20
-0.136000
  0
SEQEND
  8
gg1
  0
POLYLINE
  8
gg1
 62
1
 40
0.000000
 41
0.000000
 66
  1
  0
VERTEX
  8
gg1
 10
0.494000
 20
-0.136000
  0
VERTEX
  8
gg1
 10
0.514000
 20
-0.136000
  0
VERTEX
  8
gg1
 10
0.504000
 20
-0.136000
  0
VERTEX
  8
gg1
 10
0.504000
 20
-0.096000
  0
VERTEX
  8
gg1
 10
0.494000
 20
-0.096000
  0
SEQEND
  8
gg1
  0
POLYLINE
  8
gg1
 62
1
 40
0.000000
 41
0.000000
 66
  1
  0
VERTEX
  8
gg1
 10
0.544000
 20
-0.136000
  0
VERTEX
  8
gg1
 10
0.564000
 20
-0.136000
  0
VERTEX
  8
gg1
 10
0.554000
 20
-0.136000
  0
VERTEX
  8
gg1
 10
0.554000
 20
-0.076000
  0
VERTEX
  8
gg1
 10
0.544000
 20
-0.076000
  0
SEQEND
  8
gg1
  0
POLYLINE
  8
gg1
 62
1
 40
0.000000
 41
0.000000
 66
  1
  0
VERTEX
  8
gg1
 10
-0.064000
 20
0.414100
  0
VERTEX
  8
gg1
 10
-0.064000
 20
0.434100
  0
VERTEX
  8
gg1
 10
-0.064000
 20
0.424100
  0
VERTEX
  8
gg1
 10
-0.124000
 20
0.424100
  0
VERTEX
  8
gg1
 10
-0.114000
 20
0.414100
  0
SEQEND
  8
gg1
  0
POLYLINE
  8
gg1
 62
1
 40
0.000000
 41
0.000000
 66
  1
  0
VERTEX
  8
gg1
 10
-0.064000
 20
0.504000
  0
VERTEX
  8
gg1
 10
-0.064000
 20
0.464000
  0
VERTEX
  8
gg1
 10
-0.104000
 20
0.504000
  0
VERTEX
  8
gg1
 10
-0.114000
 20
0.504000
  0
VERTEX
  8
gg1
 10
-0.124000
 20
0.494000
  0
VERTEX
  8
gg1
 10
-0.124000
 20
0.474000
  0
VERTEX
  8
gg1
 10
-0.114000
 20
0.464000
  0
SEQEND
  8
gg1
  0
POLYLINE
  8
gg1
 62
1
 40
0.000000
 41
0.000000
 66
  1
  0
VERTEX
  8
gg1
 10
-0.064000
 20
0.564000
  0
VERTEX
  8
gg1
 10
-0.064000
 20
0.524000
  0
VERTEX
  8
gg1
 10
-0.104000
 20
0.564000
  0
VERTEX
  8
gg1
 10
-0.114000
 20
0.564000
  0
VERTEX
  8
gg1
 10
-0.124000
 20
0.554000
  0
VERTEX
  8
gg1
 10
-0.124000
 20
0.534000
  0
VERTEX
  8
gg1
 10
-0.114000
 20
0.524000
  0
SEQEND
  8
gg1
  0
POLYLINE
  8
gg1
 62
1
 40
0.000000
 41
0.000000
 66
  1
  0
VERTEX
  8
gg1
 10
-0.114000
 20
0.584000
  0
VERTEX
  8
gg1
 10
-0.124000
 20
0.594000
  0
VERTEX
  8
gg1
 10
-0.124000
 20
0.614000
  0
VERTEX
  8
gg1
 10
-0.114000
 20
0.624000
  0
VERTEX
  8
gg1
 10
-0.074000
 20
0.624000
  0
VERTEX
  8
gg1
 10
-0.064000
 20
0.614000
  0
VERTEX
  8
gg1
 10
-0.064000
 20
0.594000
  0
VERTEX
  8
gg1
 10
-0.074000
 20
0.584000
  0
VERTEX
  8
gg1
 10
-0.114000
 20
0.584000
  0
SEQEND
  8
gg1
  0
POLYLINE
  8
gg1
 62
1
 40
0.000000
 41
0.000000
 66
  1
  0
VERTEX
  8
gg1
 10
-0.064000
 20
0.644000
  0
VERTEX
  8
gg1
 10
-0.104000
 20
0.644000
  0
VERTEX
  8
gg1
 10
-0.104000
 20
0.654000
  0
VERTEX
  8
gg1
 10
-0.094000
 20
0.664000
  0
VERTEX
  8
gg1
 10
-0.064000
 20
0.664000
  0
VERTEX
  8
gg1
 10
-0.094000
 20
0.664000
  0
VERTEX
  8
gg1
 10
-0.104000
 20
0.674000
  0
VERTEX
  8
gg1
 10
-0.094000
 20
0.684000
  0
VERTEX
  8
gg1
 10
-0.064000
 20
0.684000
  0
SEQEND
  8
gg1
  0
POLYLINE
  8
gg1
 62
1
 40
0.000000
 41
0.000000
 66
  1
  0
VERTEX
  8
gg1
 10
-0.064000
 20
0.704000
  0
VERTEX
  8
gg1
 10
-0.064000
 20
0.724000
  0
VERTEX
  8
gg1
 10
-0.064000
 20
0.714000
  0
VERTEX
  8
gg1
 10
-0.104000
 20
0.714000
  0
VERTEX
  8
gg1
 10
-0.104000
 20
0.704000
  0
SEQEND
  8
gg1
  0
POLYLINE
  8
gg1
 62
1
 40
0.000000
 41
0.000000
 66
  1
  0
VERTEX
  8
gg1
 10
-0.064000
 20
0.753900
  0
VERTEX
  8
gg1
 10
-0.064000
 20
0.773900
  0
VERTEX
  8
gg1
 10
-0.064000
 20
0.763900
  0
VERTEX
  8
gg1
 10
-0.124000
 20
0.763900
  0
VERTEX
  8
gg1
 10
-0.124000
 20
0.753900
  0
SEQEND
  8
gg1
  0
POLYLINE
  8
gg1
 62
1
 40
0.000000
 41
0.000000
 66
  1
  0
VERTEX
  8
gg1
 10
0.387500
 20
1.110000
  0
VERTEX
  8
gg1
 10
0.512500
 20
1.110000
  0
SEQEND
  8
gg1
  0
POLYLINE
  8
gg1
 62
1
 40
0.000000
 41
0.000000
 66
  1
  0
VERTEX
  8
gg1
 10
0.450000
 20
1.047500
  0
VERTEX
  8
gg1
 10
0.450000
 20
1.172500
  0
SEQEND
  8
gg1
  0
POLYLINE
  8
gg1
 62
1
 40
0.000000
 41
0.000000
 66
  1
  0
VERTEX
  8
gg1
 10
0.387500
 20
0.110000
  0
VERTEX
  8
gg1
 10
0.512500
 20
0.110000
  0
SEQEND
  8
gg1
  0
POLYLINE
  8
gg1
 62
1
 40
0.000000
 41
0.000000
 66
  1
  0
VERTEX
  8
gg1
 10
0.450000
 20
0.047500
  0
VERTEX
  8
gg1
 10
0.450000
 20
0.172500
  0
SEQEND
  8
gg1
  0
POLYLINE
  8
gg1
 62
1
 40
0.000000
 41
0.000000
 66
  1
  0
VERTEX
  8
gg1
 10
0.770000
 20
0.260000
  0
VERTEX
  8
gg1
 10
0.810000
 20
0.260000
  0
SEQEND
  8
gg1
  0
POLYLINE
  8
gg1
 62
1
 40
0.000000
 41
0.000000
 66
  1
  0
VERTEX
  8
gg1
 10
0.790000
 20
0.240000
  0
VERTEX
  8
gg1
 10
0.790000
 20
0.280000
  0
SEQEND
  8
gg1
  0
POLYLINE
  8
gg1
 62
1
 40
0.000000
 41
0.000000
 66
  1
  0
VERTEX
  8
gg1
 10
0.770000
 20
0.160000
  0
VERTEX
  8
gg1
 10
0.810000
 20
0.160000
  0
SEQEND
  8
gg1
  0
POLYLINE
  8
gg1
 62
1
 40
0.000000
 41
0.000000
 66
  1
  0
VERTEX
  8
gg1
 10
0.790000
 20
0.140000
  0
VERTEX
  8
gg1
 10
0.790000
 20
0.180000
  0
SEQEND
  8
gg1
  0
POLYLINE
  8
gg1
 62
1
 40
0.000000
 41
0.000000
 66
  1
  0
VERTEX
  8
gg1
 10
0.770000
 20
0.060000
  0
VERTEX
  8
gg1
 10
0.810000
 20
0.060000
  0
SEQEND
  8
gg1
  0
POLYLINE
  8
gg1
 62
1
 40
0.000000
 41
0.000000
 66
  1
  0
VERTEX
  8
gg1
 10
0.790000
 20
0.040000
  0
VERTEX
  8
gg1
 10
0.790000
 20
0.080000
  0
SEQEND
  8
gg1
  0
POLYLINE
  8
gg1
 62
1
 40
0.000000
 41
0.000000
 66
  1
  0
VERTEX
  8
gg1
 10
0.190000
 20
0.828100
  0
VERTEX
  8
gg1
 10
0.230000
 20
0.828100
  0
SEQEND
  8
gg1
  0
POLYLINE
  8
gg1
 62
1
 40
0.000000
 41
0.000000
 66
  1
  0
VERTEX
  8
gg1
 10
0.210000
 20
0.808100
  0
VERTEX
  8
gg1
 10
0.210000
 20
0.848100
  0
SEQEND
  8
gg1
  0
POLYLINE
  8
gg1
 62
1
 40
0.000000
 41
0.000000
 66
  1
  0
VERTEX
  8
gg1
 10
0.078200
 20
0.773600
  0
VERTEX
  8
gg1
 10
0.118200
 20
0.773600
  0
SEQEND
  8
gg1
  0
POLYLINE
  8
gg1
 62
1
 40
0.000000
 41
0.000000
 66
  1
  0
VERTEX
  8
gg1
 10
0.098200
 20
0.753600
  0
VERTEX
  8
gg1
 10
0.098200
 20
0.793600
  0
SEQEND
  8
gg1
  0
POLYLINE
  8
gg1
 62
1
 40
0.000000
 41
0.000000
 66
  1
  0
VERTEX
  8
gg1
 10
0.190000
 20
0.719100
  0
VERTEX
  8
gg1
 10
0.230000
 20
0.719100
  0
SEQEND
  8
gg1
  0
POLYLINE
  8
gg1
 62
1
 40
0.000000
 41
0.000000
 66
  1
  0
VERTEX
  8
gg1
 10
0.210000
 20
0.699100
  0
VERTEX
  8
gg1
 10
0.210000
 20
0.739100
  0
SEQEND
  8
gg1
  0
POLYLINE
  8
gg1
 62
1
 40
0.000000
 41
0.000000
 66
  1
  0
VERTEX
  8
gg1
 10
0.078200
 20
0.664500
  0
VERTEX
  8
gg1
 10
0.118200
 20
0.664500
  0
SEQEND
  8
gg1
  0
POLYLINE
  8
gg1
 62
1
 40
0.000000
 41
0.000000
 66
  1
  0
VERTEX
  8
gg1
 10
0.098200
 20
0.644500
  0
VERTEX
  8
gg1
 10
0.098200
 20
0.684500
  0
SEQEND
  8
gg1
  0
POLYLINE
  8
gg1
 62
1
 40
0.000000
 41
0.000000
 66
  1
  0
VERTEX
  8
gg1
 10
0.190000
 20
0.610000
  0
VERTEX
  8
gg1
 10
0.230000
 20
0.610000
  0
SEQEND
  8
gg1
  0
POLYLINE
  8
gg1
 62
1
 40
0.000000
 41
0.000000
 66
  1
  0
VERTEX
  8
gg1
 10
0.210000
 20
0.590000
  0
VERTEX
  8
gg1
 10
0.210000
 20
0.630000
  0
SEQEND
  8
gg1
  0
POLYLINE
  8
gg1
 62
1
 40
0.000000
 41
0.000000
 66
  1
  0
VERTEX
  8
gg1
 10
0.078200
 20
0.555500
  0
VERTEX
  8
gg1
 10
0.118200
 20
0.555500
  0
SEQEND
  8
gg1
  0
POLYLINE
  8
gg1
 62
1
 40
0.000000
 41
0.000000
 66
  1
  0
VERTEX
  8
gg1
 10
0.098200
 20
0.535500
  0
VERTEX
  8
gg1
 10
0.098200
 20
0.575500
  0
SEQEND
  8
gg1
  0
POLYLINE
  8
gg1
 62
1
 40
0.000000
 41
0.000000
 66
  1
  0
VERTEX
  8
gg1
 10
0.190000
 20
0.500900
  0
VERTEX
  8
gg1
 10
0.230000
 20
0.500900
  0
SEQEND
  8
gg1
  0
POLYLINE
  8
gg1
 62
1
 40
0.000000
 41
0.000000
 66
  1
  0
VERTEX
  8
gg1
 10
0.210000
 20
0.480900
  0
VERTEX
  8
gg1
 10
0.210000
 20
0.520900
  0
SEQEND
  8
gg1
  0
POLYLINE
  8
gg1
 62
1
 40
0.000000
 41
0.000000
 66
  1
  0
VERTEX
  8
gg1
 10
0.078200
 20
0.446400
  0
VERTEX
  8
gg1
 10
0.118200
 20
0.446400
  0
SEQEND
  8
gg1
  0
POLYLINE
  8
gg1
 62
1
 40
0.000000
 41
0.000000
 66
  1
  0
VERTEX
  8
gg1
 10
0.098200
 20
0.426400
  0
VERTEX
  8
gg1
 10
0.098200
 20
0.466400
  0
SEQEND
  8
gg1
  0
POLYLINE
  8
gg1
 62
1
 40
0.000000
 41
0.000000
 66
  1
  0
VERTEX
  8
gg1
 10
0.190000
 20
0.391900
  0
VERTEX
  8
gg1
 10
0.230000
 20
0.391900
  0
SEQEND
  8
gg1
  0
POLYLINE
  8
gg1
 62
1
 40
0.000000
 41
0.000000
 66
  1
  0
VERTEX
  8
gg1
 10
0.210000
 20
0.371900
  0
VERTEX
  8
gg1
 10
0.210000
 20
0.411900
  0
SEQEND
  8
gg1
  0
POLYLINE
  8
gg1
 62
1
 40
0.000000
 41
0.000000
 66
  1
  0
VERTEX
  8
gg1
 10
0.091600
 20
0.118100
  0
VERTEX
  8
gg1
 10
0.216600
 20
0.118100
  0
SEQEND
  8
gg1
  0
POLYLINE
  8
gg1
 62
1
 40
0.000000
 41
0.000000
 66
  1
  0
VERTEX
  8
gg1
 10
0.154100
 20
0.055600
  0
VERTEX
  8
gg1
 10
0.154100
 20
0.180600
  0
SEQEND
  8
gg1
  0
POLYLINE
  8
gg1
 62
1
 40
0.000000
 41
0.000000
 66
  1
  0
VERTEX
  8
gg1
 10
0.091600
 20
1.101900
  0
VERTEX
  8
gg1
 10
0.216600
 20
1.101900
  0
SEQEND
  8
gg1
  0
POLYLINE
  8
gg1
 62
1
 40
0.000000
 41
0.000000
 66
  1
  0
VERTEX
  8
gg1
 10
0.154100
 20
1.039400
  0
VERTEX
  8
gg1
 10
0.154100
 20
1.164400
  0
SEQEND
  8
gg1
  0
POLYLINE
  8
gg1
 62
1
 40
0.000000
 41
0.000000
 66
  1
  0
VERTEX
  8
gg1
 10
0.770000
 20
0.760000
  0
VERTEX
  8
gg1
 10
0.810000
 20
0.760000
  0
SEQEND
  8
gg1
  0
POLYLINE
  8
gg1
 62
1
 40
0.000000
 41
0.000000
 66
  1
  0
VERTEX
  8
gg1
 10
0.790000
 20
0.740000
  0
VERTEX
  8
gg1
 10
0.790000
 20
0.780000
  0
SEQEND
  8
gg1
  0
POLYLINE
  8
gg1
 62
1
 40
0.000000
 41
0.000000
 66
  1
  0
VERTEX
  8
gg1
 10
0.770000
 20
0.860000
  0
VERTEX
  8
gg1
 10
0.810000
 20
0.860000
  0
SEQEND
  8
gg1
  0
POLYLINE
  8
gg1
 62
1
 40
0.000000
 41
0.000000
 66
  1
  0
VERTEX
  8
gg1
 10
0.790000
 20
0.840000
  0
VERTEX
  8
gg1
 10
0.790000
 20
0.880000
  0
SEQEND
  8
gg1
  0
POLYLINE
  8
gg1
 62
1
 40
0.000000
 41
0.000000
 66
  1
  0
VERTEX
  8
gg1
 10
0.770000
 20
0.960000
  0
VERTEX
  8
gg1
 10
0.810000
 20
0.960000
  0
SEQEND
  8
gg1
  0
POLYLINE
  8
gg1
 62
1
 40
0.000000
 41
0.000000
 66
  1
  0
VERTEX
  8
gg1
 10
0.790000
 20
0.940000
  0
VERTEX
  8
gg1
 10
0.790000
 20
0.980000
  0
SEQEND
  8
gg1
  0
POLYLINE
  8
gg1
 62
1
 40
0.000000
 41
0.000000
 66
  1
  0
VERTEX
  8
gg1
 10
0.770000
 20
1.060000
  0
VERTEX
  8
gg1
 10
0.810000
 20
1.060000
  0
SEQEND
  8
gg1
  0
POLYLINE
  8
gg1
 62
1
 40
0.000000
 41
0.000000
 66
  1
  0
VERTEX
  8
gg1
 10
0.790000
 20
1.040000
  0
VERTEX
  8
gg1
 10
0.790000
 20
1.080000
  0
SEQEND
  8
gg1
  0
POLYLINE
  8
gg1
 62
1
 40
0.000000
 41
0.000000
 66
  1
  0
VERTEX
  8
gg1
 10
0.770000
 20
1.160000
  0
VERTEX
  8
gg1
 10
0.810000
 20
1.160000
  0
SEQEND
  8
gg1
  0
POLYLINE
  8
gg1
 62
1
 40
0.000000
 41
0.000000
 66
  1
  0
VERTEX
  8
gg1
 10
0.790000
 20
1.140000
  0
VERTEX
  8
gg1
 10
0.790000
 20
1.180000
  0
SEQEND
  8
gg1
  0
POLYLINE
  8
gg1
 62
1
 40
0.000000
 41
0.000000
 66
  1
  0
VERTEX
  8
gg1
 10
0.770000
 20
0.660000
  0
VERTEX
  8
gg1
 10
0.810000
 20
0.660000
  0
SEQEND
  8
gg1
  0
POLYLINE
  8
gg1
 62
1
 40
0.000000
 41
0.000000
 66
  1
  0
VERTEX
  8
gg1
 10
0.790000
 20
0.640000
  0
VERTEX
  8
gg1
 10
0.790000
 20
0.680000
  0
SEQEND
  8
gg1
  0
POLYLINE
  8
gg1
 62
1
 40
0.000000
 41
0.000000
 66
  1
  0
VERTEX
  8
gg1
 10
0.770000
 20
0.560000
  0
VERTEX
  8
gg1
 10
0.810000
 20
0.560000
  0
SEQEND
  8
gg1
  0
POLYLINE
  8
gg1
 62
1
 40
0.000000
 41
0.000000
 66
  1
  0
VERTEX
  8
gg1
 10
0.790000
 20
0.540000
  0
VERTEX
  8
gg1
 10
0.790000
 20
0.580000
  0
SEQEND
  8
gg1
  0
POLYLINE
  8
gg1
 62
1
 40
0.000000
 41
0.000000
 66
  1
  0
VERTEX
  8
gg1
 10
0.770000
 20
0.460000
  0
VERTEX
  8
gg1
 10
0.810000
 20
0.460000
  0
SEQEND
  8
gg1
  0
POLYLINE
  8
gg1
 62
1
 40
0.000000
 41
0.000000
 66
  1
  0
VERTEX
  8
gg1
 10
0.790000
 20
0.440000
  0
VERTEX
  8
gg1
 10
0.790000
 20
0.480000
  0
SEQEND
  8
gg1
  0
POLYLINE
  8
gg1
 62
1
 40
0.000000
 41
0.000000
 66
  1
  0
VERTEX
  8
gg1
 10
0.770000
 20
0.360000
  0
VERTEX
  8
gg1
 10
0.810000
 20
0.360000
  0
SEQEND
  8
gg1
  0
POLYLINE
  8
gg1
 62
1
 40
0.000000
 41
0.000000
 66
  1
  0
VERTEX
  8
gg1
 10
0.790000
 20
0.340000
  0
VERTEX
  8
gg1
 10
0.790000
 20
0.380000
  0
SEQEND
  8
gg1
  0
POLYLINE
  8
gg1
 62
1
 40
0.000000
 41
0.000000
 66
  1
  0
VERTEX
  8
gg1
 10
0.282500
 20
0.465000
  0
VERTEX
  8
gg1
 10
0.297500
 20
0.465000
  0
SEQEND
  8
gg1
  0
POLYLINE
  8
gg1
 62
1
 40
0.000000
 41
0.000000
 66
  1
  0
VERTEX
  8
gg1
 10
0.290000
 20
0.457500
  0
VERTEX
  8
gg1
 10
0.290000
 20
0.472500
  0
SEQEND
  8
gg1
  0
POLYLINE
  8
gg1
 62
1
 40
0.000000
 41
0.000000
 66
  1
  0
VERTEX
  8
gg1
 10
0.282500
 20
0.510000
  0
VERTEX
  8
gg1
 10
0.297500
 20
0.510000
  0
SEQEND
  8
gg1
  0
POLYLINE
  8
gg1
 62
1
 40
0.000000
 41
0.000000
 66
  1
  0
VERTEX
  8
gg1
 10
0.290000
 20
0.502500
  0
VERTEX
  8
gg1
 10
0.290000
 20
0.517500
  0
SEQEND
  8
gg1
  0
POLYLINE
  8
gg1
 62
1
 40
0.000000
 41
0.000000
 66
  1
  0
VERTEX
  8
gg1
 10
0.292500
 20
0.400000
  0
VERTEX
  8
gg1
 10
0.307500
 20
0.400000
  0
SEQEND
  8
gg1
  0
POLYLINE
  8
gg1
 62
1
 40
0.000000
 41
0.000000
 66
  1
  0
VERTEX
  8
gg1
 10
0.300000
 20
0.392500
  0
VERTEX
  8
gg1
 10
0.300000
 20
0.407500
  0
SEQEND
  8
gg1
  0
POLYLINE
  8
gg1
 62
1
 40
0.000000
 41
0.000000
 66
  1
  0
VERTEX
  8
gg1
 10
0.427500
 20
0.562000
  0
VERTEX
  8
gg1
 10
0.442500
 20
0.562000
  0
SEQEND
  8
gg1
  0
POLYLINE
  8
gg1
 62
1
 40
0.000000
 41
0.000000
 66
  1
  0
VERTEX
  8
gg1
 10
0.435000
 20
0.554500
  0
VERTEX
  8
gg1
 10
0.435000
 20
0.569500
  0
SEQEND
  8
gg1
  0
POLYLINE
  8
gg1
 62
1
 40
0.000000
 41
0.000000
 66
  1
  0
VERTEX
  8
gg1
 10
0.297500
 20
0.570000
  0
VERTEX
  8
gg1
 10
0.312500
 20
0.570000
  0
SEQEND
  8
gg1
  0
POLYLINE
  8
gg1
 62
1
 40
0.000000
 41
0.000000
 66
  1
  0
VERTEX
  8
gg1
 10
0.305000
 20
0.562500
  0
VERTEX
  8
gg1
 10
0.305000
 20
0.577500
  0
SEQEND
  8
gg1
  0
POLYLINE
  8
gg1
 62
1
 40
0.000000
 41
0.000000
 66
  1
  0
VERTEX
  8
gg1
 10
0.672500
 20
0.550000
  0
VERTEX
  8
gg1
 10
0.687500
 20
0.550000
  0
SEQEND
  8
gg1
  0
POLYLINE
  8
gg1
 62
1
 40
0.000000
 41
0.000000
 66
  1
  0
VERTEX
  8
gg1
 10
0.680000
 20
0.542500
  0
VERTEX
  8
gg1
 10
0.680000
 20
0.557500
  0
SEQEND
  8
gg1
  0
POLYLINE
  8
gg1
 62
1
 40
0.000000
 41
0.000000
 66
  1
  0
VERTEX
  8
gg1
 10
0.507500
 20
0.645000
  0
VERTEX
  8
gg1
 10
0.522500
 20
0.645000
  0
SEQEND
  8
gg1
  0
POLYLINE
  8
gg1
 62
1
 40
0.000000
 41
0.000000
 66
  1
  0
VERTEX
  8
gg1
 10
0.515000
 20
0.637500
  0
VERTEX
  8
gg1
 10
0.515000
 20
0.652500
  0
SEQEND
  8
gg1
  0
POLYLINE
  8
gg1
 62
1
 40
0.000000
 41
0.000000
 66
  1
  0
VERTEX
  8
gg1
 10
0.617500
 20
0.760000
  0
VERTEX
  8
gg1
 10
0.632500
 20
0.760000
  0
SEQEND
  8
gg1
  0
POLYLINE
  8
gg1
 62
1
 40
0.000000
 41
0.000000
 66
  1
  0
VERTEX
  8
gg1
 10
0.625000
 20
0.752500
  0
VERTEX
  8
gg1
 10
0.625000
 20
0.767500
  0
SEQEND
  8
gg1
  0
POLYLINE
  8
gg1
 62
1
 40
0.000000
 41
0.000000
 66
  1
  0
VERTEX
  8
gg1
 10
0.616700
 20
0.908300
  0
VERTEX
  8
gg1
 10
0.631700
 20
0.908300
  0
SEQEND
  8
gg1
  0
POLYLINE
  8
gg1
 62
1
 40
0.000000
 41
0.000000
 66
  1
  0
VERTEX
  8
gg1
 10
0.624200
 20
0.900800
  0
VERTEX
  8
gg1
 10
0.624200
 20
0.915800
  0
SEQEND
  8
gg1
  0
POLYLINE
  8
gg1
 62
1
 40
0.000000
 41
0.000000
 66
  1
  0
VERTEX
  8
gg1
 10
0.457500
 20
0.890000
  0
VERTEX
  8
gg1
 10
0.472500
 20
0.890000
  0
SEQEND
  8
gg1
  0
POLYLINE
  8
gg1
 62
1
 40
0.000000
 41
0.000000
 66
  1
  0
VERTEX
  8
gg1
 10
0.465000
 20
0.882500
  0
VERTEX
  8
gg1
 10
0.465000
 20
0.897500
  0
SEQEND
  8
gg1
  0
POLYLINE
  8
gg1
 62
1
 40
0.000000
 41
0.000000
 66
  1
  0
VERTEX
  8
gg1
 10
0.647500
 20
0.225000
  0
VERTEX
  8
gg1
 10
0.662500
 20
0.225000
  0
SEQEND
  8
gg1
  0
POLYLINE
  8
gg1
 62
1
 40
0.000000
 41
0.000000
 66
  1
  0
VERTEX
  8
gg1
 10
0.655000
 20
0.217500
  0
VERTEX
  8
gg1
 10
0.655000
 20
0.232500
  0
SEQEND
  8
gg1
  0
POLYLINE
  8
gg1
 62
1
 40
0.000000
 41
0.000000
 66
  1
  0
VERTEX
  8
gg1
 10
0.277500
 20
0.225000
  0
VERTEX
  8
gg1
 10
0.292500
 20
0.225000
  0
SEQEND
  8
gg1
  0
POLYLINE
  8
gg1
 62
1
 40
0.000000
 41
0.000000
 66
  1
  0
VERTEX
  8
gg1
 10
0.285000
 20
0.217500
  0
VERTEX
  8
gg1
 10
0.285000
 20
0.232500
  0
SEQEND
  8
gg1
  0
POLYLINE
  8
gg1
 62
1
 40
0.000000
 41
0.000000
 66
  1
  0
VERTEX
  8
gg1
 10
0.697500
 20
0.460000
  0
VERTEX
  8
gg1
 10
0.712500
 20
0.460000
  0
SEQEND
  8
gg1
  0
POLYLINE
  8
gg1
 62
1
 40
0.000000
 41
0.000000
 66
  1
  0
VERTEX
  8
gg1
 10
0.705000
 20
0.452500
  0
VERTEX
  8
gg1
 10
0.705000
 20
0.467500
  0
SEQEND
  8
gg1
  0
POLYLINE
  8
gg1
 62
1
 40
0.000000
 41
0.000000
 66
  1
  0
VERTEX
  8
gg1
 10
0.367500
 20
0.302500
  0
VERTEX
  8
gg1
 10
0.382500
 20
0.302500
  0
SEQEND
  8
gg1
  0
POLYLINE
  8
gg1
 62
1
 40
0.000000
 41
0.000000
 66
  1
  0
VERTEX
  8
gg1
 10
0.375000
 20
0.295000
  0
VERTEX
  8
gg1
 10
0.375000
 20
0.310000
  0
SEQEND
  8
gg1
  0
POLYLINE
  8
gg1
 62
1
 40
0.000000
 41
0.000000
 66
  1
  0
VERTEX
  8
gg1
 10
0.277500
 20
0.890000
  0
VERTEX
  8
gg1
 10
0.292500
 20
0.890000
  0
SEQEND
  8
gg1
  0
POLYLINE
  8
gg1
 62
1
 40
0.000000
 41
0.000000
 66
  1
  0
VERTEX
  8
gg1
 10
0.285000
 20
0.882500
  0
VERTEX
  8
gg1
 10
0.285000
 20
0.897500
  0
SEQEND
  8
gg1
  0
ENDSEC
  0
EOF
