  0
SECTION
  2
HEADER
  9
$EXTMIN
 10
-0.575000
 20
-0.234000
  9
$EXTMAX
 10
1.136000
 20
1.152000
  9
$LIMMIN
 10
-0.575000
 20
-0.234000
  9
$LIMMAX
 10
1.136000
 20
1.152000
  9
$FILLMODE
 70
  1
  0
ENDSEC
  0
SECTION
  2
TABLES
  0
TABLE
  2
LTYPE
 70
  1
  0
LTYPE
  2
CONTINUOUS
 70
 64
  3
Solid line
 72
 65
 73
  0
 40
0.0
  0
ENDTAB
  0
TABLE
  2
LAYER
 70
 1
  0
LAYER
  2
0
 70
  0
 62
7
  6
CONTINUOUS
  0
LAYER
  2
gg1
 70
  0
 62
1
  6
CONTINUOUS
  0
ENDTAB
  0
TABLE
  2
STYLE
 70
  1
  0
STYLE
  2
STANDARD
 70
  0
 40
0.0
 41
1.0
 50
0.0
 71
  0
 42
0.2
  3
txt
  4

  0
ENDTAB
  0
ENDSEC
  0
SECTION
  2
BLOCKS
  0
BLOCK
  8
0
  2
D10
 70
64
 10
0.0
 20
0.0
  3
D10
  0
CIRCLE
  8
0
 10
0.000000
 20
0.000000
 40
0.002500
 0
ENDBLK
  8
0
  0
BLOCK
  8
0
  2
D11
 70
64
 10
0.0
 20
0.0
  3
D11
  0
CIRCLE
  8
0
 10
0.000000
 20
0.000000
 40
0.003000
 0
ENDBLK
  8
0
  0
ENDSEC
  0
SECTION
  2
ENTITIES
  0
POLYLINE
  8
gg1
 62
1
 40
0.000000
 41
0.000000
 66
  1
  0
VERTEX
  8
gg1
 10
0.954300
 20
0.420000
  0
VERTEX
  8
gg1
 10
0.954300
 20
0.420000
  0
VERTEX
  8
gg1
 10
0.954300
 20
0.420000
 42
1.000000
  0
VERTEX
  8
gg1
 10
0.954300
 20
0.780000
  0
VERTEX
  8
gg1
 10
0.954300
 20
0.780000
  0
SEQEND
  8
gg1
  0
POLYLINE
  8
gg1
 62
1
 40
0.000000
 41
0.000000
 66
  1
  0
VERTEX
  8
gg1
 10
0.245700
 20
0.780000
  0
VERTEX
  8
gg1
 10
0.245700
 20
0.780000
  0
VERTEX
  8
gg1
 10
0.245700
 20
0.780000
 42
1.000000
  0
VERTEX
  8
gg1
 10
0.245700
 20
0.420000
  0
VERTEX
  8
gg1
 10
0.245700
 20
0.420000
  0
SEQEND
  8
gg1
  0
POLYLINE
  8
gg1
 62
1
 40
0.000000
 41
0.000000
 66
  1
  0
VERTEX
  8
gg1
 10
0.920000
 20
-0.085000
  0
VERTEX
  8
gg1
 10
0.920000
 20
-0.012500
  0
SEQEND
  8
gg1
  0
POLYLINE
  8
gg1
 62
1
 40
0.000000
 41
0.000000
 66
  1
  0
VERTEX
  8
gg1
 10
0.280000
 20
-0.085000
  0
VERTEX
  8
gg1
 10
0.280000
 20
-0.012500
  0
SEQEND
  8
gg1
  0
POLYLINE
  8
gg1
 62
1
 40
0.000000
 41
0.000000
 66
  1
  0
VERTEX
  8
gg1
 10
0.754900
 20
-0.075000
  0
VERTEX
  8
gg1
 10
0.920000
 20
-0.075000
  0
SEQEND
  8
gg1
  0
POLYLINE
  8
gg1
 62
1
 40
0.000000
 41
0.000000
 66
  1
  0
VERTEX
  8
gg1
 10
0.280000
 20
-0.075000
  0
VERTEX
  8
gg1
 10
0.413000
 20
-0.075000
  0
SEQEND
  8
gg1
  0
POLYLINE
  8
gg1
 62
1
 40
0.000000
 41
0.000000
 66
  1
  0
VERTEX
  8
gg1
 10
0.860000
 20
-0.055000
  0
VERTEX
  8
gg1
 10
0.920000
 20
-0.075000
  0
SEQEND
  8
gg1
  0
POLYLINE
  8
gg1
 62
1
 40
0.000000
 41
0.000000
 66
  1
  0
VERTEX
  8
gg1
 10
0.860000
 20
-0.095000
  0
VERTEX
  8
gg1
 10
0.920000
 20
-0.075000
  0
SEQEND
  8
gg1
  0
POLYLINE
  8
gg1
 62
1
 40
0.000000
 41
0.000000
 66
  1
  0
VERTEX
  8
gg1
 10
0.280000
 20
-0.075000
  0
VERTEX
  8
gg1
 10
0.340000
 20
-0.095000
  0
SEQEND
  8
gg1
  0
POLYLINE
  8
gg1
 62
1
 40
0.000000
 41
0.000000
 66
  1
  0
VERTEX
  8
gg1
 10
0.280000
 20
-0.075000
  0
VERTEX
  8
gg1
 10
0.340000
 20
-0.055000
  0
SEQEND
  8
gg1
  0
POLYLINE
  8
gg1
 62
1
 40
0.000000
 41
0.000000
 66
  1
  0
VERTEX
  8
gg1
 10
-0.005000
 20
0.420000
  0
VERTEX
  8
gg1
 10
0.267500
 20
0.420000
  0
SEQEND
  8
gg1
  0
POLYLINE
  8
gg1
 62
1
 40
0.000000
 41
0.000000
 66
  1
  0
VERTEX
  8
gg1
 10
-0.005000
 20
0.000000
  0
VERTEX
  8
gg1
 10
0.267500
 20
0.000000
  0
SEQEND
  8
gg1
  0
POLYLINE
  8
gg1
 62
1
 40
0.000000
 41
0.000000
 66
  1
  0
VERTEX
  8
gg1
 10
0.005000
 20
-0.100000
  0
VERTEX
  8
gg1
 10
0.005000
 20
0.000000
  0
SEQEND
  8
gg1
  0
POLYLINE
  8
gg1
 62
1
 40
0.000000
 41
0.000000
 66
  1
  0
VERTEX
  8
gg1
 10
0.005000
 20
0.420000
  0
VERTEX
  8
gg1
 10
0.005000
 20
0.520000
  0
SEQEND
  8
gg1
  0
POLYLINE
  8
gg1
 62
1
 40
0.000000
 41
0.000000
 66
  1
  0
VERTEX
  8
gg1
 10
-0.015000
 20
-0.060000
  0
VERTEX
  8
gg1
 10
0.005000
 20
0.000000
  0
VERTEX
  8
gg1
 10
0.025000
 20
-0.060000
  0
SEQEND
  8
gg1
  0
POLYLINE
  8
gg1
 62
1
 40
0.000000
 41
0.000000
 66
  1
  0
VERTEX
  8
gg1
 10
0.005000
 20
0.420000
  0
VERTEX
  8
gg1
 10
0.025000
 20
0.480000
  0
SEQEND
  8
gg1
  0
POLYLINE
  8
gg1
 62
1
 40
0.000000
 41
0.000000
 66
  1
  0
VERTEX
  8
gg1
 10
-0.015000
 20
0.480000
  0
VERTEX
  8
gg1
 10
0.005000
 20
0.420000
  0
SEQEND
  8
gg1
  0
POLYLINE
  8
gg1
 62
1
 40
0.000000
 41
0.000000
 66
  1
  0
VERTEX
  8
gg1
 10
-0.230000
 20
0.780000
  0
VERTEX
  8
gg1
 10
0.237500
 20
0.780000
  0
SEQEND
  8
gg1
  0
POLYLINE
  8
gg1
 62
1
 40
0.000000
 41
0.000000
 66
  1
  0
VERTEX
  8
gg1
 10
-0.230000
 20
0.420000
  0
VERTEX
  8
gg1
 10
0.267500
 20
0.420000
  0
SEQEND
  8
gg1
  0
POLYLINE
  8
gg1
 62
1
 40
0.000000
 41
0.000000
 66
  1
  0
VERTEX
  8
gg1
 10
-0.220000
 20
0.320000
  0
VERTEX
  8
gg1
 10
-0.220000
 20
0.420000
  0
SEQEND
  8
gg1
  0
POLYLINE
  8
gg1
 62
1
 40
0.000000
 41
0.000000
 66
  1
  0
VERTEX
  8
gg1
 10
-0.220000
 20
0.780000
  0
VERTEX
  8
gg1
 10
-0.220000
 20
0.880000
  0
SEQEND
  8
gg1
  0
POLYLINE
  8
gg1
 62
1
 40
0.000000
 41
0.000000
 66
  1
  0
VERTEX
  8
gg1
 10
-0.240000
 20
0.360000
  0
VERTEX
  8
gg1
 10
-0.220000
 20
0.420000
  0
VERTEX
  8
gg1
 10
-0.200000
 20
0.360000
  0
SEQEND
  8
gg1
  0
POLYLINE
  8
gg1
 62
1
 40
0.000000
 41
0.000000
 66
  1
  0
VERTEX
  8
gg1
 10
-0.220000
 20
0.780000
  0
VERTEX
  8
gg1
 10
-0.200000
 20
0.840000
  0
SEQEND
  8
gg1
  0
POLYLINE
  8
gg1
 62
1
 40
0.000000
 41
0.000000
 66
  1
  0
VERTEX
  8
gg1
 10
-0.240000
 20
0.840000
  0
VERTEX
  8
gg1
 10
-0.220000
 20
0.780000
  0
SEQEND
  8
gg1
  0
POLYLINE
  8
gg1
 62
1
 40
0.000000
 41
0.000000
 66
  1
  0
VERTEX
  8
gg1
 10
-0.450000
 20
1.050000
  0
VERTEX
  8
gg1
 10
0.237500
 20
1.050000
  0
SEQEND
  8
gg1
  0
POLYLINE
  8
gg1
 62
1
 40
0.000000
 41
0.000000
 66
  1
  0
VERTEX
  8
gg1
 10
-0.450000
 20
0.780000
  0
VERTEX
  8
gg1
 10
0.237500
 20
0.780000
  0
SEQEND
  8
gg1
  0
POLYLINE
  8
gg1
 62
1
 40
0.000000
 41
0.000000
 66
  1
  0
VERTEX
  8
gg1
 10
-0.440000
 20
0.680000
  0
VERTEX
  8
gg1
 10
-0.440000
 20
0.780000
  0
SEQEND
  8
gg1
  0
POLYLINE
  8
gg1
 62
1
 40
0.000000
 41
0.000000
 66
  1
  0
VERTEX
  8
gg1
 10
-0.440000
 20
1.050000
  0
VERTEX
  8
gg1
 10
-0.440000
 20
1.150000
  0
SEQEND
  8
gg1
  0
POLYLINE
  8
gg1
 62
1
 40
0.000000
 41
0.000000
 66
  1
  0
VERTEX
  8
gg1
 10
-0.460000
 20
0.720000
  0
VERTEX
  8
gg1
 10
-0.440000
 20
0.780000
  0
VERTEX
  8
gg1
 10
-0.420000
 20
0.720000
  0
SEQEND
  8
gg1
  0
POLYLINE
  8
gg1
 62
1
 40
0.000000
 41
0.000000
 66
  1
  0
VERTEX
  8
gg1
 10
-0.440000
 20
1.050000
  0
VERTEX
  8
gg1
 10
-0.420000
 20
1.110000
  0
SEQEND
  8
gg1
  0
POLYLINE
  8
gg1
 62
1
 40
0.000000
 41
0.000000
 66
  1
  0
VERTEX
  8
gg1
 10
-0.460000
 20
1.110000
  0
VERTEX
  8
gg1
 10
-0.440000
 20
1.050000
  0
SEQEND
  8
gg1
  0
POLYLINE
  8
gg1
 62
1
 40
0.000000
 41
0.000000
 66
  1
  0
VERTEX
  8
gg1
 10
0.950000
 20
1.062500
  0
VERTEX
  8
gg1
 10
0.950000
 20
1.130000
  0
SEQEND
  8
gg1
  0
POLYLINE
  8
gg1
 62
1
 40
0.000000
 41
0.000000
 66
  1
  0
VERTEX
  8
gg1
 10
0.250000
 20
1.062500
  0
VERTEX
  8
gg1
 10
0.250000
 20
1.130000
  0
SEQEND
  8
gg1
  0
POLYLINE
  8
gg1
 62
1
 40
0.000000
 41
0.000000
 66
  1
  0
VERTEX
  8
gg1
 10
0.754900
 20
1.120000
  0
VERTEX
  8
gg1
 10
0.950000
 20
1.120000
  0
SEQEND
  8
gg1
  0
POLYLINE
  8
gg1
 62
1
 40
0.000000
 41
0.000000
 66
  1
  0
VERTEX
  8
gg1
 10
0.250000
 20
1.120000
  0
VERTEX
  8
gg1
 10
0.413000
 20
1.120000
  0
SEQEND
  8
gg1
  0
POLYLINE
  8
gg1
 62
1
 40
0.000000
 41
0.000000
 66
  1
  0
VERTEX
  8
gg1
 10
0.890000
 20
1.140000
  0
VERTEX
  8
gg1
 10
0.950000
 20
1.120000
  0
SEQEND
  8
gg1
  0
POLYLINE
  8
gg1
 62
1
 40
0.000000
 41
0.000000
 66
  1
  0
VERTEX
  8
gg1
 10
0.890000
 20
1.100000
  0
VERTEX
  8
gg1
 10
0.950000
 20
1.120000
  0
SEQEND
  8
gg1
  0
POLYLINE
  8
gg1
 62
1
 40
0.000000
 41
0.000000
 66
  1
  0
VERTEX
  8
gg1
 10
0.250000
 20
1.120000
  0
VERTEX
  8
gg1
 10
0.310000
 20
1.100000
  0
SEQEND
  8
gg1
  0
POLYLINE
  8
gg1
 62
1
 40
0.000000
 41
0.000000
 66
  1
  0
VERTEX
  8
gg1
 10
0.250000
 20
1.120000
  0
VERTEX
  8
gg1
 10
0.310000
 20
1.140000
  0
SEQEND
  8
gg1
  0
POLYLINE
  8
gg1
 62
1
 40
0.000000
 41
0.000000
 66
  1
  0
VERTEX
  8
gg1
 10
1.134300
 20
-0.205000
  0
VERTEX
  8
gg1
 10
1.134300
 20
0.587500
  0
SEQEND
  8
gg1
  0
POLYLINE
  8
gg1
 62
1
 40
0.000000
 41
0.000000
 66
  1
  0
VERTEX
  8
gg1
 10
0.065700
 20
-0.205000
  0
VERTEX
  8
gg1
 10
0.065700
 20
0.587500
  0
SEQEND
  8
gg1
  0
POLYLINE
  8
gg1
 62
1
 40
0.000000
 41
0.000000
 66
  1
  0
VERTEX
  8
gg1
 10
0.779900
 20
-0.195000
  0
VERTEX
  8
gg1
 10
1.134300
 20
-0.195000
  0
SEQEND
  8
gg1
  0
POLYLINE
  8
gg1
 62
1
 40
0.000000
 41
0.000000
 66
  1
  0
VERTEX
  8
gg1
 10
0.065700
 20
-0.195000
  0
VERTEX
  8
gg1
 10
0.388100
 20
-0.195000
  0
SEQEND
  8
gg1
  0
POLYLINE
  8
gg1
 62
1
 40
0.000000
 41
0.000000
 66
  1
  0
VERTEX
  8
gg1
 10
1.074300
 20
-0.175000
  0
VERTEX
  8
gg1
 10
1.134300
 20
-0.195000
  0
SEQEND
  8
gg1
  0
POLYLINE
  8
gg1
 62
1
 40
0.000000
 41
0.000000
 66
  1
  0
VERTEX
  8
gg1
 10
1.074300
 20
-0.215000
  0
VERTEX
  8
gg1
 10
1.134300
 20
-0.195000
  0
SEQEND
  8
gg1
  0
POLYLINE
  8
gg1
 62
1
 40
0.000000
 41
0.000000
 66
  1
  0
VERTEX
  8
gg1
 10
0.065700
 20
-0.195000
  0
VERTEX
  8
gg1
 10
0.125700
 20
-0.215000
  0
SEQEND
  8
gg1
  0
POLYLINE
  8
gg1
 62
1
 40
0.000000
 41
0.000000
 66
  1
  0
VERTEX
  8
gg1
 10
0.065700
 20
-0.195000
  0
VERTEX
  8
gg1
 10
0.125700
 20
-0.175000
  0
SEQEND
  8
gg1
  0
POLYLINE
  8
gg1
 62
1
 40
0.000000
 41
0.000000
 66
  1
  0
VERTEX
  8
gg1
 10
0.950000
 20
0.780000
  0
VERTEX
  8
gg1
 10
0.950000
 20
1.050000
  0
SEQEND
  8
gg1
  0
POLYLINE
  8
gg1
 62
1
 40
0.000000
 41
0.000000
 66
  1
  0
VERTEX
  8
gg1
 10
0.250000
 20
1.050000
  0
VERTEX
  8
gg1
 10
0.950000
 20
1.050000
  0
SEQEND
  8
gg1
  0
POLYLINE
  8
gg1
 62
1
 40
0.000000
 41
0.000000
 66
  1
  0
VERTEX
  8
gg1
 10
0.250000
 20
0.780000
  0
VERTEX
  8
gg1
 10
0.250000
 20
1.050000
  0
SEQEND
  8
gg1
  0
POLYLINE
  8
gg1
 62
1
 40
0.000000
 41
0.000000
 66
  1
  0
VERTEX
  8
gg1
 10
0.280000
 20
0.000000
  0
VERTEX
  8
gg1
 10
0.920000
 20
0.000000
  0
VERTEX
  8
gg1
 10
0.920000
 20
0.420000
  0
SEQEND
  8
gg1
  0
POLYLINE
  8
gg1
 62
1
 40
0.000000
 41
0.000000
 66
  1
  0
VERTEX
  8
gg1
 10
0.280000
 20
0.000000
  0
VERTEX
  8
gg1
 10
0.280000
 20
0.420000
  0
SEQEND
  8
gg1
  0
POLYLINE
  8
gg1
 62
1
 40
0.000000
 41
0.000000
 66
  1
  0
VERTEX
  8
gg1
 10
0.245700
 20
0.420000
  0
VERTEX
  8
gg1
 10
0.280000
 20
0.420000
  0
SEQEND
  8
gg1
  0
POLYLINE
  8
gg1
 62
1
 40
0.000000
 41
0.000000
 66
  1
  0
VERTEX
  8
gg1
 10
0.920000
 20
0.420000
  0
VERTEX
  8
gg1
 10
0.954300
 20
0.420000
  0
SEQEND
  8
gg1
  0
POLYLINE
  8
gg1
 62
1
 40
0.000000
 41
0.000000
 66
  1
  0
VERTEX
  8
gg1
 10
0.245700
 20
0.780000
  0
VERTEX
  8
gg1
 10
0.250000
 20
0.780000
  0
SEQEND
  8
gg1
  0
POLYLINE
  8
gg1
 62
1
 40
0.000000
 41
0.000000
 66
  1
  0
VERTEX
  8
gg1
 10
0.950000
 20
0.780000
  0
VERTEX
  8
gg1
 10
0.954300
 20
0.780000
  0
SEQEND
  8
gg1
  0
POLYLINE
  8
gg1
 62
1
 40
0.000000
 41
0.000000
 66
  1
  0
VERTEX
  8
gg1
 10
0.911300
 20
0.600000
  0
VERTEX
  8
gg1
 10
0.997300
 20
0.600000
  0
SEQEND
  8
gg1
  0
POLYLINE
  8
gg1
 62
1
 40
0.000000
 41
0.000000
 66
  1
  0
VERTEX
  8
gg1
 10
0.954300
 20
0.557000
  0
VERTEX
  8
gg1
 10
0.954300
 20
0.643000
  0
SEQEND
  8
gg1
  0
POLYLINE
  8
gg1
 62
1
 40
0.000000
 41
0.000000
 66
  1
  0
VERTEX
  8
gg1
 10
0.202700
 20
0.600000
  0
VERTEX
  8
gg1
 10
0.288700
 20
0.600000
  0
SEQEND
  8
gg1
  0
POLYLINE
  8
gg1
 62
1
 40
0.000000
 41
0.000000
 66
  1
  0
VERTEX
  8
gg1
 10
0.245700
 20
0.557000
  0
VERTEX
  8
gg1
 10
0.245700
 20
0.643000
  0
SEQEND
  8
gg1
  0
POLYLINE
  8
gg1
 62
1
 40
0.000000
 41
0.000000
 66
  1
  0
VERTEX
  8
gg1
 10
0.880000
 20
0.900000
  0
VERTEX
  8
gg1
 10
0.920000
 20
0.900000
  0
SEQEND
  8
gg1
  0
POLYLINE
  8
gg1
 62
1
 40
0.000000
 41
0.000000
 66
  1
  0
VERTEX
  8
gg1
 10
0.900000
 20
0.880000
  0
VERTEX
  8
gg1
 10
0.900000
 20
0.920000
  0
SEQEND
  8
gg1
  0
POLYLINE
  8
gg1
 62
1
 40
0.000000
 41
0.000000
 66
  1
  0
VERTEX
  8
gg1
 10
0.880000
 20
1.000000
  0
VERTEX
  8
gg1
 10
0.920000
 20
1.000000
  0
SEQEND
  8
gg1
  0
POLYLINE
  8
gg1
 62
1
 40
0.000000
 41
0.000000
 66
  1
  0
VERTEX
  8
gg1
 10
0.900000
 20
0.980000
  0
VERTEX
  8
gg1
 10
0.900000
 20
1.020000
  0
SEQEND
  8
gg1
  0
POLYLINE
  8
gg1
 62
1
 40
0.000000
 41
0.000000
 66
  1
  0
VERTEX
  8
gg1
 10
0.280000
 20
0.900000
  0
VERTEX
  8
gg1
 10
0.320000
 20
0.900000
  0
SEQEND
  8
gg1
  0
POLYLINE
  8
gg1
 62
1
 40
0.000000
 41
0.000000
 66
  1
  0
VERTEX
  8
gg1
 10
0.300000
 20
0.880000
  0
VERTEX
  8
gg1
 10
0.300000
 20
0.920000
  0
SEQEND
  8
gg1
  0
POLYLINE
  8
gg1
 62
1
 40
0.000000
 41
0.000000
 66
  1
  0
VERTEX
  8
gg1
 10
0.280000
 20
1.000000
  0
VERTEX
  8
gg1
 10
0.320000
 20
1.000000
  0
SEQEND
  8
gg1
  0
POLYLINE
  8
gg1
 62
1
 40
0.000000
 41
0.000000
 66
  1
  0
VERTEX
  8
gg1
 10
0.300000
 20
0.980000
  0
VERTEX
  8
gg1
 10
0.300000
 20
1.020000
  0
SEQEND
  8
gg1
  0
POLYLINE
  8
gg1
 62
1
 40
0.000000
 41
0.000000
 66
  1
  0
VERTEX
  8
gg1
 10
0.517500
 20
0.240000
  0
VERTEX
  8
gg1
 10
0.532500
 20
0.240000
  0
SEQEND
  8
gg1
  0
POLYLINE
  8
gg1
 62
1
 40
0.000000
 41
0.000000
 66
  1
  0
VERTEX
  8
gg1
 10
0.525000
 20
0.232500
  0
VERTEX
  8
gg1
 10
0.525000
 20
0.247500
  0
SEQEND
  8
gg1
  0
POLYLINE
  8
gg1
 62
1
 40
0.000000
 41
0.000000
 66
  1
  0
VERTEX
  8
gg1
 10
0.517500
 20
0.175000
  0
VERTEX
  8
gg1
 10
0.532500
 20
0.175000
  0
SEQEND
  8
gg1
  0
POLYLINE
  8
gg1
 62
1
 40
0.000000
 41
0.000000
 66
  1
  0
VERTEX
  8
gg1
 10
0.525000
 20
0.167500
  0
VERTEX
  8
gg1
 10
0.525000
 20
0.182500
  0
SEQEND
  8
gg1
  0
POLYLINE
  8
gg1
 62
1
 40
0.000000
 41
0.000000
 66
  1
  0
VERTEX
  8
gg1
 10
0.342500
 20
0.280000
  0
VERTEX
  8
gg1
 10
0.357500
 20
0.280000
  0
SEQEND
  8
gg1
  0
POLYLINE
  8
gg1
 62
1
 40
0.000000
 41
0.000000
 66
  1
  0
VERTEX
  8
gg1
 10
0.350000
 20
0.272500
  0
VERTEX
  8
gg1
 10
0.350000
 20
0.287500
  0
SEQEND
  8
gg1
  0
POLYLINE
  8
gg1
 62
1
 40
0.000000
 41
0.000000
 66
  1
  0
VERTEX
  8
gg1
 10
0.672500
 20
0.205000
  0
VERTEX
  8
gg1
 10
0.687500
 20
0.205000
  0
SEQEND
  8
gg1
  0
POLYLINE
  8
gg1
 62
1
 40
0.000000
 41
0.000000
 66
  1
  0
VERTEX
  8
gg1
 10
0.680000
 20
0.197500
  0
VERTEX
  8
gg1
 10
0.680000
 20
0.212500
  0
SEQEND
  8
gg1
  0
POLYLINE
  8
gg1
 62
1
 40
0.000000
 41
0.000000
 66
  1
  0
VERTEX
  8
gg1
 10
0.847500
 20
0.280000
  0
VERTEX
  8
gg1
 10
0.862500
 20
0.280000
  0
SEQEND
  8
gg1
  0
POLYLINE
  8
gg1
 62
1
 40
0.000000
 41
0.000000
 66
  1
  0
VERTEX
  8
gg1
 10
0.855000
 20
0.272500
  0
VERTEX
  8
gg1
 10
0.855000
 20
0.287500
  0
SEQEND
  8
gg1
  0
POLYLINE
  8
gg1
 62
1
 40
0.000000
 41
0.000000
 66
  1
  0
VERTEX
  8
gg1
 10
0.355000
 20
0.187500
  0
VERTEX
  8
gg1
 10
0.370000
 20
0.187500
  0
SEQEND
  8
gg1
  0
POLYLINE
  8
gg1
 62
1
 40
0.000000
 41
0.000000
 66
  1
  0
VERTEX
  8
gg1
 10
0.362500
 20
0.180000
  0
VERTEX
  8
gg1
 10
0.362500
 20
0.195000
  0
SEQEND
  8
gg1
  0
POLYLINE
  8
gg1
 62
1
 40
0.000000
 41
0.000000
 66
  1
  0
VERTEX
  8
gg1
 10
0.391600
 20
0.179100
  0
VERTEX
  8
gg1
 10
0.406600
 20
0.179100
  0
SEQEND
  8
gg1
  0
POLYLINE
  8
gg1
 62
1
 40
0.000000
 41
0.000000
 66
  1
  0
VERTEX
  8
gg1
 10
0.399100
 20
0.171600
  0
VERTEX
  8
gg1
 10
0.399100
 20
0.186600
  0
SEQEND
  8
gg1
  0
POLYLINE
  8
gg1
 62
1
 40
0.000000
 41
0.000000
 66
  1
  0
VERTEX
  8
gg1
 10
0.469000
 20
-0.051000
  0
VERTEX
  8
gg1
 10
0.449000
 20
-0.061000
  0
VERTEX
  8
gg1
 10
0.429000
 20
-0.081000
  0
VERTEX
  8
gg1
 10
0.429000
 20
-0.101000
  0
VERTEX
  8
gg1
 10
0.439000
 20
-0.111000
  0
VERTEX
  8
gg1
 10
0.459000
 20
-0.111000
  0
VERTEX
  8
gg1
 10
0.469000
 20
-0.101000
  0
VERTEX
  8
gg1
 10
0.469000
 20
-0.091000
  0
VERTEX
  8
gg1
 10
0.459000
 20
-0.081000
  0
VERTEX
  8
gg1
 10
0.429000
 20
-0.081000
  0
SEQEND
  8
gg1
  0
POLYLINE
  8
gg1
 62
1
 40
0.000000
 41
0.000000
 66
  1
  0
VERTEX
  8
gg1
 10
0.519000
 20
-0.111000
  0
VERTEX
  8
gg1
 10
0.519000
 20
-0.051000
  0
VERTEX
  8
gg1
 10
0.489000
 20
-0.081000
  0
VERTEX
  8
gg1
 10
0.529000
 20
-0.081000
  0
SEQEND
  8
gg1
  0
POLYLINE
  8
gg1
 62
1
 40
0.000000
 41
0.000000
 66
  1
  0
VERTEX
  8
gg1
 10
0.549000
 20
-0.061000
  0
VERTEX
  8
gg1
 10
0.559000
 20
-0.051000
  0
VERTEX
  8
gg1
 10
0.579000
 20
-0.051000
  0
VERTEX
  8
gg1
 10
0.589000
 20
-0.061000
  0
VERTEX
  8
gg1
 10
0.589000
 20
-0.101000
  0
VERTEX
  8
gg1
 10
0.579000
 20
-0.111000
  0
VERTEX
  8
gg1
 10
0.559000
 20
-0.111000
  0
VERTEX
  8
gg1
 10
0.549000
 20
-0.101000
  0
VERTEX
  8
gg1
 10
0.549000
 20
-0.061000
  0
SEQEND
  8
gg1
  0
POLYLINE
  8
gg1
 62
1
 40
0.000000
 41
0.000000
 66
  1
  0
VERTEX
  8
gg1
 10
0.609000
 20
-0.111000
  0
VERTEX
  8
gg1
 10
0.609000
 20
-0.071000
  0
VERTEX
  8
gg1
 10
0.619000
 20
-0.071000
  0
VERTEX
  8
gg1
 10
0.629000
 20
-0.081000
  0
VERTEX
  8
gg1
 10
0.629000
 20
-0.111000
  0
VERTEX
  8
gg1
 10
0.629000
 20
-0.081000
  0
VERTEX
  8
gg1
 10
0.639000
 20
-0.071000
  0
VERTEX
  8
gg1
 10
0.649000
 20
-0.081000
  0
VERTEX
  8
gg1
 10
0.649000
 20
-0.111000
  0
SEQEND
  8
gg1
  0
POLYLINE
  8
gg1
 62
1
 40
0.000000
 41
0.000000
 66
  1
  0
VERTEX
  8
gg1
 10
0.669000
 20
-0.111000
  0
VERTEX
  8
gg1
 10
0.689000
 20
-0.111000
  0
VERTEX
  8
gg1
 10
0.679000
 20
-0.111000
  0
VERTEX
  8
gg1
 10
0.679000
 20
-0.071000
  0
VERTEX
  8
gg1
 10
0.669000
 20
-0.071000
  0
SEQEND
  8
gg1
  0
POLYLINE
  8
gg1
 62
1
 40
0.000000
 41
0.000000
 66
  1
  0
VERTEX
  8
gg1
 10
0.719000
 20
-0.111000
  0
VERTEX
  8
gg1
 10
0.739000
 20
-0.111000
  0
VERTEX
  8
gg1
 10
0.729000
 20
-0.111000
  0
VERTEX
  8
gg1
 10
0.729000
 20
-0.051000
  0
VERTEX
  8
gg1
 10
0.719000
 20
-0.051000
  0
SEQEND
  8
gg1
  0
POLYLINE
  8
gg1
 62
1
 40
0.000000
 41
0.000000
 66
  1
  0
VERTEX
  8
gg1
 10
-0.067000
 20
0.069000
  0
VERTEX
  8
gg1
 10
-0.127000
 20
0.069000
  0
VERTEX
  8
gg1
 10
-0.097000
 20
0.039100
  0
VERTEX
  8
gg1
 10
-0.097000
 20
0.079000
  0
SEQEND
  8
gg1
  0
POLYLINE
  8
gg1
 62
1
 40
0.000000
 41
0.000000
 66
  1
  0
VERTEX
  8
gg1
 10
-0.067000
 20
0.139000
  0
VERTEX
  8
gg1
 10
-0.067000
 20
0.099000
  0
VERTEX
  8
gg1
 10
-0.107000
 20
0.139000
  0
VERTEX
  8
gg1
 10
-0.117000
 20
0.139000
  0
VERTEX
  8
gg1
 10
-0.127000
 20
0.129000
  0
VERTEX
  8
gg1
 10
-0.127000
 20
0.109000
  0
VERTEX
  8
gg1
 10
-0.117000
 20
0.099000
  0
SEQEND
  8
gg1
  0
POLYLINE
  8
gg1
 62
1
 40
0.000000
 41
0.000000
 66
  1
  0
VERTEX
  8
gg1
 10
-0.117000
 20
0.159000
  0
VERTEX
  8
gg1
 10
-0.127000
 20
0.169000
  0
VERTEX
  8
gg1
 10
-0.127000
 20
0.189000
  0
VERTEX
  8
gg1
 10
-0.117000
 20
0.199000
  0
VERTEX
  8
gg1
 10
-0.077000
 20
0.199000
  0
VERTEX
  8
gg1
 10
-0.067000
 20
0.189000
  0
VERTEX
  8
gg1
 10
-0.067000
 20
0.169000
  0
VERTEX
  8
gg1
 10
-0.077000
 20
0.159000
  0
VERTEX
  8
gg1
 10
-0.117000
 20
0.159000
  0
SEQEND
  8
gg1
  0
POLYLINE
  8
gg1
 62
1
 40
0.000000
 41
0.000000
 66
  1
  0
VERTEX
  8
gg1
 10
-0.067000
 20
0.219000
  0
VERTEX
  8
gg1
 10
-0.107000
 20
0.219000
  0
VERTEX
  8
gg1
 10
-0.107000
 20
0.229000
  0
VERTEX
  8
gg1
 10
-0.097000
 20
0.239000
  0
VERTEX
  8
gg1
 10
-0.067000
 20
0.239000
  0
VERTEX
  8
gg1
 10
-0.097000
 20
0.239000
  0
VERTEX
  8
gg1
 10
-0.107000
 20
0.249000
  0
VERTEX
  8
gg1
 10
-0.097000
 20
0.259000
  0
VERTEX
  8
gg1
 10
-0.067000
 20
0.259000
  0
SEQEND
  8
gg1
  0
POLYLINE
  8
gg1
 62
1
 40
0.000000
 41
0.000000
 66
  1
  0
VERTEX
  8
gg1
 10
-0.067000
 20
0.279000
  0
VERTEX
  8
gg1
 10
-0.067000
 20
0.299000
  0
VERTEX
  8
gg1
 10
-0.067000
 20
0.289000
  0
VERTEX
  8
gg1
 10
-0.107000
 20
0.289000
  0
VERTEX
  8
gg1
 10
-0.107000
 20
0.279000
  0
SEQEND
  8
gg1
  0
POLYLINE
  8
gg1
 62
1
 40
0.000000
 41
0.000000
 66
  1
  0
VERTEX
  8
gg1
 10
-0.067000
 20
0.329000
  0
VERTEX
  8
gg1
 10
-0.067000
 20
0.348900
  0
VERTEX
  8
gg1
 10
-0.067000
 20
0.339000
  0
VERTEX
  8
gg1
 10
-0.127000
 20
0.339000
  0
VERTEX
  8
gg1
 10
-0.127000
 20
0.329000
  0
SEQEND
  8
gg1
  0
POLYLINE
  8
gg1
 62
1
 40
0.000000
 41
0.000000
 66
  1
  0
VERTEX
  8
gg1
 10
-0.342000
 20
0.429000
  0
VERTEX
  8
gg1
 10
-0.352000
 20
0.439000
  0
VERTEX
  8
gg1
 10
-0.352000
 20
0.459000
  0
VERTEX
  8
gg1
 10
-0.342000
 20
0.469000
  0
VERTEX
  8
gg1
 10
-0.332000
 20
0.469000
  0
VERTEX
  8
gg1
 10
-0.322000
 20
0.459000
  0
VERTEX
  8
gg1
 10
-0.322000
 20
0.449000
  0
VERTEX
  8
gg1
 10
-0.322000
 20
0.459000
  0
VERTEX
  8
gg1
 10
-0.312000
 20
0.469000
  0
VERTEX
  8
gg1
 10
-0.302000
 20
0.469000
  0
VERTEX
  8
gg1
 10
-0.292000
 20
0.459000
  0
VERTEX
  8
gg1
 10
-0.292000
 20
0.439000
  0
VERTEX
  8
gg1
 10
-0.302000
 20
0.429000
  0
SEQEND
  8
gg1
  0
POLYLINE
  8
gg1
 62
1
 40
0.000000
 41
0.000000
 66
  1
  0
VERTEX
  8
gg1
 10
-0.352000
 20
0.529000
  0
VERTEX
  8
gg1
 10
-0.342000
 20
0.509000
  0
VERTEX
  8
gg1
 10
-0.322000
 20
0.489000
  0
VERTEX
  8
gg1
 10
-0.302000
 20
0.489000
  0
VERTEX
  8
gg1
 10
-0.292000
 20
0.499000
  0
VERTEX
  8
gg1
 10
-0.292000
 20
0.519000
  0
VERTEX
  8
gg1
 10
-0.302000
 20
0.529000
  0
VERTEX
  8
gg1
 10
-0.312000
 20
0.529000
  0
VERTEX
  8
gg1
 10
-0.322000
 20
0.519000
  0
VERTEX
  8
gg1
 10
-0.322000
 20
0.489000
  0
SEQEND
  8
gg1
  0
POLYLINE
  8
gg1
 62
1
 40
0.000000
 41
0.000000
 66
  1
  0
VERTEX
  8
gg1
 10
-0.342000
 20
0.549000
  0
VERTEX
  8
gg1
 10
-0.352000
 20
0.559000
  0
VERTEX
  8
gg1
 10
-0.352000
 20
0.579000
  0
VERTEX
  8
gg1
 10
-0.342000
 20
0.589000
  0
VERTEX
  8
gg1
 10
-0.302000
 20
0.589000
  0
VERTEX
  8
gg1
 10
-0.292000
 20
0.579000
  0
VERTEX
  8
gg1
 10
-0.292000
 20
0.559000
  0
VERTEX
  8
gg1
 10
-0.302000
 20
0.549000
  0
VERTEX
  8
gg1
 10
-0.342000
 20
0.549000
  0
SEQEND
  8
gg1
  0
POLYLINE
  8
gg1
 62
1
 40
0.000000
 41
0.000000
 66
  1
  0
VERTEX
  8
gg1
 10
-0.292000
 20
0.609000
  0
VERTEX
  8
gg1
 10
-0.332000
 20
0.609000
  0
VERTEX
  8
gg1
 10
-0.332000
 20
0.619000
  0
VERTEX
  8
gg1
 10
-0.322000
 20
0.629000
  0
VERTEX
  8
gg1
 10
-0.292000
 20
0.629000
  0
VERTEX
  8
gg1
 10
-0.322000
 20
0.629000
  0
VERTEX
  8
gg1
 10
-0.332000
 20
0.639000
  0
VERTEX
  8
gg1
 10
-0.322000
 20
0.649000
  0
VERTEX
  8
gg1
 10
-0.292000
 20
0.649000
  0
SEQEND
  8
gg1
  0
POLYLINE
  8
gg1
 62
1
 40
0.000000
 41
0.000000
 66
  1
  0
VERTEX
  8
gg1
 10
-0.292000
 20
0.669000
  0
VERTEX
  8
gg1
 10
-0.292000
 20
0.689000
  0
VERTEX
  8
gg1
 10
-0.292000
 20
0.679000
  0
VERTEX
  8
gg1
 10
-0.332000
 20
0.679000
  0
VERTEX
  8
gg1
 10
-0.332000
 20
0.669000
  0
SEQEND
  8
gg1
  0
POLYLINE
  8
gg1
 62
1
 40
0.000000
 41
0.000000
 66
  1
  0
VERTEX
  8
gg1
 10
-0.292000
 20
0.719000
  0
VERTEX
  8
gg1
 10
-0.292000
 20
0.739000
  0
VERTEX
  8
gg1
 10
-0.292000
 20
0.729000
  0
VERTEX
  8
gg1
 10
-0.352000
 20
0.729000
  0
VERTEX
  8
gg1
 10
-0.352000
 20
0.719000
  0
SEQEND
  8
gg1
  0
POLYLINE
  8
gg1
 62
1
 40
0.000000
 41
0.000000
 66
  1
  0
VERTEX
  8
gg1
 10
-0.512000
 20
0.784000
  0
VERTEX
  8
gg1
 10
-0.512000
 20
0.744100
  0
VERTEX
  8
gg1
 10
-0.552000
 20
0.784000
  0
VERTEX
  8
gg1
 10
-0.562000
 20
0.784000
  0
VERTEX
  8
gg1
 10
-0.572000
 20
0.774000
  0
VERTEX
  8
gg1
 10
-0.572000
 20
0.754000
  0
VERTEX
  8
gg1
 10
-0.562000
 20
0.744100
  0
SEQEND
  8
gg1
  0
POLYLINE
  8
gg1
 62
1
 40
0.000000
 41
0.000000
 66
  1
  0
VERTEX
  8
gg1
 10
-0.572000
 20
0.804000
  0
VERTEX
  8
gg1
 10
-0.572000
 20
0.844000
  0
VERTEX
  8
gg1
 10
-0.562000
 20
0.844000
  0
VERTEX
  8
gg1
 10
-0.522000
 20
0.804000
  0
VERTEX
  8
gg1
 10
-0.512000
 20
0.804000
  0
SEQEND
  8
gg1
  0
POLYLINE
  8
gg1
 62
1
 40
0.000000
 41
0.000000
 66
  1
  0
VERTEX
  8
gg1
 10
-0.562000
 20
0.864000
  0
VERTEX
  8
gg1
 10
-0.572000
 20
0.874000
  0
VERTEX
  8
gg1
 10
-0.572000
 20
0.894000
  0
VERTEX
  8
gg1
 10
-0.562000
 20
0.904000
  0
VERTEX
  8
gg1
 10
-0.522000
 20
0.904000
  0
VERTEX
  8
gg1
 10
-0.512000
 20
0.894000
  0
VERTEX
  8
gg1
 10
-0.512000
 20
0.874000
  0
VERTEX
  8
gg1
 10
-0.522000
 20
0.864000
  0
VERTEX
  8
gg1
 10
-0.562000
 20
0.864000
  0
SEQEND
  8
gg1
  0
POLYLINE
  8
gg1
 62
1
 40
0.000000
 41
0.000000
 66
  1
  0
VERTEX
  8
gg1
 10
-0.512000
 20
0.924000
  0
VERTEX
  8
gg1
 10
-0.552000
 20
0.924000
  0
VERTEX
  8
gg1
 10
-0.552000
 20
0.934000
  0
VERTEX
  8
gg1
 10
-0.542000
 20
0.944000
  0
VERTEX
  8
gg1
 10
-0.512000
 20
0.944000
  0
VERTEX
  8
gg1
 10
-0.542000
 20
0.944000
  0
VERTEX
  8
gg1
 10
-0.552000
 20
0.954000
  0
VERTEX
  8
gg1
 10
-0.542000
 20
0.964000
  0
VERTEX
  8
gg1
 10
-0.512000
 20
0.964000
  0
SEQEND
  8
gg1
  0
POLYLINE
  8
gg1
 62
1
 40
0.000000
 41
0.000000
 66
  1
  0
VERTEX
  8
gg1
 10
-0.512000
 20
0.984000
  0
VERTEX
  8
gg1
 10
-0.512000
 20
1.004000
  0
VERTEX
  8
gg1
 10
-0.512000
 20
0.994000
  0
VERTEX
  8
gg1
 10
-0.552000
 20
0.994000
  0
VERTEX
  8
gg1
 10
-0.552000
 20
0.984000
  0
SEQEND
  8
gg1
  0
POLYLINE
  8
gg1
 62
1
 40
0.000000
 41
0.000000
 66
  1
  0
VERTEX
  8
gg1
 10
-0.512000
 20
1.034000
  0
VERTEX
  8
gg1
 10
-0.512000
 20
1.053900
  0
VERTEX
  8
gg1
 10
-0.512000
 20
1.044000
  0
VERTEX
  8
gg1
 10
-0.572000
 20
1.044000
  0
VERTEX
  8
gg1
 10
-0.572000
 20
1.034000
  0
SEQEND
  8
gg1
  0
POLYLINE
  8
gg1
 62
1
 40
0.000000
 41
0.000000
 66
  1
  0
VERTEX
  8
gg1
 10
0.429000
 20
1.144000
  0
VERTEX
  8
gg1
 10
0.469000
 20
1.144000
  0
VERTEX
  8
gg1
 10
0.469000
 20
1.134000
  0
VERTEX
  8
gg1
 10
0.429000
 20
1.094000
  0
VERTEX
  8
gg1
 10
0.429000
 20
1.084000
  0
SEQEND
  8
gg1
  0
POLYLINE
  8
gg1
 62
1
 40
0.000000
 41
0.000000
 66
  1
  0
VERTEX
  8
gg1
 10
0.489000
 20
1.134000
  0
VERTEX
  8
gg1
 10
0.499000
 20
1.144000
  0
VERTEX
  8
gg1
 10
0.519000
 20
1.144000
  0
VERTEX
  8
gg1
 10
0.529000
 20
1.134000
  0
VERTEX
  8
gg1
 10
0.529000
 20
1.094000
  0
VERTEX
  8
gg1
 10
0.519000
 20
1.084000
  0
VERTEX
  8
gg1
 10
0.499000
 20
1.084000
  0
VERTEX
  8
gg1
 10
0.489000
 20
1.094000
  0
VERTEX
  8
gg1
 10
0.489000
 20
1.134000
  0
SEQEND
  8
gg1
  0
POLYLINE
  8
gg1
 62
1
 40
0.000000
 41
0.000000
 66
  1
  0
VERTEX
  8
gg1
 10
0.549000
 20
1.134000
  0
VERTEX
  8
gg1
 10
0.559000
 20
1.144000
  0
VERTEX
  8
gg1
 10
0.579000
 20
1.144000
  0
VERTEX
  8
gg1
 10
0.589000
 20
1.134000
  0
VERTEX
  8
gg1
 10
0.589000
 20
1.094000
  0
VERTEX
  8
gg1
 10
0.579000
 20
1.084000
  0
VERTEX
  8
gg1
 10
0.559000
 20
1.084000
  0
VERTEX
  8
gg1
 10
0.549000
 20
1.094000
  0
VERTEX
  8
gg1
 10
0.549000
 20
1.134000
  0
SEQEND
  8
gg1
  0
POLYLINE
  8
gg1
 62
1
 40
0.000000
 41
0.000000
 66
  1
  0
VERTEX
  8
gg1
 10
0.609000
 20
1.084000
  0
VERTEX
  8
gg1
 10
0.609000
 20
1.124000
  0
VERTEX
  8
gg1
 10
0.619000
 20
1.124000
  0
VERTEX
  8
gg1
 10
0.629000
 20
1.114000
  0
VERTEX
  8
gg1
 10
0.629000
 20
1.084000
  0
VERTEX
  8
gg1
 10
0.629000
 20
1.114000
  0
VERTEX
  8
gg1
 10
0.639000
 20
1.124000
  0
VERTEX
  8
gg1
 10
0.649000
 20
1.114000
  0
VERTEX
  8
gg1
 10
0.649000
 20
1.084000
  0
SEQEND
  8
gg1
  0
POLYLINE
  8
gg1
 62
1
 40
0.000000
 41
0.000000
 66
  1
  0
VERTEX
  8
gg1
 10
0.669000
 20
1.084000
  0
VERTEX
  8
gg1
 10
0.689000
 20
1.084000
  0
VERTEX
  8
gg1
 10
0.679000
 20
1.084000
  0
VERTEX
  8
gg1
 10
0.679000
 20
1.124000
  0
VERTEX
  8
gg1
 10
0.669000
 20
1.124000
  0
SEQEND
  8
gg1
  0
POLYLINE
  8
gg1
 62
1
 40
0.000000
 41
0.000000
 66
  1
  0
VERTEX
  8
gg1
 10
0.719000
 20
1.084000
  0
VERTEX
  8
gg1
 10
0.739000
 20
1.084000
  0
VERTEX
  8
gg1
 10
0.729000
 20
1.084000
  0
VERTEX
  8
gg1
 10
0.729000
 20
1.144000
  0
VERTEX
  8
gg1
 10
0.719000
 20
1.144000
  0
SEQEND
  8
gg1
  0
POLYLINE
  8
gg1
 62
1
 40
0.000000
 41
0.000000
 66
  1
  0
VERTEX
  8
gg1
 10
0.404100
 20
-0.231000
  0
VERTEX
  8
gg1
 10
0.424100
 20
-0.231000
  0
VERTEX
  8
gg1
 10
0.414100
 20
-0.231000
  0
VERTEX
  8
gg1
 10
0.414100
 20
-0.171000
  0
VERTEX
  8
gg1
 10
0.404100
 20
-0.181000
  0
SEQEND
  8
gg1
  0
POLYLINE
  8
gg1
 62
1
 40
0.000000
 41
0.000000
 66
  1
  0
VERTEX
  8
gg1
 10
0.454000
 20
-0.181000
  0
VERTEX
  8
gg1
 10
0.464000
 20
-0.171000
  0
VERTEX
  8
gg1
 10
0.484000
 20
-0.171000
  0
VERTEX
  8
gg1
 10
0.494000
 20
-0.181000
  0
VERTEX
  8
gg1
 10
0.494000
 20
-0.221000
  0
VERTEX
  8
gg1
 10
0.484000
 20
-0.231000
  0
VERTEX
  8
gg1
 10
0.464000
 20
-0.231000
  0
VERTEX
  8
gg1
 10
0.454000
 20
-0.221000
  0
VERTEX
  8
gg1
 10
0.454000
 20
-0.181000
  0
SEQEND
  8
gg1
  0
POLYLINE
  8
gg1
 62
1
 40
0.000000
 41
0.000000
 66
  1
  0
VERTEX
  8
gg1
 10
0.554000
 20
-0.171000
  0
VERTEX
  8
gg1
 10
0.534000
 20
-0.181000
  0
VERTEX
  8
gg1
 10
0.514000
 20
-0.201000
  0
VERTEX
  8
gg1
 10
0.514000
 20
-0.221000
  0
VERTEX
  8
gg1
 10
0.524000
 20
-0.231000
  0
VERTEX
  8
gg1
 10
0.544000
 20
-0.231000
  0
VERTEX
  8
gg1
 10
0.554000
 20
-0.221000
  0
VERTEX
  8
gg1
 10
0.554000
 20
-0.211000
  0
VERTEX
  8
gg1
 10
0.544000
 20
-0.201000
  0
VERTEX
  8
gg1
 10
0.514000
 20
-0.201000
  0
SEQEND
  8
gg1
  0
POLYLINE
  8
gg1
 62
1
 40
0.000000
 41
0.000000
 66
  1
  0
VERTEX
  8
gg1
 10
0.574000
 20
-0.221000
  0
VERTEX
  8
gg1
 10
0.584000
 20
-0.231000
  0
VERTEX
  8
gg1
 10
0.604000
 20
-0.231000
  0
VERTEX
  8
gg1
 10
0.614000
 20
-0.221000
  0
VERTEX
  8
gg1
 10
0.614000
 20
-0.181000
  0
VERTEX
  8
gg1
 10
0.604000
 20
-0.171000
  0
VERTEX
  8
gg1
 10
0.584000
 20
-0.171000
  0
VERTEX
  8
gg1
 10
0.574000
 20
-0.181000
  0
VERTEX
  8
gg1
 10
0.574000
 20
-0.191000
  0
VERTEX
  8
gg1
 10
0.584000
 20
-0.201000
  0
VERTEX
  8
gg1
 10
0.614000
 20
-0.201000
  0
SEQEND
  8
gg1
  0
POLYLINE
  8
gg1
 62
1
 40
0.000000
 41
0.000000
 66
  1
  0
VERTEX
  8
gg1
 10
0.634000
 20
-0.231000
  0
VERTEX
  8
gg1
 10
0.634000
 20
-0.191000
  0
VERTEX
  8
gg1
 10
0.644000
 20
-0.191000
  0
VERTEX
  8
gg1
 10
0.654000
 20
-0.201000
  0
VERTEX
  8
gg1
 10
0.654000
 20
-0.231000
  0
VERTEX
  8
gg1
 10
0.654000
 20
-0.201000
  0
VERTEX
  8
gg1
 10
0.664000
 20
-0.191000
  0
VERTEX
  8
gg1
 10
0.674000
 20
-0.201000
  0
VERTEX
  8
gg1
 10
0.674000
 20
-0.231000
  0
SEQEND
  8
gg1
  0
POLYLINE
  8
gg1
 62
1
 40
0.000000
 41
0.000000
 66
  1
  0
VERTEX
  8
gg1
 10
0.694000
 20
-0.231000
  0
VERTEX
  8
gg1
 10
0.714000
 20
-0.231000
  0
VERTEX
  8
gg1
 10
0.704000
 20
-0.231000
  0
VERTEX
  8
gg1
 10
0.704000
 20
-0.191000
  0
VERTEX
  8
gg1
 10
0.694000
 20
-0.191000
  0
SEQEND
  8
gg1
  0
POLYLINE
  8
gg1
 62
1
 40
0.000000
 41
0.000000
 66
  1
  0
VERTEX
  8
gg1
 10
0.743900
 20
-0.231000
  0
VERTEX
  8
gg1
 10
0.763900
 20
-0.231000
  0
VERTEX
  8
gg1
 10
0.753900
 20
-0.231000
  0
VERTEX
  8
gg1
 10
0.753900
 20
-0.171000
  0
VERTEX
  8
gg1
 10
0.743900
 20
-0.171000
  0
SEQEND
  8
gg1
  0
ENDSEC
  0
EOF
