  0
SECTION
  2
HEADER
  9
$EXTMIN
 10
-0.100000
 20
-0.143000
  9
$EXTMAX
 10
0.335000
 20
0.505000
  9
$LIMMIN
 10
-0.100000
 20
-0.143000
  9
$LIMMAX
 10
0.335000
 20
0.505000
  9
$FILLMODE
 70
  1
  0
ENDSEC
  0
SECTION
  2
TABLES
  0
TABLE
  2
LTYPE
 70
  1
  0
LTYPE
  2
CONTINUOUS
 70
 64
  3
Solid line
 72
 65
 73
  0
 40
0.0
  0
ENDTAB
  0
TABLE
  2
LAYER
 70
 1
  0
LAYER
  2
0
 70
  0
 62
7
  6
CONTINUOUS
  0
LAYER
  2
gg1
 70
  0
 62
1
  6
CONTINUOUS
  0
ENDTAB
  0
TABLE
  2
STYLE
 70
  1
  0
STYLE
  2
STANDARD
 70
  0
 40
0.0
 41
1.0
 50
0.0
 71
  0
 42
0.2
  3
txt
  4

  0
ENDTAB
  0
ENDSEC
  0
SECTION
  2
BLOCKS
  0
BLOCK
  8
0
  2
D10
 70
64
 10
0.0
 20
0.0
  3
D10
  0
CIRCLE
  8
0
 10
0.000000
 20
0.000000
 40
0.005000
 0
ENDBLK
  8
0
  0
BLOCK
  8
0
  2
D11
 70
64
 10
0.0
 20
0.0
  3
D11
  0
CIRCLE
  8
0
 10
0.000000
 20
0.000000
 40
0.003000
 0
ENDBLK
  8
0
  0
BLOCK
  8
0
  2
D12
 70
64
 10
0.0
 20
0.0
  3
D12
  0
CIRCLE
  8
0
 10
0.000000
 20
0.000000
 40
0.002500
 0
ENDBLK
  8
0
  0
ENDSEC
  0
SECTION
  2
ENTITIES
  0
POLYLINE
  8
gg1
 62
1
 40
0.000000
 41
0.000000
 66
  1
  0
VERTEX
  8
gg1
 10
0.330000
 20
-0.060000
  0
VERTEX
  8
gg1
 10
0.330000
 20
-0.015000
  0
SEQEND
  8
gg1
  0
POLYLINE
  8
gg1
 62
1
 40
0.000000
 41
0.000000
 66
  1
  0
VERTEX
  8
gg1
 10
0.000000
 20
-0.060000
  0
VERTEX
  8
gg1
 10
0.000000
 20
-0.015000
  0
SEQEND
  8
gg1
  0
POLYLINE
  8
gg1
 62
1
 40
0.000000
 41
0.000000
 66
  1
  0
VERTEX
  8
gg1
 10
0.165000
 20
-0.050000
  0
VERTEX
  8
gg1
 10
0.330000
 20
-0.050000
  0
SEQEND
  8
gg1
  0
POLYLINE
  8
gg1
 62
1
 40
0.000000
 41
0.000000
 66
  1
  0
VERTEX
  8
gg1
 10
0.000000
 20
-0.050000
  0
VERTEX
  8
gg1
 10
0.165000
 20
-0.050000
  0
SEQEND
  8
gg1
  0
POLYLINE
  8
gg1
 62
1
 40
0.000000
 41
0.000000
 66
  1
  0
VERTEX
  8
gg1
 10
0.270000
 20
-0.030000
  0
VERTEX
  8
gg1
 10
0.330000
 20
-0.050000
  0
SEQEND
  8
gg1
  0
POLYLINE
  8
gg1
 62
1
 40
0.000000
 41
0.000000
 66
  1
  0
VERTEX
  8
gg1
 10
0.270000
 20
-0.070000
  0
VERTEX
  8
gg1
 10
0.330000
 20
-0.050000
  0
SEQEND
  8
gg1
  0
POLYLINE
  8
gg1
 62
1
 40
0.000000
 41
0.000000
 66
  1
  0
VERTEX
  8
gg1
 10
0.000000
 20
-0.050000
  0
VERTEX
  8
gg1
 10
0.060000
 20
-0.070000
  0
SEQEND
  8
gg1
  0
POLYLINE
  8
gg1
 62
1
 40
0.000000
 41
0.000000
 66
  1
  0
VERTEX
  8
gg1
 10
0.000000
 20
-0.050000
  0
VERTEX
  8
gg1
 10
0.060000
 20
-0.030000
  0
SEQEND
  8
gg1
  0
POLYLINE
  8
gg1
 62
1
 40
0.000000
 41
0.000000
 66
  1
  0
VERTEX
  8
gg1
 10
-0.085000
 20
0.500000
  0
VERTEX
  8
gg1
 10
-0.015000
 20
0.500000
  0
SEQEND
  8
gg1
  0
POLYLINE
  8
gg1
 62
1
 40
0.000000
 41
0.000000
 66
  1
  0
VERTEX
  8
gg1
 10
-0.085000
 20
0.000000
  0
VERTEX
  8
gg1
 10
-0.015000
 20
0.000000
  0
SEQEND
  8
gg1
  0
POLYLINE
  8
gg1
 62
1
 40
0.000000
 41
0.000000
 66
  1
  0
VERTEX
  8
gg1
 10
-0.075000
 20
0.379100
  0
VERTEX
  8
gg1
 10
-0.075000
 20
0.500000
  0
SEQEND
  8
gg1
  0
POLYLINE
  8
gg1
 62
1
 40
0.000000
 41
0.000000
 66
  1
  0
VERTEX
  8
gg1
 10
-0.075000
 20
0.000000
  0
VERTEX
  8
gg1
 10
-0.075000
 20
0.088900
  0
SEQEND
  8
gg1
  0
POLYLINE
  8
gg1
 62
1
 40
0.000000
 41
0.000000
 66
  1
  0
VERTEX
  8
gg1
 10
-0.095000
 20
0.440000
  0
VERTEX
  8
gg1
 10
-0.075000
 20
0.500000
  0
VERTEX
  8
gg1
 10
-0.055000
 20
0.440000
  0
SEQEND
  8
gg1
  0
POLYLINE
  8
gg1
 62
1
 40
0.000000
 41
0.000000
 66
  1
  0
VERTEX
  8
gg1
 10
-0.075000
 20
0.000000
  0
VERTEX
  8
gg1
 10
-0.055000
 20
0.060000
  0
SEQEND
  8
gg1
  0
POLYLINE
  8
gg1
 62
1
 40
0.000000
 41
0.000000
 66
  1
  0
VERTEX
  8
gg1
 10
-0.095000
 20
0.060000
  0
VERTEX
  8
gg1
 10
-0.075000
 20
0.000000
  0
SEQEND
  8
gg1
  0
POLYLINE
  8
gg1
 62
1
 40
0.000000
 41
0.000000
 66
  1
  0
VERTEX
  8
gg1
 10
0.000000
 20
0.000000
  0
VERTEX
  8
gg1
 10
0.330000
 20
0.000000
  0
VERTEX
  8
gg1
 10
0.330000
 20
0.500000
  0
SEQEND
  8
gg1
  0
POLYLINE
  8
gg1
 62
1
 40
0.000000
 41
0.000000
 66
  1
  0
VERTEX
  8
gg1
 10
0.000000
 20
0.500000
  0
VERTEX
  8
gg1
 10
0.330000
 20
0.500000
  0
SEQEND
  8
gg1
  0
POLYLINE
  8
gg1
 62
1
 40
0.000000
 41
0.000000
 66
  1
  0
VERTEX
  8
gg1
 10
0.000000
 20
0.000000
  0
VERTEX
  8
gg1
 10
0.000000
 20
0.500000
  0
SEQEND
  8
gg1
  0
POLYLINE
  8
gg1
 62
1
 40
0.000000
 41
0.000000
 66
  1
  0
VERTEX
  8
gg1
 10
0.040000
 20
-0.098300
  0
VERTEX
  8
gg1
 10
0.048300
 20
-0.090000
  0
VERTEX
  8
gg1
 10
0.065000
 20
-0.090000
  0
VERTEX
  8
gg1
 10
0.073300
 20
-0.098300
  0
VERTEX
  8
gg1
 10
0.073300
 20
-0.106700
  0
VERTEX
  8
gg1
 10
0.065000
 20
-0.115000
  0
VERTEX
  8
gg1
 10
0.056700
 20
-0.115000
  0
VERTEX
  8
gg1
 10
0.065000
 20
-0.115000
  0
VERTEX
  8
gg1
 10
0.073300
 20
-0.123300
  0
VERTEX
  8
gg1
 10
0.073300
 20
-0.131700
  0
VERTEX
  8
gg1
 10
0.065000
 20
-0.140000
  0
VERTEX
  8
gg1
 10
0.048300
 20
-0.140000
  0
VERTEX
  8
gg1
 10
0.040000
 20
-0.131700
  0
SEQEND
  8
gg1
  0
POLYLINE
  8
gg1
 62
1
 40
0.000000
 41
0.000000
 66
  1
  0
VERTEX
  8
gg1
 10
0.090000
 20
-0.098300
  0
VERTEX
  8
gg1
 10
0.098300
 20
-0.090000
  0
VERTEX
  8
gg1
 10
0.115000
 20
-0.090000
  0
VERTEX
  8
gg1
 10
0.123300
 20
-0.098300
  0
VERTEX
  8
gg1
 10
0.123300
 20
-0.106700
  0
VERTEX
  8
gg1
 10
0.115000
 20
-0.115000
  0
VERTEX
  8
gg1
 10
0.106600
 20
-0.115000
  0
VERTEX
  8
gg1
 10
0.115000
 20
-0.115000
  0
VERTEX
  8
gg1
 10
0.123300
 20
-0.123300
  0
VERTEX
  8
gg1
 10
0.123300
 20
-0.131700
  0
VERTEX
  8
gg1
 10
0.115000
 20
-0.140000
  0
VERTEX
  8
gg1
 10
0.098300
 20
-0.140000
  0
VERTEX
  8
gg1
 10
0.090000
 20
-0.131700
  0
SEQEND
  8
gg1
  0
POLYLINE
  8
gg1
 62
1
 40
0.000000
 41
0.000000
 66
  1
  0
VERTEX
  8
gg1
 10
0.140000
 20
-0.098300
  0
VERTEX
  8
gg1
 10
0.148300
 20
-0.090000
  0
VERTEX
  8
gg1
 10
0.165000
 20
-0.090000
  0
VERTEX
  8
gg1
 10
0.173300
 20
-0.098300
  0
VERTEX
  8
gg1
 10
0.173300
 20
-0.131700
  0
VERTEX
  8
gg1
 10
0.165000
 20
-0.140000
  0
VERTEX
  8
gg1
 10
0.148300
 20
-0.140000
  0
VERTEX
  8
gg1
 10
0.140000
 20
-0.131700
  0
VERTEX
  8
gg1
 10
0.140000
 20
-0.098300
  0
SEQEND
  8
gg1
  0
POLYLINE
  8
gg1
 62
1
 40
0.000000
 41
0.000000
 66
  1
  0
VERTEX
  8
gg1
 10
0.190000
 20
-0.140000
  0
VERTEX
  8
gg1
 10
0.190000
 20
-0.106700
  0
VERTEX
  8
gg1
 10
0.198300
 20
-0.106700
  0
VERTEX
  8
gg1
 10
0.206600
 20
-0.115000
  0
VERTEX
  8
gg1
 10
0.206600
 20
-0.140000
  0
VERTEX
  8
gg1
 10
0.206600
 20
-0.115000
  0
VERTEX
  8
gg1
 10
0.214900
 20
-0.106700
  0
VERTEX
  8
gg1
 10
0.223300
 20
-0.115000
  0
VERTEX
  8
gg1
 10
0.223300
 20
-0.140000
  0
SEQEND
  8
gg1
  0
POLYLINE
  8
gg1
 62
1
 40
0.000000
 41
0.000000
 66
  1
  0
VERTEX
  8
gg1
 10
0.239900
 20
-0.140000
  0
VERTEX
  8
gg1
 10
0.256600
 20
-0.140000
  0
VERTEX
  8
gg1
 10
0.248300
 20
-0.140000
  0
VERTEX
  8
gg1
 10
0.248300
 20
-0.106700
  0
VERTEX
  8
gg1
 10
0.239900
 20
-0.106700
  0
SEQEND
  8
gg1
  0
POLYLINE
  8
gg1
 62
1
 40
0.000000
 41
0.000000
 66
  1
  0
VERTEX
  8
gg1
 10
0.281600
 20
-0.140000
  0
VERTEX
  8
gg1
 10
0.298200
 20
-0.140000
  0
VERTEX
  8
gg1
 10
0.289900
 20
-0.140000
  0
VERTEX
  8
gg1
 10
0.289900
 20
-0.090000
  0
VERTEX
  8
gg1
 10
0.281600
 20
-0.090000
  0
SEQEND
  8
gg1
  0
POLYLINE
  8
gg1
 62
1
 40
0.000000
 41
0.000000
 66
  1
  0
VERTEX
  8
gg1
 10
-0.094000
 20
0.138200
  0
VERTEX
  8
gg1
 10
-0.094000
 20
0.104900
  0
VERTEX
  8
gg1
 10
-0.069000
 20
0.104900
  0
VERTEX
  8
gg1
 10
-0.077300
 20
0.121500
  0
VERTEX
  8
gg1
 10
-0.077300
 20
0.129900
  0
VERTEX
  8
gg1
 10
-0.069000
 20
0.138200
  0
VERTEX
  8
gg1
 10
-0.052300
 20
0.138200
  0
VERTEX
  8
gg1
 10
-0.044000
 20
0.129900
  0
VERTEX
  8
gg1
 10
-0.044000
 20
0.113200
  0
VERTEX
  8
gg1
 10
-0.052300
 20
0.104900
  0
SEQEND
  8
gg1
  0
POLYLINE
  8
gg1
 62
1
 40
0.000000
 41
0.000000
 66
  1
  0
VERTEX
  8
gg1
 10
-0.085700
 20
0.154900
  0
VERTEX
  8
gg1
 10
-0.094000
 20
0.163200
  0
VERTEX
  8
gg1
 10
-0.094000
 20
0.179900
  0
VERTEX
  8
gg1
 10
-0.085700
 20
0.188200
  0
VERTEX
  8
gg1
 10
-0.052300
 20
0.188200
  0
VERTEX
  8
gg1
 10
-0.044000
 20
0.179900
  0
VERTEX
  8
gg1
 10
-0.044000
 20
0.163200
  0
VERTEX
  8
gg1
 10
-0.052300
 20
0.154900
  0
VERTEX
  8
gg1
 10
-0.085700
 20
0.154900
  0
SEQEND
  8
gg1
  0
POLYLINE
  8
gg1
 62
1
 40
0.000000
 41
0.000000
 66
  1
  0
VERTEX
  8
gg1
 10
-0.085700
 20
0.204800
  0
VERTEX
  8
gg1
 10
-0.094000
 20
0.213200
  0
VERTEX
  8
gg1
 10
-0.094000
 20
0.229800
  0
VERTEX
  8
gg1
 10
-0.085700
 20
0.238200
  0
VERTEX
  8
gg1
 10
-0.052300
 20
0.238200
  0
VERTEX
  8
gg1
 10
-0.044000
 20
0.229800
  0
VERTEX
  8
gg1
 10
-0.044000
 20
0.213200
  0
VERTEX
  8
gg1
 10
-0.052300
 20
0.204800
  0
VERTEX
  8
gg1
 10
-0.085700
 20
0.204800
  0
SEQEND
  8
gg1
  0
POLYLINE
  8
gg1
 62
1
 40
0.000000
 41
0.000000
 66
  1
  0
VERTEX
  8
gg1
 10
-0.044000
 20
0.254800
  0
VERTEX
  8
gg1
 10
-0.077300
 20
0.254800
  0
VERTEX
  8
gg1
 10
-0.077300
 20
0.263200
  0
VERTEX
  8
gg1
 10
-0.069000
 20
0.271500
  0
VERTEX
  8
gg1
 10
-0.044000
 20
0.271500
  0
VERTEX
  8
gg1
 10
-0.069000
 20
0.271500
  0
VERTEX
  8
gg1
 10
-0.077300
 20
0.279800
  0
VERTEX
  8
gg1
 10
-0.069000
 20
0.288100
  0
VERTEX
  8
gg1
 10
-0.044000
 20
0.288100
  0
SEQEND
  8
gg1
  0
POLYLINE
  8
gg1
 62
1
 40
0.000000
 41
0.000000
 66
  1
  0
VERTEX
  8
gg1
 10
-0.044000
 20
0.304800
  0
VERTEX
  8
gg1
 10
-0.044000
 20
0.321500
  0
VERTEX
  8
gg1
 10
-0.044000
 20
0.313100
  0
VERTEX
  8
gg1
 10
-0.077300
 20
0.313100
  0
VERTEX
  8
gg1
 10
-0.077300
 20
0.304800
  0
SEQEND
  8
gg1
  0
POLYLINE
  8
gg1
 62
1
 40
0.000000
 41
0.000000
 66
  1
  0
VERTEX
  8
gg1
 10
-0.044000
 20
0.346500
  0
VERTEX
  8
gg1
 10
-0.044000
 20
0.363100
  0
VERTEX
  8
gg1
 10
-0.044000
 20
0.354800
  0
VERTEX
  8
gg1
 10
-0.094000
 20
0.354800
  0
VERTEX
  8
gg1
 10
-0.094000
 20
0.346500
  0
SEQEND
  8
gg1
  0
POLYLINE
  8
gg1
 62
1
 40
0.000000
 41
0.000000
 66
  1
  0
VERTEX
  8
gg1
 10
0.245000
 20
0.055000
  0
VERTEX
  8
gg1
 10
0.285000
 20
0.055000
  0
SEQEND
  8
gg1
  0
POLYLINE
  8
gg1
 62
1
 40
0.000000
 41
0.000000
 66
  1
  0
VERTEX
  8
gg1
 10
0.265000
 20
0.035000
  0
VERTEX
  8
gg1
 10
0.265000
 20
0.075000
  0
SEQEND
  8
gg1
  0
POLYLINE
  8
gg1
 62
1
 40
0.000000
 41
0.000000
 66
  1
  0
VERTEX
  8
gg1
 10
0.145000
 20
0.055000
  0
VERTEX
  8
gg1
 10
0.185000
 20
0.055000
  0
SEQEND
  8
gg1
  0
POLYLINE
  8
gg1
 62
1
 40
0.000000
 41
0.000000
 66
  1
  0
VERTEX
  8
gg1
 10
0.165000
 20
0.035000
  0
VERTEX
  8
gg1
 10
0.165000
 20
0.075000
  0
SEQEND
  8
gg1
  0
POLYLINE
  8
gg1
 62
1
 40
0.000000
 41
0.000000
 66
  1
  0
VERTEX
  8
gg1
 10
0.045000
 20
0.055000
  0
VERTEX
  8
gg1
 10
0.085000
 20
0.055000
  0
SEQEND
  8
gg1
  0
POLYLINE
  8
gg1
 62
1
 40
0.000000
 41
0.000000
 66
  1
  0
VERTEX
  8
gg1
 10
0.065000
 20
0.035000
  0
VERTEX
  8
gg1
 10
0.065000
 20
0.075000
  0
SEQEND
  8
gg1
  0
POLYLINE
  8
gg1
 62
1
 40
0.000000
 41
0.000000
 66
  1
  0
VERTEX
  8
gg1
 10
0.252500
 20
0.460000
  0
VERTEX
  8
gg1
 10
0.267500
 20
0.460000
  0
SEQEND
  8
gg1
  0
POLYLINE
  8
gg1
 62
1
 40
0.000000
 41
0.000000
 66
  1
  0
VERTEX
  8
gg1
 10
0.260000
 20
0.452500
  0
VERTEX
  8
gg1
 10
0.260000
 20
0.467500
  0
SEQEND
  8
gg1
  0
POLYLINE
  8
gg1
 62
1
 40
0.000000
 41
0.000000
 66
  1
  0
VERTEX
  8
gg1
 10
0.252500
 20
0.425000
  0
VERTEX
  8
gg1
 10
0.267500
 20
0.425000
  0
SEQEND
  8
gg1
  0
POLYLINE
  8
gg1
 62
1
 40
0.000000
 41
0.000000
 66
  1
  0
VERTEX
  8
gg1
 10
0.260000
 20
0.417500
  0
VERTEX
  8
gg1
 10
0.260000
 20
0.432500
  0
SEQEND
  8
gg1
  0
POLYLINE
  8
gg1
 62
1
 40
0.000000
 41
0.000000
 66
  1
  0
VERTEX
  8
gg1
 10
0.252500
 20
0.390000
  0
VERTEX
  8
gg1
 10
0.267500
 20
0.390000
  0
SEQEND
  8
gg1
  0
POLYLINE
  8
gg1
 62
1
 40
0.000000
 41
0.000000
 66
  1
  0
VERTEX
  8
gg1
 10
0.260000
 20
0.382500
  0
VERTEX
  8
gg1
 10
0.260000
 20
0.397500
  0
SEQEND
  8
gg1
  0
POLYLINE
  8
gg1
 62
1
 40
0.000000
 41
0.000000
 66
  1
  0
VERTEX
  8
gg1
 10
0.282500
 20
0.400000
  0
VERTEX
  8
gg1
 10
0.297500
 20
0.400000
  0
SEQEND
  8
gg1
  0
POLYLINE
  8
gg1
 62
1
 40
0.000000
 41
0.000000
 66
  1
  0
VERTEX
  8
gg1
 10
0.290000
 20
0.392500
  0
VERTEX
  8
gg1
 10
0.290000
 20
0.407500
  0
SEQEND
  8
gg1
  0
POLYLINE
  8
gg1
 62
1
 40
0.000000
 41
0.000000
 66
  1
  0
VERTEX
  8
gg1
 10
0.097500
 20
0.455000
  0
VERTEX
  8
gg1
 10
0.112500
 20
0.455000
  0
SEQEND
  8
gg1
  0
POLYLINE
  8
gg1
 62
1
 40
0.000000
 41
0.000000
 66
  1
  0
VERTEX
  8
gg1
 10
0.105000
 20
0.447500
  0
VERTEX
  8
gg1
 10
0.105000
 20
0.462500
  0
SEQEND
  8
gg1
  0
POLYLINE
  8
gg1
 62
1
 40
0.000000
 41
0.000000
 66
  1
  0
VERTEX
  8
gg1
 10
0.082500
 20
0.425000
  0
VERTEX
  8
gg1
 10
0.097500
 20
0.425000
  0
SEQEND
  8
gg1
  0
POLYLINE
  8
gg1
 62
1
 40
0.000000
 41
0.000000
 66
  1
  0
VERTEX
  8
gg1
 10
0.090000
 20
0.417500
  0
VERTEX
  8
gg1
 10
0.090000
 20
0.432500
  0
SEQEND
  8
gg1
  0
POLYLINE
  8
gg1
 62
1
 40
0.000000
 41
0.000000
 66
  1
  0
VERTEX
  8
gg1
 10
0.102500
 20
0.395000
  0
VERTEX
  8
gg1
 10
0.117500
 20
0.395000
  0
SEQEND
  8
gg1
  0
POLYLINE
  8
gg1
 62
1
 40
0.000000
 41
0.000000
 66
  1
  0
VERTEX
  8
gg1
 10
0.110000
 20
0.387500
  0
VERTEX
  8
gg1
 10
0.110000
 20
0.402500
  0
SEQEND
  8
gg1
  0
POLYLINE
  8
gg1
 62
1
 40
0.000000
 41
0.000000
 66
  1
  0
VERTEX
  8
gg1
 10
0.082500
 20
0.360000
  0
VERTEX
  8
gg1
 10
0.097500
 20
0.360000
  0
SEQEND
  8
gg1
  0
POLYLINE
  8
gg1
 62
1
 40
0.000000
 41
0.000000
 66
  1
  0
VERTEX
  8
gg1
 10
0.090000
 20
0.352500
  0
VERTEX
  8
gg1
 10
0.090000
 20
0.367500
  0
SEQEND
  8
gg1
  0
POLYLINE
  8
gg1
 62
1
 40
0.000000
 41
0.000000
 66
  1
  0
VERTEX
  8
gg1
 10
0.032500
 20
0.305000
  0
VERTEX
  8
gg1
 10
0.047500
 20
0.305000
  0
SEQEND
  8
gg1
  0
POLYLINE
  8
gg1
 62
1
 40
0.000000
 41
0.000000
 66
  1
  0
VERTEX
  8
gg1
 10
0.040000
 20
0.297500
  0
VERTEX
  8
gg1
 10
0.040000
 20
0.312500
  0
SEQEND
  8
gg1
  0
POLYLINE
  8
gg1
 62
1
 40
0.000000
 41
0.000000
 66
  1
  0
VERTEX
  8
gg1
 10
0.072500
 20
0.305000
  0
VERTEX
  8
gg1
 10
0.087500
 20
0.305000
  0
SEQEND
  8
gg1
  0
POLYLINE
  8
gg1
 62
1
 40
0.000000
 41
0.000000
 66
  1
  0
VERTEX
  8
gg1
 10
0.080000
 20
0.297500
  0
VERTEX
  8
gg1
 10
0.080000
 20
0.312500
  0
SEQEND
  8
gg1
  0
POLYLINE
  8
gg1
 62
1
 40
0.000000
 41
0.000000
 66
  1
  0
VERTEX
  8
gg1
 10
0.102500
 20
0.325000
  0
VERTEX
  8
gg1
 10
0.117500
 20
0.325000
  0
SEQEND
  8
gg1
  0
POLYLINE
  8
gg1
 62
1
 40
0.000000
 41
0.000000
 66
  1
  0
VERTEX
  8
gg1
 10
0.110000
 20
0.317500
  0
VERTEX
  8
gg1
 10
0.110000
 20
0.332500
  0
SEQEND
  8
gg1
  0
POLYLINE
  8
gg1
 62
1
 40
0.000000
 41
0.000000
 66
  1
  0
VERTEX
  8
gg1
 10
0.032500
 20
0.225000
  0
VERTEX
  8
gg1
 10
0.047500
 20
0.225000
  0
SEQEND
  8
gg1
  0
POLYLINE
  8
gg1
 62
1
 40
0.000000
 41
0.000000
 66
  1
  0
VERTEX
  8
gg1
 10
0.040000
 20
0.217500
  0
VERTEX
  8
gg1
 10
0.040000
 20
0.232500
  0
SEQEND
  8
gg1
  0
POLYLINE
  8
gg1
 62
1
 40
0.000000
 41
0.000000
 66
  1
  0
VERTEX
  8
gg1
 10
0.062500
 20
0.225000
  0
VERTEX
  8
gg1
 10
0.077500
 20
0.225000
  0
SEQEND
  8
gg1
  0
POLYLINE
  8
gg1
 62
1
 40
0.000000
 41
0.000000
 66
  1
  0
VERTEX
  8
gg1
 10
0.070000
 20
0.217500
  0
VERTEX
  8
gg1
 10
0.070000
 20
0.232500
  0
SEQEND
  8
gg1
  0
POLYLINE
  8
gg1
 62
1
 40
0.000000
 41
0.000000
 66
  1
  0
VERTEX
  8
gg1
 10
0.192300
 20
0.219500
  0
VERTEX
  8
gg1
 10
0.207300
 20
0.219500
  0
SEQEND
  8
gg1
  0
POLYLINE
  8
gg1
 62
1
 40
0.000000
 41
0.000000
 66
  1
  0
VERTEX
  8
gg1
 10
0.199800
 20
0.212000
  0
VERTEX
  8
gg1
 10
0.199800
 20
0.227000
  0
SEQEND
  8
gg1
  0
POLYLINE
  8
gg1
 62
1
 40
0.000000
 41
0.000000
 66
  1
  0
VERTEX
  8
gg1
 10
0.192500
 20
0.180000
  0
VERTEX
  8
gg1
 10
0.207500
 20
0.180000
  0
SEQEND
  8
gg1
  0
POLYLINE
  8
gg1
 62
1
 40
0.000000
 41
0.000000
 66
  1
  0
VERTEX
  8
gg1
 10
0.200000
 20
0.172500
  0
VERTEX
  8
gg1
 10
0.200000
 20
0.187500
  0
SEQEND
  8
gg1
  0
POLYLINE
  8
gg1
 62
1
 40
0.000000
 41
0.000000
 66
  1
  0
VERTEX
  8
gg1
 10
0.192500
 20
0.140000
  0
VERTEX
  8
gg1
 10
0.207500
 20
0.140000
  0
SEQEND
  8
gg1
  0
POLYLINE
  8
gg1
 62
1
 40
0.000000
 41
0.000000
 66
  1
  0
VERTEX
  8
gg1
 10
0.200000
 20
0.132500
  0
VERTEX
  8
gg1
 10
0.200000
 20
0.147500
  0
SEQEND
  8
gg1
  0
ENDSEC
  0
EOF
