  0
SECTION
  2
HEADER
  9
$EXTMIN
 10
-0.127000
 20
-0.079000
  9
$EXTMAX
 10
0.355000
 20
0.855000
  9
$LIMMIN
 10
-0.127000
 20
-0.079000
  9
$LIMMAX
 10
0.355000
 20
0.855000
  9
$FILLMODE
 70
  1
  0
ENDSEC
  0
SECTION
  2
TABLES
  0
TABLE
  2
LTYPE
 70
  1
  0
LTYPE
  2
CONTINUOUS
 70
 64
  3
Solid line
 72
 65
 73
  0
 40
0.0
  0
ENDTAB
  0
TABLE
  2
LAYER
 70
 1
  0
LAYER
  2
0
 70
  0
 62
7
  6
CONTINUOUS
  0
LAYER
  2
gg1
 70
  0
 62
1
  6
CONTINUOUS
  0
ENDTAB
  0
TABLE
  2
STYLE
 70
  1
  0
STYLE
  2
STANDARD
 70
  0
 40
0.0
 41
1.0
 50
0.0
 71
  0
 42
0.2
  3
txt
  4

  0
ENDTAB
  0
ENDSEC
  0
SECTION
  2
BLOCKS
  0
BLOCK
  8
0
  2
D10
 70
64
 10
0.0
 20
0.0
  3
D10
  0
CIRCLE
  8
0
 10
0.000000
 20
0.000000
 40
0.005000
 0
ENDBLK
  8
0
  0
BLOCK
  8
0
  2
D11
 70
64
 10
0.0
 20
0.0
  3
D11
  0
CIRCLE
  8
0
 10
0.000000
 20
0.000000
 40
0.003000
 0
ENDBLK
  8
0
  0
BLOCK
  8
0
  2
D12
 70
64
 10
0.0
 20
0.0
  3
D12
  0
CIRCLE
  8
0
 10
0.000000
 20
0.000000
 40
0.002500
 0
ENDBLK
  8
0
  0
ENDSEC
  0
SECTION
  2
ENTITIES
  0
POLYLINE
  8
gg1
 62
1
 40
0.000000
 41
0.000000
 66
  1
  0
VERTEX
  8
gg1
 10
0.350000
 20
-0.060000
  0
VERTEX
  8
gg1
 10
0.350000
 20
-0.010000
  0
SEQEND
  8
gg1
  0
POLYLINE
  8
gg1
 62
1
 40
0.000000
 41
0.000000
 66
  1
  0
VERTEX
  8
gg1
 10
0.000000
 20
-0.060000
  0
VERTEX
  8
gg1
 10
0.000000
 20
-0.015000
  0
SEQEND
  8
gg1
  0
POLYLINE
  8
gg1
 62
1
 40
0.000000
 41
0.000000
 66
  1
  0
VERTEX
  8
gg1
 10
0.278300
 20
-0.050000
  0
VERTEX
  8
gg1
 10
0.350000
 20
-0.050000
  0
SEQEND
  8
gg1
  0
POLYLINE
  8
gg1
 62
1
 40
0.000000
 41
0.000000
 66
  1
  0
VERTEX
  8
gg1
 10
0.000000
 20
-0.050000
  0
VERTEX
  8
gg1
 10
0.039700
 20
-0.050000
  0
SEQEND
  8
gg1
  0
POLYLINE
  8
gg1
 62
1
 40
0.000000
 41
0.000000
 66
  1
  0
VERTEX
  8
gg1
 10
0.320000
 20
-0.040000
  0
VERTEX
  8
gg1
 10
0.350000
 20
-0.050000
  0
SEQEND
  8
gg1
  0
POLYLINE
  8
gg1
 62
1
 40
0.000000
 41
0.000000
 66
  1
  0
VERTEX
  8
gg1
 10
0.320000
 20
-0.060000
  0
VERTEX
  8
gg1
 10
0.350000
 20
-0.050000
  0
SEQEND
  8
gg1
  0
POLYLINE
  8
gg1
 62
1
 40
0.000000
 41
0.000000
 66
  1
  0
VERTEX
  8
gg1
 10
0.000000
 20
-0.050000
  0
VERTEX
  8
gg1
 10
0.030000
 20
-0.060000
  0
SEQEND
  8
gg1
  0
POLYLINE
  8
gg1
 62
1
 40
0.000000
 41
0.000000
 66
  1
  0
VERTEX
  8
gg1
 10
0.000000
 20
-0.050000
  0
VERTEX
  8
gg1
 10
0.030000
 20
-0.040000
  0
SEQEND
  8
gg1
  0
POLYLINE
  8
gg1
 62
1
 40
0.000000
 41
0.000000
 66
  1
  0
VERTEX
  8
gg1
 10
-0.110000
 20
0.850000
  0
VERTEX
  8
gg1
 10
-0.010000
 20
0.850000
  0
SEQEND
  8
gg1
  0
POLYLINE
  8
gg1
 62
1
 40
0.000000
 41
0.000000
 66
  1
  0
VERTEX
  8
gg1
 10
-0.110000
 20
0.000000
  0
VERTEX
  8
gg1
 10
-0.015000
 20
0.000000
  0
SEQEND
  8
gg1
  0
POLYLINE
  8
gg1
 62
1
 40
0.000000
 41
0.000000
 66
  1
  0
VERTEX
  8
gg1
 10
-0.100000
 20
0.579900
  0
VERTEX
  8
gg1
 10
-0.100000
 20
0.850000
  0
SEQEND
  8
gg1
  0
POLYLINE
  8
gg1
 62
1
 40
0.000000
 41
0.000000
 66
  1
  0
VERTEX
  8
gg1
 10
-0.100000
 20
0.000000
  0
VERTEX
  8
gg1
 10
-0.100000
 20
0.238000
  0
SEQEND
  8
gg1
  0
POLYLINE
  8
gg1
 62
1
 40
0.000000
 41
0.000000
 66
  1
  0
VERTEX
  8
gg1
 10
-0.120000
 20
0.790000
  0
VERTEX
  8
gg1
 10
-0.100000
 20
0.850000
  0
VERTEX
  8
gg1
 10
-0.080000
 20
0.790000
  0
SEQEND
  8
gg1
  0
POLYLINE
  8
gg1
 62
1
 40
0.000000
 41
0.000000
 66
  1
  0
VERTEX
  8
gg1
 10
-0.100000
 20
0.000000
  0
VERTEX
  8
gg1
 10
-0.080000
 20
0.060000
  0
SEQEND
  8
gg1
  0
POLYLINE
  8
gg1
 62
1
 40
0.000000
 41
0.000000
 66
  1
  0
VERTEX
  8
gg1
 10
-0.120000
 20
0.060000
  0
VERTEX
  8
gg1
 10
-0.100000
 20
0.000000
  0
SEQEND
  8
gg1
  0
POLYLINE
  8
gg1
 62
1
 40
0.000000
 41
0.000000
 66
  1
  0
VERTEX
  8
gg1
 10
0.000000
 20
0.000000
  0
VERTEX
  8
gg1
 10
0.350000
 20
0.000000
  0
VERTEX
  8
gg1
 10
0.350000
 20
0.850000
  0
SEQEND
  8
gg1
  0
POLYLINE
  8
gg1
 62
1
 40
0.000000
 41
0.000000
 66
  1
  0
VERTEX
  8
gg1
 10
0.000000
 20
0.850000
  0
VERTEX
  8
gg1
 10
0.350000
 20
0.850000
  0
SEQEND
  8
gg1
  0
POLYLINE
  8
gg1
 62
1
 40
0.000000
 41
0.000000
 66
  1
  0
VERTEX
  8
gg1
 10
0.000000
 20
0.000000
  0
VERTEX
  8
gg1
 10
0.000000
 20
0.850000
  0
SEQEND
  8
gg1
  0
POLYLINE
  8
gg1
 62
1
 40
0.000000
 41
0.000000
 66
  1
  0
VERTEX
  8
gg1
 10
0.055700
 20
-0.042700
  0
VERTEX
  8
gg1
 10
0.062400
 20
-0.036000
  0
VERTEX
  8
gg1
 10
0.075700
 20
-0.036000
  0
VERTEX
  8
gg1
 10
0.082400
 20
-0.042700
  0
VERTEX
  8
gg1
 10
0.082400
 20
-0.049300
  0
VERTEX
  8
gg1
 10
0.075700
 20
-0.056000
  0
VERTEX
  8
gg1
 10
0.069000
 20
-0.056000
  0
VERTEX
  8
gg1
 10
0.075700
 20
-0.056000
  0
VERTEX
  8
gg1
 10
0.082400
 20
-0.062700
  0
VERTEX
  8
gg1
 10
0.082400
 20
-0.069300
  0
VERTEX
  8
gg1
 10
0.075700
 20
-0.076000
  0
VERTEX
  8
gg1
 10
0.062400
 20
-0.076000
  0
VERTEX
  8
gg1
 10
0.055700
 20
-0.069300
  0
SEQEND
  8
gg1
  0
POLYLINE
  8
gg1
 62
1
 40
0.000000
 41
0.000000
 66
  1
  0
VERTEX
  8
gg1
 10
0.122300
 20
-0.036000
  0
VERTEX
  8
gg1
 10
0.095700
 20
-0.036000
  0
VERTEX
  8
gg1
 10
0.095700
 20
-0.056000
  0
VERTEX
  8
gg1
 10
0.109000
 20
-0.049300
  0
VERTEX
  8
gg1
 10
0.115700
 20
-0.049300
  0
VERTEX
  8
gg1
 10
0.122300
 20
-0.056000
  0
VERTEX
  8
gg1
 10
0.122300
 20
-0.069300
  0
VERTEX
  8
gg1
 10
0.115700
 20
-0.076000
  0
VERTEX
  8
gg1
 10
0.102400
 20
-0.076000
  0
VERTEX
  8
gg1
 10
0.095700
 20
-0.069300
  0
SEQEND
  8
gg1
  0
POLYLINE
  8
gg1
 62
1
 40
0.000000
 41
0.000000
 66
  1
  0
VERTEX
  8
gg1
 10
0.135700
 20
-0.042700
  0
VERTEX
  8
gg1
 10
0.142300
 20
-0.036000
  0
VERTEX
  8
gg1
 10
0.155700
 20
-0.036000
  0
VERTEX
  8
gg1
 10
0.162300
 20
-0.042700
  0
VERTEX
  8
gg1
 10
0.162300
 20
-0.069300
  0
VERTEX
  8
gg1
 10
0.155700
 20
-0.076000
  0
VERTEX
  8
gg1
 10
0.142300
 20
-0.076000
  0
VERTEX
  8
gg1
 10
0.135700
 20
-0.069300
  0
VERTEX
  8
gg1
 10
0.135700
 20
-0.042700
  0
SEQEND
  8
gg1
  0
POLYLINE
  8
gg1
 62
1
 40
0.000000
 41
0.000000
 66
  1
  0
VERTEX
  8
gg1
 10
0.175700
 20
-0.076000
  0
VERTEX
  8
gg1
 10
0.175700
 20
-0.049300
  0
VERTEX
  8
gg1
 10
0.182300
 20
-0.049300
  0
VERTEX
  8
gg1
 10
0.189000
 20
-0.056000
  0
VERTEX
  8
gg1
 10
0.189000
 20
-0.076000
  0
VERTEX
  8
gg1
 10
0.189000
 20
-0.056000
  0
VERTEX
  8
gg1
 10
0.195700
 20
-0.049300
  0
VERTEX
  8
gg1
 10
0.202300
 20
-0.056000
  0
VERTEX
  8
gg1
 10
0.202300
 20
-0.076000
  0
SEQEND
  8
gg1
  0
POLYLINE
  8
gg1
 62
1
 40
0.000000
 41
0.000000
 66
  1
  0
VERTEX
  8
gg1
 10
0.215600
 20
-0.076000
  0
VERTEX
  8
gg1
 10
0.229000
 20
-0.076000
  0
VERTEX
  8
gg1
 10
0.222300
 20
-0.076000
  0
VERTEX
  8
gg1
 10
0.222300
 20
-0.049300
  0
VERTEX
  8
gg1
 10
0.215600
 20
-0.049300
  0
SEQEND
  8
gg1
  0
POLYLINE
  8
gg1
 62
1
 40
0.000000
 41
0.000000
 66
  1
  0
VERTEX
  8
gg1
 10
0.249000
 20
-0.076000
  0
VERTEX
  8
gg1
 10
0.262300
 20
-0.076000
  0
VERTEX
  8
gg1
 10
0.255600
 20
-0.076000
  0
VERTEX
  8
gg1
 10
0.255600
 20
-0.036000
  0
VERTEX
  8
gg1
 10
0.249000
 20
-0.036000
  0
SEQEND
  8
gg1
  0
POLYLINE
  8
gg1
 62
1
 40
0.000000
 41
0.000000
 66
  1
  0
VERTEX
  8
gg1
 10
-0.114000
 20
0.254000
  0
VERTEX
  8
gg1
 10
-0.124000
 20
0.264000
  0
VERTEX
  8
gg1
 10
-0.124000
 20
0.284000
  0
VERTEX
  8
gg1
 10
-0.114000
 20
0.294000
  0
VERTEX
  8
gg1
 10
-0.104000
 20
0.294000
  0
VERTEX
  8
gg1
 10
-0.094000
 20
0.284000
  0
VERTEX
  8
gg1
 10
-0.084000
 20
0.294000
  0
VERTEX
  8
gg1
 10
-0.074000
 20
0.294000
  0
VERTEX
  8
gg1
 10
-0.064000
 20
0.284000
  0
VERTEX
  8
gg1
 10
-0.064000
 20
0.264000
  0
VERTEX
  8
gg1
 10
-0.074000
 20
0.254000
  0
VERTEX
  8
gg1
 10
-0.084000
 20
0.254000
  0
VERTEX
  8
gg1
 10
-0.094000
 20
0.264000
  0
VERTEX
  8
gg1
 10
-0.104000
 20
0.254000
  0
VERTEX
  8
gg1
 10
-0.114000
 20
0.254000
  0
SEQEND
  8
gg1
  0
POLYLINE
  8
gg1
 62
1
 40
0.000000
 41
0.000000
 66
  1
  0
VERTEX
  8
gg1
 10
-0.094000
 20
0.264000
  0
VERTEX
  8
gg1
 10
-0.094000
 20
0.284000
  0
SEQEND
  8
gg1
  0
POLYLINE
  8
gg1
 62
1
 40
0.000000
 41
0.000000
 66
  1
  0
VERTEX
  8
gg1
 10
-0.124000
 20
0.354000
  0
VERTEX
  8
gg1
 10
-0.124000
 20
0.314000
  0
VERTEX
  8
gg1
 10
-0.094000
 20
0.314000
  0
VERTEX
  8
gg1
 10
-0.104000
 20
0.334000
  0
VERTEX
  8
gg1
 10
-0.104000
 20
0.344000
  0
VERTEX
  8
gg1
 10
-0.094000
 20
0.354000
  0
VERTEX
  8
gg1
 10
-0.074000
 20
0.354000
  0
VERTEX
  8
gg1
 10
-0.064000
 20
0.344000
  0
VERTEX
  8
gg1
 10
-0.064000
 20
0.324000
  0
VERTEX
  8
gg1
 10
-0.074000
 20
0.314000
  0
SEQEND
  8
gg1
  0
POLYLINE
  8
gg1
 62
1
 40
0.000000
 41
0.000000
 66
  1
  0
VERTEX
  8
gg1
 10
-0.114000
 20
0.374000
  0
VERTEX
  8
gg1
 10
-0.124000
 20
0.384000
  0
VERTEX
  8
gg1
 10
-0.124000
 20
0.404000
  0
VERTEX
  8
gg1
 10
-0.114000
 20
0.414000
  0
VERTEX
  8
gg1
 10
-0.074000
 20
0.414000
  0
VERTEX
  8
gg1
 10
-0.064000
 20
0.404000
  0
VERTEX
  8
gg1
 10
-0.064000
 20
0.384000
  0
VERTEX
  8
gg1
 10
-0.074000
 20
0.374000
  0
VERTEX
  8
gg1
 10
-0.114000
 20
0.374000
  0
SEQEND
  8
gg1
  0
POLYLINE
  8
gg1
 62
1
 40
0.000000
 41
0.000000
 66
  1
  0
VERTEX
  8
gg1
 10
-0.064000
 20
0.434000
  0
VERTEX
  8
gg1
 10
-0.104000
 20
0.434000
  0
VERTEX
  8
gg1
 10
-0.104000
 20
0.444000
  0
VERTEX
  8
gg1
 10
-0.094000
 20
0.454000
  0
VERTEX
  8
gg1
 10
-0.064000
 20
0.454000
  0
VERTEX
  8
gg1
 10
-0.094000
 20
0.454000
  0
VERTEX
  8
gg1
 10
-0.104000
 20
0.464000
  0
VERTEX
  8
gg1
 10
-0.094000
 20
0.474000
  0
VERTEX
  8
gg1
 10
-0.064000
 20
0.474000
  0
SEQEND
  8
gg1
  0
POLYLINE
  8
gg1
 62
1
 40
0.000000
 41
0.000000
 66
  1
  0
VERTEX
  8
gg1
 10
-0.064000
 20
0.494000
  0
VERTEX
  8
gg1
 10
-0.064000
 20
0.514000
  0
VERTEX
  8
gg1
 10
-0.064000
 20
0.504000
  0
VERTEX
  8
gg1
 10
-0.104000
 20
0.504000
  0
VERTEX
  8
gg1
 10
-0.104000
 20
0.494000
  0
SEQEND
  8
gg1
  0
POLYLINE
  8
gg1
 62
1
 40
0.000000
 41
0.000000
 66
  1
  0
VERTEX
  8
gg1
 10
-0.064000
 20
0.544000
  0
VERTEX
  8
gg1
 10
-0.064000
 20
0.564000
  0
VERTEX
  8
gg1
 10
-0.064000
 20
0.554000
  0
VERTEX
  8
gg1
 10
-0.124000
 20
0.554000
  0
VERTEX
  8
gg1
 10
-0.124000
 20
0.544000
  0
SEQEND
  8
gg1
  0
POLYLINE
  8
gg1
 62
1
 40
0.000000
 41
0.000000
 66
  1
  0
VERTEX
  8
gg1
 10
0.055000
 20
0.050000
  0
VERTEX
  8
gg1
 10
0.095000
 20
0.050000
  0
SEQEND
  8
gg1
  0
POLYLINE
  8
gg1
 62
1
 40
0.000000
 41
0.000000
 66
  1
  0
VERTEX
  8
gg1
 10
0.075000
 20
0.030000
  0
VERTEX
  8
gg1
 10
0.075000
 20
0.070000
  0
SEQEND
  8
gg1
  0
POLYLINE
  8
gg1
 62
1
 40
0.000000
 41
0.000000
 66
  1
  0
VERTEX
  8
gg1
 10
0.155000
 20
0.050000
  0
VERTEX
  8
gg1
 10
0.195000
 20
0.050000
  0
SEQEND
  8
gg1
  0
POLYLINE
  8
gg1
 62
1
 40
0.000000
 41
0.000000
 66
  1
  0
VERTEX
  8
gg1
 10
0.175000
 20
0.030000
  0
VERTEX
  8
gg1
 10
0.175000
 20
0.070000
  0
SEQEND
  8
gg1
  0
POLYLINE
  8
gg1
 62
1
 40
0.000000
 41
0.000000
 66
  1
  0
VERTEX
  8
gg1
 10
0.255000
 20
0.050000
  0
VERTEX
  8
gg1
 10
0.295000
 20
0.050000
  0
SEQEND
  8
gg1
  0
POLYLINE
  8
gg1
 62
1
 40
0.000000
 41
0.000000
 66
  1
  0
VERTEX
  8
gg1
 10
0.275000
 20
0.030000
  0
VERTEX
  8
gg1
 10
0.275000
 20
0.070000
  0
SEQEND
  8
gg1
  0
POLYLINE
  8
gg1
 62
1
 40
0.000000
 41
0.000000
 66
  1
  0
VERTEX
  8
gg1
 10
0.132000
 20
0.755000
  0
VERTEX
  8
gg1
 10
0.218000
 20
0.755000
  0
SEQEND
  8
gg1
  0
POLYLINE
  8
gg1
 62
1
 40
0.000000
 41
0.000000
 66
  1
  0
VERTEX
  8
gg1
 10
0.175000
 20
0.712000
  0
VERTEX
  8
gg1
 10
0.175000
 20
0.798000
  0
SEQEND
  8
gg1
  0
POLYLINE
  8
gg1
 62
1
 40
0.000000
 41
0.000000
 66
  1
  0
VERTEX
  8
gg1
 10
0.290400
 20
0.590000
  0
VERTEX
  8
gg1
 10
0.315400
 20
0.590000
  0
SEQEND
  8
gg1
  0
POLYLINE
  8
gg1
 62
1
 40
0.000000
 41
0.000000
 66
  1
  0
VERTEX
  8
gg1
 10
0.302900
 20
0.577500
  0
VERTEX
  8
gg1
 10
0.302900
 20
0.602500
  0
SEQEND
  8
gg1
  0
POLYLINE
  8
gg1
 62
1
 40
0.000000
 41
0.000000
 66
  1
  0
VERTEX
  8
gg1
 10
0.290400
 20
0.471900
  0
VERTEX
  8
gg1
 10
0.315400
 20
0.471900
  0
SEQEND
  8
gg1
  0
POLYLINE
  8
gg1
 62
1
 40
0.000000
 41
0.000000
 66
  1
  0
VERTEX
  8
gg1
 10
0.302900
 20
0.459400
  0
VERTEX
  8
gg1
 10
0.302900
 20
0.484400
  0
SEQEND
  8
gg1
  0
POLYLINE
  8
gg1
 62
1
 40
0.000000
 41
0.000000
 66
  1
  0
VERTEX
  8
gg1
 10
0.290400
 20
0.412800
  0
VERTEX
  8
gg1
 10
0.315400
 20
0.412800
  0
SEQEND
  8
gg1
  0
POLYLINE
  8
gg1
 62
1
 40
0.000000
 41
0.000000
 66
  1
  0
VERTEX
  8
gg1
 10
0.302900
 20
0.400300
  0
VERTEX
  8
gg1
 10
0.302900
 20
0.425300
  0
SEQEND
  8
gg1
  0
POLYLINE
  8
gg1
 62
1
 40
0.000000
 41
0.000000
 66
  1
  0
VERTEX
  8
gg1
 10
0.290400
 20
0.353800
  0
VERTEX
  8
gg1
 10
0.315400
 20
0.353800
  0
SEQEND
  8
gg1
  0
POLYLINE
  8
gg1
 62
1
 40
0.000000
 41
0.000000
 66
  1
  0
VERTEX
  8
gg1
 10
0.302900
 20
0.341300
  0
VERTEX
  8
gg1
 10
0.302900
 20
0.366300
  0
SEQEND
  8
gg1
  0
POLYLINE
  8
gg1
 62
1
 40
0.000000
 41
0.000000
 66
  1
  0
VERTEX
  8
gg1
 10
0.290400
 20
0.294700
  0
VERTEX
  8
gg1
 10
0.315400
 20
0.294700
  0
SEQEND
  8
gg1
  0
POLYLINE
  8
gg1
 62
1
 40
0.000000
 41
0.000000
 66
  1
  0
VERTEX
  8
gg1
 10
0.302900
 20
0.282200
  0
VERTEX
  8
gg1
 10
0.302900
 20
0.307200
  0
SEQEND
  8
gg1
  0
POLYLINE
  8
gg1
 62
1
 40
0.000000
 41
0.000000
 66
  1
  0
VERTEX
  8
gg1
 10
0.290400
 20
0.235700
  0
VERTEX
  8
gg1
 10
0.315400
 20
0.235700
  0
SEQEND
  8
gg1
  0
POLYLINE
  8
gg1
 62
1
 40
0.000000
 41
0.000000
 66
  1
  0
VERTEX
  8
gg1
 10
0.302900
 20
0.223200
  0
VERTEX
  8
gg1
 10
0.302900
 20
0.248200
  0
SEQEND
  8
gg1
  0
POLYLINE
  8
gg1
 62
1
 40
0.000000
 41
0.000000
 66
  1
  0
VERTEX
  8
gg1
 10
0.290400
 20
0.176600
  0
VERTEX
  8
gg1
 10
0.315400
 20
0.176600
  0
SEQEND
  8
gg1
  0
POLYLINE
  8
gg1
 62
1
 40
0.000000
 41
0.000000
 66
  1
  0
VERTEX
  8
gg1
 10
0.302900
 20
0.164100
  0
VERTEX
  8
gg1
 10
0.302900
 20
0.189100
  0
SEQEND
  8
gg1
  0
POLYLINE
  8
gg1
 62
1
 40
0.000000
 41
0.000000
 66
  1
  0
VERTEX
  8
gg1
 10
0.034500
 20
0.176600
  0
VERTEX
  8
gg1
 10
0.059500
 20
0.176600
  0
SEQEND
  8
gg1
  0
POLYLINE
  8
gg1
 62
1
 40
0.000000
 41
0.000000
 66
  1
  0
VERTEX
  8
gg1
 10
0.047000
 20
0.164100
  0
VERTEX
  8
gg1
 10
0.047000
 20
0.189100
  0
SEQEND
  8
gg1
  0
POLYLINE
  8
gg1
 62
1
 40
0.000000
 41
0.000000
 66
  1
  0
VERTEX
  8
gg1
 10
0.034500
 20
0.235700
  0
VERTEX
  8
gg1
 10
0.059500
 20
0.235700
  0
SEQEND
  8
gg1
  0
POLYLINE
  8
gg1
 62
1
 40
0.000000
 41
0.000000
 66
  1
  0
VERTEX
  8
gg1
 10
0.047000
 20
0.223200
  0
VERTEX
  8
gg1
 10
0.047000
 20
0.248200
  0
SEQEND
  8
gg1
  0
POLYLINE
  8
gg1
 62
1
 40
0.000000
 41
0.000000
 66
  1
  0
VERTEX
  8
gg1
 10
0.034500
 20
0.294700
  0
VERTEX
  8
gg1
 10
0.059500
 20
0.294700
  0
SEQEND
  8
gg1
  0
POLYLINE
  8
gg1
 62
1
 40
0.000000
 41
0.000000
 66
  1
  0
VERTEX
  8
gg1
 10
0.047000
 20
0.282200
  0
VERTEX
  8
gg1
 10
0.047000
 20
0.307200
  0
SEQEND
  8
gg1
  0
POLYLINE
  8
gg1
 62
1
 40
0.000000
 41
0.000000
 66
  1
  0
VERTEX
  8
gg1
 10
0.034500
 20
0.353800
  0
VERTEX
  8
gg1
 10
0.059500
 20
0.353800
  0
SEQEND
  8
gg1
  0
POLYLINE
  8
gg1
 62
1
 40
0.000000
 41
0.000000
 66
  1
  0
VERTEX
  8
gg1
 10
0.047000
 20
0.341300
  0
VERTEX
  8
gg1
 10
0.047000
 20
0.366300
  0
SEQEND
  8
gg1
  0
POLYLINE
  8
gg1
 62
1
 40
0.000000
 41
0.000000
 66
  1
  0
VERTEX
  8
gg1
 10
0.034500
 20
0.412800
  0
VERTEX
  8
gg1
 10
0.059500
 20
0.412800
  0
SEQEND
  8
gg1
  0
POLYLINE
  8
gg1
 62
1
 40
0.000000
 41
0.000000
 66
  1
  0
VERTEX
  8
gg1
 10
0.047000
 20
0.400300
  0
VERTEX
  8
gg1
 10
0.047000
 20
0.425300
  0
SEQEND
  8
gg1
  0
POLYLINE
  8
gg1
 62
1
 40
0.000000
 41
0.000000
 66
  1
  0
VERTEX
  8
gg1
 10
0.034500
 20
0.471900
  0
VERTEX
  8
gg1
 10
0.059500
 20
0.471900
  0
SEQEND
  8
gg1
  0
POLYLINE
  8
gg1
 62
1
 40
0.000000
 41
0.000000
 66
  1
  0
VERTEX
  8
gg1
 10
0.047000
 20
0.459400
  0
VERTEX
  8
gg1
 10
0.047000
 20
0.484400
  0
SEQEND
  8
gg1
  0
POLYLINE
  8
gg1
 62
1
 40
0.000000
 41
0.000000
 66
  1
  0
VERTEX
  8
gg1
 10
0.034500
 20
0.590000
  0
VERTEX
  8
gg1
 10
0.059500
 20
0.590000
  0
SEQEND
  8
gg1
  0
POLYLINE
  8
gg1
 62
1
 40
0.000000
 41
0.000000
 66
  1
  0
VERTEX
  8
gg1
 10
0.047000
 20
0.577500
  0
VERTEX
  8
gg1
 10
0.047000
 20
0.602500
  0
SEQEND
  8
gg1
  0
ENDSEC
  0
EOF
