  0
SECTION
  2
HEADER
  9
$EXTMIN
 10
-0.217000
 20
-0.297000
  9
$EXTMAX
 10
2.425000
 20
2.077000
  9
$LIMMIN
 10
-0.217000
 20
-0.297000
  9
$LIMMAX
 10
2.425000
 20
2.077000
  9
$FILLMODE
 70
  1
  0
ENDSEC
  0
SECTION
  2
TABLES
  0
TABLE
  2
LTYPE
 70
  1
  0
LTYPE
  2
CONTINUOUS
 70
 64
  3
Solid line
 72
 65
 73
  0
 40
0.0
  0
ENDTAB
  0
TABLE
  2
LAYER
 70
 1
  0
LAYER
  2
0
 70
  0
 62
7
  6
CONTINUOUS
  0
LAYER
  2
gg1
 70
  0
 62
1
  6
CONTINUOUS
  0
ENDTAB
  0
TABLE
  2
STYLE
 70
  1
  0
STYLE
  2
STANDARD
 70
  0
 40
0.0
 41
1.0
 50
0.0
 71
  0
 42
0.2
  3
txt
  4

  0
ENDTAB
  0
ENDSEC
  0
SECTION
  2
BLOCKS
  0
BLOCK
  8
0
  2
D10
 70
64
 10
0.0
 20
0.0
  3
D10
  0
CIRCLE
  8
0
 10
0.000000
 20
0.000000
 40
0.005000
 0
ENDBLK
  8
0
  0
BLOCK
  8
0
  2
D11
 70
64
 10
0.0
 20
0.0
  3
D11
  0
CIRCLE
  8
0
 10
0.000000
 20
0.000000
 40
0.003000
 0
ENDBLK
  8
0
  0
BLOCK
  8
0
  2
D12
 70
64
 10
0.0
 20
0.0
  3
D12
  0
CIRCLE
  8
0
 10
0.000000
 20
0.000000
 40
0.002500
 0
ENDBLK
  8
0
  0
ENDSEC
  0
SECTION
  2
ENTITIES
  0
POLYLINE
  8
gg1
 62
1
 40
0.000000
 41
0.000000
 66
  1
  0
VERTEX
  8
gg1
 10
0.705000
 20
0.815000
  0
VERTEX
  8
gg1
 10
0.705000
 20
0.815000
  0
VERTEX
  8
gg1
 10
0.705000
 20
0.815000
 42
1.000000
  0
VERTEX
  8
gg1
 10
1.155000
 20
0.815000
  0
VERTEX
  8
gg1
 10
1.155000
 20
0.815000
  0
SEQEND
  8
gg1
  0
POLYLINE
  8
gg1
 62
1
 40
0.000000
 41
0.000000
 66
  1
  0
VERTEX
  8
gg1
 10
1.155000
 20
1.330000
  0
VERTEX
  8
gg1
 10
1.155000
 20
1.330000
  0
VERTEX
  8
gg1
 10
1.155000
 20
1.330000
 42
1.000000
  0
VERTEX
  8
gg1
 10
0.705000
 20
1.330000
  0
VERTEX
  8
gg1
 10
0.705000
 20
1.330000
  0
SEQEND
  8
gg1
  0
POLYLINE
  8
gg1
 62
1
 40
0.000000
 41
0.000000
 66
  1
  0
VERTEX
  8
gg1
 10
1.155000
 20
0.815000
  0
VERTEX
  8
gg1
 10
1.155000
 20
1.330000
  0
SEQEND
  8
gg1
  0
POLYLINE
  8
gg1
 62
1
 40
0.000000
 41
0.000000
 66
  1
  0
VERTEX
  8
gg1
 10
0.705000
 20
0.815000
  0
VERTEX
  8
gg1
 10
0.705000
 20
1.330000
  0
SEQEND
  8
gg1
  0
POLYLINE
  8
gg1
 62
1
 40
0.000000
 41
0.000000
 66
  1
  0
VERTEX
  8
gg1
 10
0.280000
 20
0.000000
  0
VERTEX
  8
gg1
 10
0.280000
 20
0.350000
  0
SEQEND
  8
gg1
  0
POLYLINE
  8
gg1
 62
1
 40
0.000000
 41
0.000000
 66
  1
  0
VERTEX
  8
gg1
 10
1.580000
 20
0.000000
  0
VERTEX
  8
gg1
 10
1.860000
 20
0.000000
  0
SEQEND
  8
gg1
  0
POLYLINE
  8
gg1
 62
1
 40
0.000000
 41
0.000000
 66
  1
  0
VERTEX
  8
gg1
 10
1.580000
 20
0.000000
  0
VERTEX
  8
gg1
 10
1.580000
 20
0.350000
  0
SEQEND
  8
gg1
  0
POLYLINE
  8
gg1
 62
1
 40
0.000000
 41
0.000000
 66
  1
  0
VERTEX
  8
gg1
 10
0.280000
 20
0.350000
  0
VERTEX
  8
gg1
 10
1.580000
 20
0.350000
  0
SEQEND
  8
gg1
  0
POLYLINE
  8
gg1
 62
1
 40
0.000000
 41
0.000000
 66
  1
  0
VERTEX
  8
gg1
 10
0.000000
 20
0.000000
  0
VERTEX
  8
gg1
 10
0.280000
 20
0.000000
  0
SEQEND
  8
gg1
  0
POLYLINE
  8
gg1
 62
1
 40
0.000000
 41
0.000000
 66
  1
  0
VERTEX
  8
gg1
 10
1.860000
 20
0.000000
  0
VERTEX
  8
gg1
 10
1.860000
 20
1.860000
  0
SEQEND
  8
gg1
  0
POLYLINE
  8
gg1
 62
1
 40
0.000000
 41
0.000000
 66
  1
  0
VERTEX
  8
gg1
 10
0.000000
 20
1.860000
  0
VERTEX
  8
gg1
 10
1.860000
 20
1.860000
  0
SEQEND
  8
gg1
  0
POLYLINE
  8
gg1
 62
1
 40
0.000000
 41
0.000000
 66
  1
  0
VERTEX
  8
gg1
 10
0.000000
 20
0.000000
  0
VERTEX
  8
gg1
 10
0.000000
 20
1.860000
  0
SEQEND
  8
gg1
  0
POLYLINE
  8
gg1
 62
1
 40
0.000000
 41
0.000000
 66
  1
  0
VERTEX
  8
gg1
 10
0.705000
 20
0.815000
  0
VERTEX
  8
gg1
 10
0.705000
 20
0.815000
  0
VERTEX
  8
gg1
 10
0.705000
 20
0.815000
 42
1.000000
  0
VERTEX
  8
gg1
 10
1.155000
 20
0.815000
  0
VERTEX
  8
gg1
 10
1.155000
 20
0.815000
  0
SEQEND
  8
gg1
  0
POLYLINE
  8
gg1
 62
1
 40
0.000000
 41
0.000000
 66
  1
  0
VERTEX
  8
gg1
 10
1.155000
 20
1.330000
  0
VERTEX
  8
gg1
 10
1.155000
 20
1.330000
  0
VERTEX
  8
gg1
 10
1.155000
 20
1.330000
 42
1.000000
  0
VERTEX
  8
gg1
 10
0.705000
 20
1.330000
  0
VERTEX
  8
gg1
 10
0.705000
 20
1.330000
  0
SEQEND
  8
gg1
  0
POLYLINE
  8
gg1
 62
1
 40
0.000000
 41
0.000000
 66
  1
  0
VERTEX
  8
gg1
 10
1.155000
 20
0.210000
  0
VERTEX
  8
gg1
 10
1.155000
 20
0.800000
  0
SEQEND
  8
gg1
  0
POLYLINE
  8
gg1
 62
1
 40
0.000000
 41
0.000000
 66
  1
  0
VERTEX
  8
gg1
 10
0.705000
 20
0.210000
  0
VERTEX
  8
gg1
 10
0.705000
 20
0.800000
  0
SEQEND
  8
gg1
  0
POLYLINE
  8
gg1
 62
1
 40
0.000000
 41
0.000000
 66
  1
  0
VERTEX
  8
gg1
 10
1.084900
 20
0.220000
  0
VERTEX
  8
gg1
 10
1.155000
 20
0.220000
  0
SEQEND
  8
gg1
  0
POLYLINE
  8
gg1
 62
1
 40
0.000000
 41
0.000000
 66
  1
  0
VERTEX
  8
gg1
 10
0.705000
 20
0.220000
  0
VERTEX
  8
gg1
 10
0.743000
 20
0.220000
  0
SEQEND
  8
gg1
  0
POLYLINE
  8
gg1
 62
1
 40
0.000000
 41
0.000000
 66
  1
  0
VERTEX
  8
gg1
 10
1.095000
 20
0.240000
  0
VERTEX
  8
gg1
 10
1.155000
 20
0.220000
  0
SEQEND
  8
gg1
  0
POLYLINE
  8
gg1
 62
1
 40
0.000000
 41
0.000000
 66
  1
  0
VERTEX
  8
gg1
 10
1.095000
 20
0.200000
  0
VERTEX
  8
gg1
 10
1.155000
 20
0.220000
  0
SEQEND
  8
gg1
  0
POLYLINE
  8
gg1
 62
1
 40
0.000000
 41
0.000000
 66
  1
  0
VERTEX
  8
gg1
 10
0.705000
 20
0.220000
  0
VERTEX
  8
gg1
 10
0.765000
 20
0.200000
  0
SEQEND
  8
gg1
  0
POLYLINE
  8
gg1
 62
1
 40
0.000000
 41
0.000000
 66
  1
  0
VERTEX
  8
gg1
 10
0.705000
 20
0.220000
  0
VERTEX
  8
gg1
 10
0.765000
 20
0.240000
  0
SEQEND
  8
gg1
  0
POLYLINE
  8
gg1
 62
1
 40
0.000000
 41
0.000000
 66
  1
  0
VERTEX
  8
gg1
 10
0.945000
 20
1.555000
  0
VERTEX
  8
gg1
 10
2.060000
 20
1.555000
  0
SEQEND
  8
gg1
  0
POLYLINE
  8
gg1
 62
1
 40
0.000000
 41
0.000000
 66
  1
  0
VERTEX
  8
gg1
 10
0.945000
 20
0.590000
  0
VERTEX
  8
gg1
 10
2.060000
 20
0.590000
  0
SEQEND
  8
gg1
  0
POLYLINE
  8
gg1
 62
1
 40
0.000000
 41
0.000000
 66
  1
  0
VERTEX
  8
gg1
 10
2.050000
 20
1.227500
  0
VERTEX
  8
gg1
 10
2.050000
 20
1.555000
  0
SEQEND
  8
gg1
  0
POLYLINE
  8
gg1
 62
1
 40
0.000000
 41
0.000000
 66
  1
  0
VERTEX
  8
gg1
 10
2.050000
 20
0.590000
  0
VERTEX
  8
gg1
 10
2.050000
 20
0.885600
  0
SEQEND
  8
gg1
  0
POLYLINE
  8
gg1
 62
1
 40
0.000000
 41
0.000000
 66
  1
  0
VERTEX
  8
gg1
 10
2.030000
 20
1.495000
  0
VERTEX
  8
gg1
 10
2.050000
 20
1.555000
  0
VERTEX
  8
gg1
 10
2.070000
 20
1.495000
  0
SEQEND
  8
gg1
  0
POLYLINE
  8
gg1
 62
1
 40
0.000000
 41
0.000000
 66
  1
  0
VERTEX
  8
gg1
 10
2.050000
 20
0.590000
  0
VERTEX
  8
gg1
 10
2.070000
 20
0.650000
  0
SEQEND
  8
gg1
  0
POLYLINE
  8
gg1
 62
1
 40
0.000000
 41
0.000000
 66
  1
  0
VERTEX
  8
gg1
 10
2.030000
 20
0.650000
  0
VERTEX
  8
gg1
 10
2.050000
 20
0.590000
  0
SEQEND
  8
gg1
  0
POLYLINE
  8
gg1
 62
1
 40
0.000000
 41
0.000000
 66
  1
  0
VERTEX
  8
gg1
 10
1.363400
 20
1.763400
  0
VERTEX
  8
gg1
 10
1.981800
 20
1.763400
  0
SEQEND
  8
gg1
  0
POLYLINE
  8
gg1
 62
1
 40
0.000000
 41
0.000000
 66
  1
  0
VERTEX
  8
gg1
 10
1.089100
 20
1.489100
  0
VERTEX
  8
gg1
 10
1.363400
 20
1.763400
  0
SEQEND
  8
gg1
  0
POLYLINE
  8
gg1
 62
1
 40
0.000000
 41
0.000000
 66
  1
  0
VERTEX
  8
gg1
 10
1.089100
 20
1.489100
  0
VERTEX
  8
gg1
 10
1.145700
 20
1.517400
  0
SEQEND
  8
gg1
  0
POLYLINE
  8
gg1
 62
1
 40
0.000000
 41
0.000000
 66
  1
  0
VERTEX
  8
gg1
 10
1.089100
 20
1.489100
  0
VERTEX
  8
gg1
 10
1.117400
 20
1.545700
  0
SEQEND
  8
gg1
  0
POLYLINE
  8
gg1
 62
1
 40
0.000000
 41
0.000000
 66
  1
  0
VERTEX
  8
gg1
 10
1.580000
 20
-0.150000
  0
VERTEX
  8
gg1
 10
1.580000
 20
-0.015000
  0
SEQEND
  8
gg1
  0
POLYLINE
  8
gg1
 62
1
 40
0.000000
 41
0.000000
 66
  1
  0
VERTEX
  8
gg1
 10
1.860000
 20
-0.150000
  0
VERTEX
  8
gg1
 10
1.860000
 20
-0.015000
  0
SEQEND
  8
gg1
  0
POLYLINE
  8
gg1
 62
1
 40
0.000000
 41
0.000000
 66
  1
  0
VERTEX
  8
gg1
 10
1.860000
 20
-0.140000
  0
VERTEX
  8
gg1
 10
1.960000
 20
-0.140000
  0
SEQEND
  8
gg1
  0
POLYLINE
  8
gg1
 62
1
 40
0.000000
 41
0.000000
 66
  1
  0
VERTEX
  8
gg1
 10
1.480000
 20
-0.140000
  0
VERTEX
  8
gg1
 10
1.580000
 20
-0.140000
  0
SEQEND
  8
gg1
  0
POLYLINE
  8
gg1
 62
1
 40
0.000000
 41
0.000000
 66
  1
  0
VERTEX
  8
gg1
 10
1.860000
 20
-0.140000
  0
VERTEX
  8
gg1
 10
1.920000
 20
-0.160000
  0
SEQEND
  8
gg1
  0
POLYLINE
  8
gg1
 62
1
 40
0.000000
 41
0.000000
 66
  1
  0
VERTEX
  8
gg1
 10
1.860000
 20
-0.140000
  0
VERTEX
  8
gg1
 10
1.920000
 20
-0.120000
  0
SEQEND
  8
gg1
  0
POLYLINE
  8
gg1
 62
1
 40
0.000000
 41
0.000000
 66
  1
  0
VERTEX
  8
gg1
 10
1.520000
 20
-0.120000
  0
VERTEX
  8
gg1
 10
1.580000
 20
-0.140000
  0
SEQEND
  8
gg1
  0
POLYLINE
  8
gg1
 62
1
 40
0.000000
 41
0.000000
 66
  1
  0
VERTEX
  8
gg1
 10
1.520000
 20
-0.160000
  0
VERTEX
  8
gg1
 10
1.580000
 20
-0.140000
  0
SEQEND
  8
gg1
  0
POLYLINE
  8
gg1
 62
1
 40
0.000000
 41
0.000000
 66
  1
  0
VERTEX
  8
gg1
 10
0.280000
 20
-0.160000
  0
VERTEX
  8
gg1
 10
0.280000
 20
-0.015000
  0
SEQEND
  8
gg1
  0
POLYLINE
  8
gg1
 62
1
 40
0.000000
 41
0.000000
 66
  1
  0
VERTEX
  8
gg1
 10
0.000000
 20
-0.160000
  0
VERTEX
  8
gg1
 10
0.000000
 20
-0.015000
  0
SEQEND
  8
gg1
  0
POLYLINE
  8
gg1
 62
1
 40
0.000000
 41
0.000000
 66
  1
  0
VERTEX
  8
gg1
 10
-0.100000
 20
-0.150000
  0
VERTEX
  8
gg1
 10
0.000000
 20
-0.150000
  0
SEQEND
  8
gg1
  0
POLYLINE
  8
gg1
 62
1
 40
0.000000
 41
0.000000
 66
  1
  0
VERTEX
  8
gg1
 10
0.280000
 20
-0.150000
  0
VERTEX
  8
gg1
 10
0.380000
 20
-0.150000
  0
SEQEND
  8
gg1
  0
POLYLINE
  8
gg1
 62
1
 40
0.000000
 41
0.000000
 66
  1
  0
VERTEX
  8
gg1
 10
-0.060000
 20
-0.130000
  0
VERTEX
  8
gg1
 10
0.000000
 20
-0.150000
  0
SEQEND
  8
gg1
  0
POLYLINE
  8
gg1
 62
1
 40
0.000000
 41
0.000000
 66
  1
  0
VERTEX
  8
gg1
 10
-0.060000
 20
-0.170000
  0
VERTEX
  8
gg1
 10
0.000000
 20
-0.150000
  0
SEQEND
  8
gg1
  0
POLYLINE
  8
gg1
 62
1
 40
0.000000
 41
0.000000
 66
  1
  0
VERTEX
  8
gg1
 10
0.280000
 20
-0.150000
  0
VERTEX
  8
gg1
 10
0.340000
 20
-0.170000
  0
SEQEND
  8
gg1
  0
POLYLINE
  8
gg1
 62
1
 40
0.000000
 41
0.000000
 66
  1
  0
VERTEX
  8
gg1
 10
0.280000
 20
-0.150000
  0
VERTEX
  8
gg1
 10
0.340000
 20
-0.130000
  0
SEQEND
  8
gg1
  0
POLYLINE
  8
gg1
 62
1
 40
0.000000
 41
0.000000
 66
  1
  0
VERTEX
  8
gg1
 10
0.295000
 20
0.350000
  0
VERTEX
  8
gg1
 10
0.360000
 20
0.350000
  0
SEQEND
  8
gg1
  0
POLYLINE
  8
gg1
 62
1
 40
0.000000
 41
0.000000
 66
  1
  0
VERTEX
  8
gg1
 10
0.295000
 20
0.000000
  0
VERTEX
  8
gg1
 10
0.360000
 20
0.000000
  0
SEQEND
  8
gg1
  0
POLYLINE
  8
gg1
 62
1
 40
0.000000
 41
0.000000
 66
  1
  0
VERTEX
  8
gg1
 10
0.350000
 20
-0.100000
  0
VERTEX
  8
gg1
 10
0.350000
 20
0.000000
  0
SEQEND
  8
gg1
  0
POLYLINE
  8
gg1
 62
1
 40
0.000000
 41
0.000000
 66
  1
  0
VERTEX
  8
gg1
 10
0.350000
 20
0.350000
  0
VERTEX
  8
gg1
 10
0.350000
 20
0.450000
  0
SEQEND
  8
gg1
  0
POLYLINE
  8
gg1
 62
1
 40
0.000000
 41
0.000000
 66
  1
  0
VERTEX
  8
gg1
 10
0.330000
 20
-0.060000
  0
VERTEX
  8
gg1
 10
0.350000
 20
0.000000
  0
VERTEX
  8
gg1
 10
0.370000
 20
-0.060000
  0
SEQEND
  8
gg1
  0
POLYLINE
  8
gg1
 62
1
 40
0.000000
 41
0.000000
 66
  1
  0
VERTEX
  8
gg1
 10
0.350000
 20
0.350000
  0
VERTEX
  8
gg1
 10
0.370000
 20
0.410000
  0
SEQEND
  8
gg1
  0
POLYLINE
  8
gg1
 62
1
 40
0.000000
 41
0.000000
 66
  1
  0
VERTEX
  8
gg1
 10
0.330000
 20
0.410000
  0
VERTEX
  8
gg1
 10
0.350000
 20
0.350000
  0
SEQEND
  8
gg1
  0
POLYLINE
  8
gg1
 62
1
 40
0.000000
 41
0.000000
 66
  1
  0
VERTEX
  8
gg1
 10
1.860000
 20
1.875000
  0
VERTEX
  8
gg1
 10
1.860000
 20
2.060000
  0
SEQEND
  8
gg1
  0
POLYLINE
  8
gg1
 62
1
 40
0.000000
 41
0.000000
 66
  1
  0
VERTEX
  8
gg1
 10
0.000000
 20
1.875000
  0
VERTEX
  8
gg1
 10
0.000000
 20
2.060000
  0
SEQEND
  8
gg1
  0
POLYLINE
  8
gg1
 62
1
 40
0.000000
 41
0.000000
 66
  1
  0
VERTEX
  8
gg1
 10
1.109900
 20
2.050000
  0
VERTEX
  8
gg1
 10
1.860000
 20
2.050000
  0
SEQEND
  8
gg1
  0
POLYLINE
  8
gg1
 62
1
 40
0.000000
 41
0.000000
 66
  1
  0
VERTEX
  8
gg1
 10
0.000000
 20
2.050000
  0
VERTEX
  8
gg1
 10
0.718100
 20
2.050000
  0
SEQEND
  8
gg1
  0
POLYLINE
  8
gg1
 62
1
 40
0.000000
 41
0.000000
 66
  1
  0
VERTEX
  8
gg1
 10
1.800000
 20
2.070000
  0
VERTEX
  8
gg1
 10
1.860000
 20
2.050000
  0
SEQEND
  8
gg1
  0
POLYLINE
  8
gg1
 62
1
 40
0.000000
 41
0.000000
 66
  1
  0
VERTEX
  8
gg1
 10
1.800000
 20
2.030000
  0
VERTEX
  8
gg1
 10
1.860000
 20
2.050000
  0
SEQEND
  8
gg1
  0
POLYLINE
  8
gg1
 62
1
 40
0.000000
 41
0.000000
 66
  1
  0
VERTEX
  8
gg1
 10
0.000000
 20
2.050000
  0
VERTEX
  8
gg1
 10
0.060000
 20
2.030000
  0
SEQEND
  8
gg1
  0
POLYLINE
  8
gg1
 62
1
 40
0.000000
 41
0.000000
 66
  1
  0
VERTEX
  8
gg1
 10
0.000000
 20
2.050000
  0
VERTEX
  8
gg1
 10
0.060000
 20
2.070000
  0
SEQEND
  8
gg1
  0
POLYLINE
  8
gg1
 62
1
 40
0.000000
 41
0.000000
 66
  1
  0
VERTEX
  8
gg1
 10
-0.200000
 20
1.860000
  0
VERTEX
  8
gg1
 10
-0.015000
 20
1.860000
  0
SEQEND
  8
gg1
  0
POLYLINE
  8
gg1
 62
1
 40
0.000000
 41
0.000000
 66
  1
  0
VERTEX
  8
gg1
 10
-0.200000
 20
0.000000
  0
VERTEX
  8
gg1
 10
-0.015000
 20
0.000000
  0
SEQEND
  8
gg1
  0
POLYLINE
  8
gg1
 62
1
 40
0.000000
 41
0.000000
 66
  1
  0
VERTEX
  8
gg1
 10
-0.190000
 20
1.109900
  0
VERTEX
  8
gg1
 10
-0.190000
 20
1.860000
  0
SEQEND
  8
gg1
  0
POLYLINE
  8
gg1
 62
1
 40
0.000000
 41
0.000000
 66
  1
  0
VERTEX
  8
gg1
 10
-0.190000
 20
0.000000
  0
VERTEX
  8
gg1
 10
-0.190000
 20
0.718100
  0
SEQEND
  8
gg1
  0
POLYLINE
  8
gg1
 62
1
 40
0.000000
 41
0.000000
 66
  1
  0
VERTEX
  8
gg1
 10
-0.210000
 20
1.800000
  0
VERTEX
  8
gg1
 10
-0.190000
 20
1.860000
  0
VERTEX
  8
gg1
 10
-0.170000
 20
1.800000
  0
SEQEND
  8
gg1
  0
POLYLINE
  8
gg1
 62
1
 40
0.000000
 41
0.000000
 66
  1
  0
VERTEX
  8
gg1
 10
-0.190000
 20
0.000000
  0
VERTEX
  8
gg1
 10
-0.170000
 20
0.060000
  0
SEQEND
  8
gg1
  0
POLYLINE
  8
gg1
 62
1
 40
0.000000
 41
0.000000
 66
  1
  0
VERTEX
  8
gg1
 10
-0.210000
 20
0.060000
  0
VERTEX
  8
gg1
 10
-0.190000
 20
0.000000
  0
SEQEND
  8
gg1
  0
POLYLINE
  8
gg1
 62
1
 40
0.000000
 41
0.000000
 66
  1
  0
VERTEX
  8
gg1
 10
1.155000
 20
0.815000
  0
VERTEX
  8
gg1
 10
1.155000
 20
1.330000
  0
SEQEND
  8
gg1
  0
POLYLINE
  8
gg1
 62
1
 40
0.000000
 41
0.000000
 66
  1
  0
VERTEX
  8
gg1
 10
0.705000
 20
0.815000
  0
VERTEX
  8
gg1
 10
0.705000
 20
1.330000
  0
SEQEND
  8
gg1
  0
POLYLINE
  8
gg1
 62
1
 40
0.000000
 41
0.000000
 66
  1
  0
VERTEX
  8
gg1
 10
0.280000
 20
0.000000
  0
VERTEX
  8
gg1
 10
0.280000
 20
0.350000
  0
SEQEND
  8
gg1
  0
POLYLINE
  8
gg1
 62
1
 40
0.000000
 41
0.000000
 66
  1
  0
VERTEX
  8
gg1
 10
1.580000
 20
0.000000
  0
VERTEX
  8
gg1
 10
1.860000
 20
0.000000
  0
SEQEND
  8
gg1
  0
POLYLINE
  8
gg1
 62
1
 40
0.000000
 41
0.000000
 66
  1
  0
VERTEX
  8
gg1
 10
1.580000
 20
0.000000
  0
VERTEX
  8
gg1
 10
1.580000
 20
0.350000
  0
SEQEND
  8
gg1
  0
POLYLINE
  8
gg1
 62
1
 40
0.000000
 41
0.000000
 66
  1
  0
VERTEX
  8
gg1
 10
0.280000
 20
0.350000
  0
VERTEX
  8
gg1
 10
1.580000
 20
0.350000
  0
SEQEND
  8
gg1
  0
POLYLINE
  8
gg1
 62
1
 40
0.000000
 41
0.000000
 66
  1
  0
VERTEX
  8
gg1
 10
0.000000
 20
0.000000
  0
VERTEX
  8
gg1
 10
0.280000
 20
0.000000
  0
SEQEND
  8
gg1
  0
POLYLINE
  8
gg1
 62
1
 40
0.000000
 41
0.000000
 66
  1
  0
VERTEX
  8
gg1
 10
1.860000
 20
0.000000
  0
VERTEX
  8
gg1
 10
1.860000
 20
1.860000
  0
SEQEND
  8
gg1
  0
POLYLINE
  8
gg1
 62
1
 40
0.000000
 41
0.000000
 66
  1
  0
VERTEX
  8
gg1
 10
0.000000
 20
1.860000
  0
VERTEX
  8
gg1
 10
1.860000
 20
1.860000
  0
SEQEND
  8
gg1
  0
POLYLINE
  8
gg1
 62
1
 40
0.000000
 41
0.000000
 66
  1
  0
VERTEX
  8
gg1
 10
0.000000
 20
0.000000
  0
VERTEX
  8
gg1
 10
0.000000
 20
1.860000
  0
SEQEND
  8
gg1
  0
POLYLINE
  8
gg1
 62
1
 40
0.000000
 41
0.000000
 66
  1
  0
VERTEX
  8
gg1
 10
0.789000
 20
0.184000
  0
VERTEX
  8
gg1
 10
0.789000
 20
0.244000
  0
VERTEX
  8
gg1
 10
0.759100
 20
0.214000
  0
VERTEX
  8
gg1
 10
0.799000
 20
0.214000
  0
SEQEND
  8
gg1
  0
POLYLINE
  8
gg1
 62
1
 40
0.000000
 41
0.000000
 66
  1
  0
VERTEX
  8
gg1
 10
0.859000
 20
0.244000
  0
VERTEX
  8
gg1
 10
0.819000
 20
0.244000
  0
VERTEX
  8
gg1
 10
0.819000
 20
0.214000
  0
VERTEX
  8
gg1
 10
0.839000
 20
0.224000
  0
VERTEX
  8
gg1
 10
0.849000
 20
0.224000
  0
VERTEX
  8
gg1
 10
0.859000
 20
0.214000
  0
VERTEX
  8
gg1
 10
0.859000
 20
0.194000
  0
VERTEX
  8
gg1
 10
0.849000
 20
0.184000
  0
VERTEX
  8
gg1
 10
0.829000
 20
0.184000
  0
VERTEX
  8
gg1
 10
0.819000
 20
0.194000
  0
SEQEND
  8
gg1
  0
POLYLINE
  8
gg1
 62
1
 40
0.000000
 41
0.000000
 66
  1
  0
VERTEX
  8
gg1
 10
0.879000
 20
0.234000
  0
VERTEX
  8
gg1
 10
0.889000
 20
0.244000
  0
VERTEX
  8
gg1
 10
0.909000
 20
0.244000
  0
VERTEX
  8
gg1
 10
0.919000
 20
0.234000
  0
VERTEX
  8
gg1
 10
0.919000
 20
0.194000
  0
VERTEX
  8
gg1
 10
0.909000
 20
0.184000
  0
VERTEX
  8
gg1
 10
0.889000
 20
0.184000
  0
VERTEX
  8
gg1
 10
0.879000
 20
0.194000
  0
VERTEX
  8
gg1
 10
0.879000
 20
0.234000
  0
SEQEND
  8
gg1
  0
POLYLINE
  8
gg1
 62
1
 40
0.000000
 41
0.000000
 66
  1
  0
VERTEX
  8
gg1
 10
0.939000
 20
0.184000
  0
VERTEX
  8
gg1
 10
0.939000
 20
0.224000
  0
VERTEX
  8
gg1
 10
0.949000
 20
0.224000
  0
VERTEX
  8
gg1
 10
0.959000
 20
0.214000
  0
VERTEX
  8
gg1
 10
0.959000
 20
0.184000
  0
VERTEX
  8
gg1
 10
0.959000
 20
0.214000
  0
VERTEX
  8
gg1
 10
0.969000
 20
0.224000
  0
VERTEX
  8
gg1
 10
0.979000
 20
0.214000
  0
VERTEX
  8
gg1
 10
0.979000
 20
0.184000
  0
SEQEND
  8
gg1
  0
POLYLINE
  8
gg1
 62
1
 40
0.000000
 41
0.000000
 66
  1
  0
VERTEX
  8
gg1
 10
0.999000
 20
0.184000
  0
VERTEX
  8
gg1
 10
1.019000
 20
0.184000
  0
VERTEX
  8
gg1
 10
1.009000
 20
0.184000
  0
VERTEX
  8
gg1
 10
1.009000
 20
0.224000
  0
VERTEX
  8
gg1
 10
0.999000
 20
0.224000
  0
SEQEND
  8
gg1
  0
POLYLINE
  8
gg1
 62
1
 40
0.000000
 41
0.000000
 66
  1
  0
VERTEX
  8
gg1
 10
1.049000
 20
0.184000
  0
VERTEX
  8
gg1
 10
1.069000
 20
0.184000
  0
VERTEX
  8
gg1
 10
1.059000
 20
0.184000
  0
VERTEX
  8
gg1
 10
1.059000
 20
0.244000
  0
VERTEX
  8
gg1
 10
1.049000
 20
0.244000
  0
SEQEND
  8
gg1
  0
POLYLINE
  8
gg1
 62
1
 40
0.000000
 41
0.000000
 66
  1
  0
VERTEX
  8
gg1
 10
2.076000
 20
0.901500
  0
VERTEX
  8
gg1
 10
2.086000
 20
0.911500
  0
VERTEX
  8
gg1
 10
2.086000
 20
0.931500
  0
VERTEX
  8
gg1
 10
2.076000
 20
0.941500
  0
VERTEX
  8
gg1
 10
2.036000
 20
0.941500
  0
VERTEX
  8
gg1
 10
2.026000
 20
0.931500
  0
VERTEX
  8
gg1
 10
2.026000
 20
0.911500
  0
VERTEX
  8
gg1
 10
2.036000
 20
0.901500
  0
VERTEX
  8
gg1
 10
2.046000
 20
0.901500
  0
VERTEX
  8
gg1
 10
2.056000
 20
0.911500
  0
VERTEX
  8
gg1
 10
2.056000
 20
0.941500
  0
SEQEND
  8
gg1
  0
POLYLINE
  8
gg1
 62
1
 40
0.000000
 41
0.000000
 66
  1
  0
VERTEX
  8
gg1
 10
2.026000
 20
1.001500
  0
VERTEX
  8
gg1
 10
2.036000
 20
0.981500
  0
VERTEX
  8
gg1
 10
2.056000
 20
0.961500
  0
VERTEX
  8
gg1
 10
2.076000
 20
0.961500
  0
VERTEX
  8
gg1
 10
2.086000
 20
0.971500
  0
VERTEX
  8
gg1
 10
2.086000
 20
0.991500
  0
VERTEX
  8
gg1
 10
2.076000
 20
1.001500
  0
VERTEX
  8
gg1
 10
2.066000
 20
1.001500
  0
VERTEX
  8
gg1
 10
2.056000
 20
0.991500
  0
VERTEX
  8
gg1
 10
2.056000
 20
0.961500
  0
SEQEND
  8
gg1
  0
POLYLINE
  8
gg1
 62
1
 40
0.000000
 41
0.000000
 66
  1
  0
VERTEX
  8
gg1
 10
2.026000
 20
1.061500
  0
VERTEX
  8
gg1
 10
2.026000
 20
1.021500
  0
VERTEX
  8
gg1
 10
2.056000
 20
1.021500
  0
VERTEX
  8
gg1
 10
2.046000
 20
1.041500
  0
VERTEX
  8
gg1
 10
2.046000
 20
1.051500
  0
VERTEX
  8
gg1
 10
2.056000
 20
1.061500
  0
VERTEX
  8
gg1
 10
2.076000
 20
1.061500
  0
VERTEX
  8
gg1
 10
2.086000
 20
1.051500
  0
VERTEX
  8
gg1
 10
2.086000
 20
1.031500
  0
VERTEX
  8
gg1
 10
2.076000
 20
1.021500
  0
SEQEND
  8
gg1
  0
POLYLINE
  8
gg1
 62
1
 40
0.000000
 41
0.000000
 66
  1
  0
VERTEX
  8
gg1
 10
2.086000
 20
1.081500
  0
VERTEX
  8
gg1
 10
2.046000
 20
1.081500
  0
VERTEX
  8
gg1
 10
2.046000
 20
1.091500
  0
VERTEX
  8
gg1
 10
2.056000
 20
1.101500
  0
VERTEX
  8
gg1
 10
2.086000
 20
1.101500
  0
VERTEX
  8
gg1
 10
2.056000
 20
1.101500
  0
VERTEX
  8
gg1
 10
2.046000
 20
1.111500
  0
VERTEX
  8
gg1
 10
2.056000
 20
1.121500
  0
VERTEX
  8
gg1
 10
2.086000
 20
1.121500
  0
SEQEND
  8
gg1
  0
POLYLINE
  8
gg1
 62
1
 40
0.000000
 41
0.000000
 66
  1
  0
VERTEX
  8
gg1
 10
2.086000
 20
1.141500
  0
VERTEX
  8
gg1
 10
2.086000
 20
1.161500
  0
VERTEX
  8
gg1
 10
2.086000
 20
1.151500
  0
VERTEX
  8
gg1
 10
2.046000
 20
1.151500
  0
VERTEX
  8
gg1
 10
2.046000
 20
1.141500
  0
SEQEND
  8
gg1
  0
POLYLINE
  8
gg1
 62
1
 40
0.000000
 41
0.000000
 66
  1
  0
VERTEX
  8
gg1
 10
2.086000
 20
1.191500
  0
VERTEX
  8
gg1
 10
2.086000
 20
1.211400
  0
VERTEX
  8
gg1
 10
2.086000
 20
1.201500
  0
VERTEX
  8
gg1
 10
2.026000
 20
1.201500
  0
VERTEX
  8
gg1
 10
2.026000
 20
1.191500
  0
SEQEND
  8
gg1
  0
POLYLINE
  8
gg1
 62
1
 40
0.000000
 41
0.000000
 66
  1
  0
VERTEX
  8
gg1
 10
1.991800
 20
1.727400
  0
VERTEX
  8
gg1
 10
1.991800
 20
1.787400
  0
VERTEX
  8
gg1
 10
2.021700
 20
1.787400
  0
VERTEX
  8
gg1
 10
2.031700
 20
1.777400
  0
VERTEX
  8
gg1
 10
2.031700
 20
1.757400
  0
VERTEX
  8
gg1
 10
2.021700
 20
1.747400
  0
VERTEX
  8
gg1
 10
1.991800
 20
1.747400
  0
SEQEND
  8
gg1
  0
POLYLINE
  8
gg1
 62
1
 40
0.000000
 41
0.000000
 66
  1
  0
VERTEX
  8
gg1
 10
2.011800
 20
1.747400
  0
VERTEX
  8
gg1
 10
2.031700
 20
1.727400
  0
SEQEND
  8
gg1
  0
POLYLINE
  8
gg1
 62
1
 40
0.000000
 41
0.000000
 66
  1
  0
VERTEX
  8
gg1
 10
2.151700
 20
1.727400
  0
VERTEX
  8
gg1
 10
2.111700
 20
1.727400
  0
VERTEX
  8
gg1
 10
2.151700
 20
1.767400
  0
VERTEX
  8
gg1
 10
2.151700
 20
1.777400
  0
VERTEX
  8
gg1
 10
2.141700
 20
1.787400
  0
VERTEX
  8
gg1
 10
2.121700
 20
1.787400
  0
VERTEX
  8
gg1
 10
2.111700
 20
1.777400
  0
SEQEND
  8
gg1
  0
POLYLINE
  8
gg1
 62
1
 40
0.000000
 41
0.000000
 66
  1
  0
VERTEX
  8
gg1
 10
2.211700
 20
1.727400
  0
VERTEX
  8
gg1
 10
2.171700
 20
1.727400
  0
VERTEX
  8
gg1
 10
2.211700
 20
1.767400
  0
VERTEX
  8
gg1
 10
2.211700
 20
1.777400
  0
VERTEX
  8
gg1
 10
2.201700
 20
1.787400
  0
VERTEX
  8
gg1
 10
2.181700
 20
1.787400
  0
VERTEX
  8
gg1
 10
2.171700
 20
1.777400
  0
SEQEND
  8
gg1
  0
POLYLINE
  8
gg1
 62
1
 40
0.000000
 41
0.000000
 66
  1
  0
VERTEX
  8
gg1
 10
2.271700
 20
1.787400
  0
VERTEX
  8
gg1
 10
2.231700
 20
1.787400
  0
VERTEX
  8
gg1
 10
2.231700
 20
1.757400
  0
VERTEX
  8
gg1
 10
2.251700
 20
1.767400
  0
VERTEX
  8
gg1
 10
2.261700
 20
1.767400
  0
VERTEX
  8
gg1
 10
2.271700
 20
1.757400
  0
VERTEX
  8
gg1
 10
2.271700
 20
1.737400
  0
VERTEX
  8
gg1
 10
2.261700
 20
1.727400
  0
VERTEX
  8
gg1
 10
2.241700
 20
1.727400
  0
VERTEX
  8
gg1
 10
2.231700
 20
1.737400
  0
SEQEND
  8
gg1
  0
POLYLINE
  8
gg1
 62
1
 40
0.000000
 41
0.000000
 66
  1
  0
VERTEX
  8
gg1
 10
2.291700
 20
1.727400
  0
VERTEX
  8
gg1
 10
2.291700
 20
1.767400
  0
VERTEX
  8
gg1
 10
2.301700
 20
1.767400
  0
VERTEX
  8
gg1
 10
2.311700
 20
1.757400
  0
VERTEX
  8
gg1
 10
2.311700
 20
1.727400
  0
VERTEX
  8
gg1
 10
2.311700
 20
1.757400
  0
VERTEX
  8
gg1
 10
2.321700
 20
1.767400
  0
VERTEX
  8
gg1
 10
2.331600
 20
1.757400
  0
VERTEX
  8
gg1
 10
2.331600
 20
1.727400
  0
SEQEND
  8
gg1
  0
POLYLINE
  8
gg1
 62
1
 40
0.000000
 41
0.000000
 66
  1
  0
VERTEX
  8
gg1
 10
2.351600
 20
1.727400
  0
VERTEX
  8
gg1
 10
2.371600
 20
1.727400
  0
VERTEX
  8
gg1
 10
2.361600
 20
1.727400
  0
VERTEX
  8
gg1
 10
2.361600
 20
1.767400
  0
VERTEX
  8
gg1
 10
2.351600
 20
1.767400
  0
SEQEND
  8
gg1
  0
POLYLINE
  8
gg1
 62
1
 40
0.000000
 41
0.000000
 66
  1
  0
VERTEX
  8
gg1
 10
2.401600
 20
1.727400
  0
VERTEX
  8
gg1
 10
2.421600
 20
1.727400
  0
VERTEX
  8
gg1
 10
2.411600
 20
1.727400
  0
VERTEX
  8
gg1
 10
2.411600
 20
1.787400
  0
VERTEX
  8
gg1
 10
2.401600
 20
1.787400
  0
SEQEND
  8
gg1
  0
POLYLINE
  8
gg1
 62
1
 40
0.000000
 41
0.000000
 66
  1
  0
VERTEX
  8
gg1
 10
1.589000
 20
-0.284000
  0
VERTEX
  8
gg1
 10
1.549000
 20
-0.284000
  0
VERTEX
  8
gg1
 10
1.589000
 20
-0.244000
  0
VERTEX
  8
gg1
 10
1.589000
 20
-0.234000
  0
VERTEX
  8
gg1
 10
1.579000
 20
-0.224000
  0
VERTEX
  8
gg1
 10
1.559000
 20
-0.224000
  0
VERTEX
  8
gg1
 10
1.549000
 20
-0.234000
  0
SEQEND
  8
gg1
  0
POLYLINE
  8
gg1
 62
1
 40
0.000000
 41
0.000000
 66
  1
  0
VERTEX
  8
gg1
 10
1.609000
 20
-0.234000
  0
VERTEX
  8
gg1
 10
1.619000
 20
-0.224000
  0
VERTEX
  8
gg1
 10
1.639000
 20
-0.224000
  0
VERTEX
  8
gg1
 10
1.649000
 20
-0.234000
  0
VERTEX
  8
gg1
 10
1.649000
 20
-0.244000
  0
VERTEX
  8
gg1
 10
1.639000
 20
-0.254000
  0
VERTEX
  8
gg1
 10
1.649000
 20
-0.264000
  0
VERTEX
  8
gg1
 10
1.649000
 20
-0.274000
  0
VERTEX
  8
gg1
 10
1.639000
 20
-0.284000
  0
VERTEX
  8
gg1
 10
1.619000
 20
-0.284000
  0
VERTEX
  8
gg1
 10
1.609000
 20
-0.274000
  0
VERTEX
  8
gg1
 10
1.609000
 20
-0.264000
  0
VERTEX
  8
gg1
 10
1.619000
 20
-0.254000
  0
VERTEX
  8
gg1
 10
1.609000
 20
-0.244000
  0
VERTEX
  8
gg1
 10
1.609000
 20
-0.234000
  0
SEQEND
  8
gg1
  0
POLYLINE
  8
gg1
 62
1
 40
0.000000
 41
0.000000
 66
  1
  0
VERTEX
  8
gg1
 10
1.619000
 20
-0.254000
  0
VERTEX
  8
gg1
 10
1.639000
 20
-0.254000
  0
SEQEND
  8
gg1
  0
POLYLINE
  8
gg1
 62
1
 40
0.000000
 41
0.000000
 66
  1
  0
VERTEX
  8
gg1
 10
1.669000
 20
-0.234000
  0
VERTEX
  8
gg1
 10
1.679000
 20
-0.224000
  0
VERTEX
  8
gg1
 10
1.699000
 20
-0.224000
  0
VERTEX
  8
gg1
 10
1.709000
 20
-0.234000
  0
VERTEX
  8
gg1
 10
1.709000
 20
-0.274000
  0
VERTEX
  8
gg1
 10
1.699000
 20
-0.284000
  0
VERTEX
  8
gg1
 10
1.679000
 20
-0.284000
  0
VERTEX
  8
gg1
 10
1.669000
 20
-0.274000
  0
VERTEX
  8
gg1
 10
1.669000
 20
-0.234000
  0
SEQEND
  8
gg1
  0
POLYLINE
  8
gg1
 62
1
 40
0.000000
 41
0.000000
 66
  1
  0
VERTEX
  8
gg1
 10
1.729000
 20
-0.284000
  0
VERTEX
  8
gg1
 10
1.729000
 20
-0.244000
  0
VERTEX
  8
gg1
 10
1.739000
 20
-0.244000
  0
VERTEX
  8
gg1
 10
1.749000
 20
-0.254000
  0
VERTEX
  8
gg1
 10
1.749000
 20
-0.284000
  0
VERTEX
  8
gg1
 10
1.749000
 20
-0.254000
  0
VERTEX
  8
gg1
 10
1.759000
 20
-0.244000
  0
VERTEX
  8
gg1
 10
1.769000
 20
-0.254000
  0
VERTEX
  8
gg1
 10
1.769000
 20
-0.284000
  0
SEQEND
  8
gg1
  0
POLYLINE
  8
gg1
 62
1
 40
0.000000
 41
0.000000
 66
  1
  0
VERTEX
  8
gg1
 10
1.789000
 20
-0.284000
  0
VERTEX
  8
gg1
 10
1.809000
 20
-0.284000
  0
VERTEX
  8
gg1
 10
1.799000
 20
-0.284000
  0
VERTEX
  8
gg1
 10
1.799000
 20
-0.244000
  0
VERTEX
  8
gg1
 10
1.789000
 20
-0.244000
  0
SEQEND
  8
gg1
  0
POLYLINE
  8
gg1
 62
1
 40
0.000000
 41
0.000000
 66
  1
  0
VERTEX
  8
gg1
 10
1.839000
 20
-0.284000
  0
VERTEX
  8
gg1
 10
1.859000
 20
-0.284000
  0
VERTEX
  8
gg1
 10
1.849000
 20
-0.284000
  0
VERTEX
  8
gg1
 10
1.849000
 20
-0.224000
  0
VERTEX
  8
gg1
 10
1.839000
 20
-0.224000
  0
SEQEND
  8
gg1
  0
POLYLINE
  8
gg1
 62
1
 40
0.000000
 41
0.000000
 66
  1
  0
VERTEX
  8
gg1
 10
0.009000
 20
-0.294000
  0
VERTEX
  8
gg1
 10
-0.031000
 20
-0.294000
  0
VERTEX
  8
gg1
 10
0.009000
 20
-0.254000
  0
VERTEX
  8
gg1
 10
0.009000
 20
-0.244000
  0
VERTEX
  8
gg1
 10
-0.001000
 20
-0.234000
  0
VERTEX
  8
gg1
 10
-0.021000
 20
-0.234000
  0
VERTEX
  8
gg1
 10
-0.031000
 20
-0.244000
  0
SEQEND
  8
gg1
  0
POLYLINE
  8
gg1
 62
1
 40
0.000000
 41
0.000000
 66
  1
  0
VERTEX
  8
gg1
 10
0.029000
 20
-0.244000
  0
VERTEX
  8
gg1
 10
0.039000
 20
-0.234000
  0
VERTEX
  8
gg1
 10
0.059000
 20
-0.234000
  0
VERTEX
  8
gg1
 10
0.069000
 20
-0.244000
  0
VERTEX
  8
gg1
 10
0.069000
 20
-0.254000
  0
VERTEX
  8
gg1
 10
0.059000
 20
-0.264000
  0
VERTEX
  8
gg1
 10
0.069000
 20
-0.274000
  0
VERTEX
  8
gg1
 10
0.069000
 20
-0.284000
  0
VERTEX
  8
gg1
 10
0.059000
 20
-0.294000
  0
VERTEX
  8
gg1
 10
0.039000
 20
-0.294000
  0
VERTEX
  8
gg1
 10
0.029000
 20
-0.284000
  0
VERTEX
  8
gg1
 10
0.029000
 20
-0.274000
  0
VERTEX
  8
gg1
 10
0.039000
 20
-0.264000
  0
VERTEX
  8
gg1
 10
0.029000
 20
-0.254000
  0
VERTEX
  8
gg1
 10
0.029000
 20
-0.244000
  0
SEQEND
  8
gg1
  0
POLYLINE
  8
gg1
 62
1
 40
0.000000
 41
0.000000
 66
  1
  0
VERTEX
  8
gg1
 10
0.039000
 20
-0.264000
  0
VERTEX
  8
gg1
 10
0.059000
 20
-0.264000
  0
SEQEND
  8
gg1
  0
POLYLINE
  8
gg1
 62
1
 40
0.000000
 41
0.000000
 66
  1
  0
VERTEX
  8
gg1
 10
0.089000
 20
-0.244000
  0
VERTEX
  8
gg1
 10
0.099000
 20
-0.234000
  0
VERTEX
  8
gg1
 10
0.119000
 20
-0.234000
  0
VERTEX
  8
gg1
 10
0.129000
 20
-0.244000
  0
VERTEX
  8
gg1
 10
0.129000
 20
-0.284000
  0
VERTEX
  8
gg1
 10
0.119000
 20
-0.294000
  0
VERTEX
  8
gg1
 10
0.099000
 20
-0.294000
  0
VERTEX
  8
gg1
 10
0.089000
 20
-0.284000
  0
VERTEX
  8
gg1
 10
0.089000
 20
-0.244000
  0
SEQEND
  8
gg1
  0
POLYLINE
  8
gg1
 62
1
 40
0.000000
 41
0.000000
 66
  1
  0
VERTEX
  8
gg1
 10
0.149000
 20
-0.294000
  0
VERTEX
  8
gg1
 10
0.149000
 20
-0.254000
  0
VERTEX
  8
gg1
 10
0.159000
 20
-0.254000
  0
VERTEX
  8
gg1
 10
0.169000
 20
-0.264000
  0
VERTEX
  8
gg1
 10
0.169000
 20
-0.294000
  0
VERTEX
  8
gg1
 10
0.169000
 20
-0.264000
  0
VERTEX
  8
gg1
 10
0.179000
 20
-0.254000
  0
VERTEX
  8
gg1
 10
0.189000
 20
-0.264000
  0
VERTEX
  8
gg1
 10
0.189000
 20
-0.294000
  0
SEQEND
  8
gg1
  0
POLYLINE
  8
gg1
 62
1
 40
0.000000
 41
0.000000
 66
  1
  0
VERTEX
  8
gg1
 10
0.209000
 20
-0.294000
  0
VERTEX
  8
gg1
 10
0.229000
 20
-0.294000
  0
VERTEX
  8
gg1
 10
0.219000
 20
-0.294000
  0
VERTEX
  8
gg1
 10
0.219000
 20
-0.254000
  0
VERTEX
  8
gg1
 10
0.209000
 20
-0.254000
  0
SEQEND
  8
gg1
  0
POLYLINE
  8
gg1
 62
1
 40
0.000000
 41
0.000000
 66
  1
  0
VERTEX
  8
gg1
 10
0.259000
 20
-0.294000
  0
VERTEX
  8
gg1
 10
0.279000
 20
-0.294000
  0
VERTEX
  8
gg1
 10
0.269000
 20
-0.294000
  0
VERTEX
  8
gg1
 10
0.269000
 20
-0.234000
  0
VERTEX
  8
gg1
 10
0.259000
 20
-0.234000
  0
SEQEND
  8
gg1
  0
POLYLINE
  8
gg1
 62
1
 40
0.000000
 41
0.000000
 66
  1
  0
VERTEX
  8
gg1
 10
0.444000
 20
0.004100
  0
VERTEX
  8
gg1
 10
0.434000
 20
0.014000
  0
VERTEX
  8
gg1
 10
0.434000
 20
0.034000
  0
VERTEX
  8
gg1
 10
0.444000
 20
0.044000
  0
VERTEX
  8
gg1
 10
0.454000
 20
0.044000
  0
VERTEX
  8
gg1
 10
0.464000
 20
0.034000
  0
VERTEX
  8
gg1
 10
0.464000
 20
0.024000
  0
VERTEX
  8
gg1
 10
0.464000
 20
0.034000
  0
VERTEX
  8
gg1
 10
0.474000
 20
0.044000
  0
VERTEX
  8
gg1
 10
0.484000
 20
0.044000
  0
VERTEX
  8
gg1
 10
0.494000
 20
0.034000
  0
VERTEX
  8
gg1
 10
0.494000
 20
0.014000
  0
VERTEX
  8
gg1
 10
0.484000
 20
0.004100
  0
SEQEND
  8
gg1
  0
POLYLINE
  8
gg1
 62
1
 40
0.000000
 41
0.000000
 66
  1
  0
VERTEX
  8
gg1
 10
0.434000
 20
0.104000
  0
VERTEX
  8
gg1
 10
0.434000
 20
0.064000
  0
VERTEX
  8
gg1
 10
0.464000
 20
0.064000
  0
VERTEX
  8
gg1
 10
0.454000
 20
0.084000
  0
VERTEX
  8
gg1
 10
0.454000
 20
0.094000
  0
VERTEX
  8
gg1
 10
0.464000
 20
0.104000
  0
VERTEX
  8
gg1
 10
0.484000
 20
0.104000
  0
VERTEX
  8
gg1
 10
0.494000
 20
0.094000
  0
VERTEX
  8
gg1
 10
0.494000
 20
0.074000
  0
VERTEX
  8
gg1
 10
0.484000
 20
0.064000
  0
SEQEND
  8
gg1
  0
POLYLINE
  8
gg1
 62
1
 40
0.000000
 41
0.000000
 66
  1
  0
VERTEX
  8
gg1
 10
0.444000
 20
0.124000
  0
VERTEX
  8
gg1
 10
0.434000
 20
0.134000
  0
VERTEX
  8
gg1
 10
0.434000
 20
0.154000
  0
VERTEX
  8
gg1
 10
0.444000
 20
0.164000
  0
VERTEX
  8
gg1
 10
0.484000
 20
0.164000
  0
VERTEX
  8
gg1
 10
0.494000
 20
0.154000
  0
VERTEX
  8
gg1
 10
0.494000
 20
0.134000
  0
VERTEX
  8
gg1
 10
0.484000
 20
0.124000
  0
VERTEX
  8
gg1
 10
0.444000
 20
0.124000
  0
SEQEND
  8
gg1
  0
POLYLINE
  8
gg1
 62
1
 40
0.000000
 41
0.000000
 66
  1
  0
VERTEX
  8
gg1
 10
0.494000
 20
0.184000
  0
VERTEX
  8
gg1
 10
0.454000
 20
0.184000
  0
VERTEX
  8
gg1
 10
0.454000
 20
0.194000
  0
VERTEX
  8
gg1
 10
0.464000
 20
0.204000
  0
VERTEX
  8
gg1
 10
0.494000
 20
0.204000
  0
VERTEX
  8
gg1
 10
0.464000
 20
0.204000
  0
VERTEX
  8
gg1
 10
0.454000
 20
0.214000
  0
VERTEX
  8
gg1
 10
0.464000
 20
0.224000
  0
VERTEX
  8
gg1
 10
0.494000
 20
0.224000
  0
SEQEND
  8
gg1
  0
POLYLINE
  8
gg1
 62
1
 40
0.000000
 41
0.000000
 66
  1
  0
VERTEX
  8
gg1
 10
0.494000
 20
0.244000
  0
VERTEX
  8
gg1
 10
0.494000
 20
0.264000
  0
VERTEX
  8
gg1
 10
0.494000
 20
0.254000
  0
VERTEX
  8
gg1
 10
0.454000
 20
0.254000
  0
VERTEX
  8
gg1
 10
0.454000
 20
0.244000
  0
SEQEND
  8
gg1
  0
POLYLINE
  8
gg1
 62
1
 40
0.000000
 41
0.000000
 66
  1
  0
VERTEX
  8
gg1
 10
0.494000
 20
0.294000
  0
VERTEX
  8
gg1
 10
0.494000
 20
0.314000
  0
VERTEX
  8
gg1
 10
0.494000
 20
0.304000
  0
VERTEX
  8
gg1
 10
0.434000
 20
0.304000
  0
VERTEX
  8
gg1
 10
0.434000
 20
0.294000
  0
SEQEND
  8
gg1
  0
POLYLINE
  8
gg1
 62
1
 40
0.000000
 41
0.000000
 66
  1
  0
VERTEX
  8
gg1
 10
0.734100
 20
2.014000
  0
VERTEX
  8
gg1
 10
0.754100
 20
2.014000
  0
VERTEX
  8
gg1
 10
0.744100
 20
2.014000
  0
VERTEX
  8
gg1
 10
0.744100
 20
2.074000
  0
VERTEX
  8
gg1
 10
0.734100
 20
2.064000
  0
SEQEND
  8
gg1
  0
POLYLINE
  8
gg1
 62
1
 40
0.000000
 41
0.000000
 66
  1
  0
VERTEX
  8
gg1
 10
0.784000
 20
2.064000
  0
VERTEX
  8
gg1
 10
0.794000
 20
2.074000
  0
VERTEX
  8
gg1
 10
0.814000
 20
2.074000
  0
VERTEX
  8
gg1
 10
0.824000
 20
2.064000
  0
VERTEX
  8
gg1
 10
0.824000
 20
2.054000
  0
VERTEX
  8
gg1
 10
0.814000
 20
2.044000
  0
VERTEX
  8
gg1
 10
0.824000
 20
2.034000
  0
VERTEX
  8
gg1
 10
0.824000
 20
2.024000
  0
VERTEX
  8
gg1
 10
0.814000
 20
2.014000
  0
VERTEX
  8
gg1
 10
0.794000
 20
2.014000
  0
VERTEX
  8
gg1
 10
0.784000
 20
2.024000
  0
VERTEX
  8
gg1
 10
0.784000
 20
2.034000
  0
VERTEX
  8
gg1
 10
0.794000
 20
2.044000
  0
VERTEX
  8
gg1
 10
0.784000
 20
2.054000
  0
VERTEX
  8
gg1
 10
0.784000
 20
2.064000
  0
SEQEND
  8
gg1
  0
POLYLINE
  8
gg1
 62
1
 40
0.000000
 41
0.000000
 66
  1
  0
VERTEX
  8
gg1
 10
0.794000
 20
2.044000
  0
VERTEX
  8
gg1
 10
0.814000
 20
2.044000
  0
SEQEND
  8
gg1
  0
POLYLINE
  8
gg1
 62
1
 40
0.000000
 41
0.000000
 66
  1
  0
VERTEX
  8
gg1
 10
0.884000
 20
2.074000
  0
VERTEX
  8
gg1
 10
0.864000
 20
2.064000
  0
VERTEX
  8
gg1
 10
0.844000
 20
2.044000
  0
VERTEX
  8
gg1
 10
0.844000
 20
2.024000
  0
VERTEX
  8
gg1
 10
0.854000
 20
2.014000
  0
VERTEX
  8
gg1
 10
0.874000
 20
2.014000
  0
VERTEX
  8
gg1
 10
0.884000
 20
2.024000
  0
VERTEX
  8
gg1
 10
0.884000
 20
2.034000
  0
VERTEX
  8
gg1
 10
0.874000
 20
2.044000
  0
VERTEX
  8
gg1
 10
0.844000
 20
2.044000
  0
SEQEND
  8
gg1
  0
POLYLINE
  8
gg1
 62
1
 40
0.000000
 41
0.000000
 66
  1
  0
VERTEX
  8
gg1
 10
0.904000
 20
2.064000
  0
VERTEX
  8
gg1
 10
0.914000
 20
2.074000
  0
VERTEX
  8
gg1
 10
0.934000
 20
2.074000
  0
VERTEX
  8
gg1
 10
0.944000
 20
2.064000
  0
VERTEX
  8
gg1
 10
0.944000
 20
2.024000
  0
VERTEX
  8
gg1
 10
0.934000
 20
2.014000
  0
VERTEX
  8
gg1
 10
0.914000
 20
2.014000
  0
VERTEX
  8
gg1
 10
0.904000
 20
2.024000
  0
VERTEX
  8
gg1
 10
0.904000
 20
2.064000
  0
SEQEND
  8
gg1
  0
POLYLINE
  8
gg1
 62
1
 40
0.000000
 41
0.000000
 66
  1
  0
VERTEX
  8
gg1
 10
0.964000
 20
2.014000
  0
VERTEX
  8
gg1
 10
0.964000
 20
2.054000
  0
VERTEX
  8
gg1
 10
0.974000
 20
2.054000
  0
VERTEX
  8
gg1
 10
0.984000
 20
2.044000
  0
VERTEX
  8
gg1
 10
0.984000
 20
2.014000
  0
VERTEX
  8
gg1
 10
0.984000
 20
2.044000
  0
VERTEX
  8
gg1
 10
0.994000
 20
2.054000
  0
VERTEX
  8
gg1
 10
1.004000
 20
2.044000
  0
VERTEX
  8
gg1
 10
1.004000
 20
2.014000
  0
SEQEND
  8
gg1
  0
POLYLINE
  8
gg1
 62
1
 40
0.000000
 41
0.000000
 66
  1
  0
VERTEX
  8
gg1
 10
1.024000
 20
2.014000
  0
VERTEX
  8
gg1
 10
1.044000
 20
2.014000
  0
VERTEX
  8
gg1
 10
1.034000
 20
2.014000
  0
VERTEX
  8
gg1
 10
1.034000
 20
2.054000
  0
VERTEX
  8
gg1
 10
1.024000
 20
2.054000
  0
SEQEND
  8
gg1
  0
POLYLINE
  8
gg1
 62
1
 40
0.000000
 41
0.000000
 66
  1
  0
VERTEX
  8
gg1
 10
1.073900
 20
2.014000
  0
VERTEX
  8
gg1
 10
1.093900
 20
2.014000
  0
VERTEX
  8
gg1
 10
1.083900
 20
2.014000
  0
VERTEX
  8
gg1
 10
1.083900
 20
2.074000
  0
VERTEX
  8
gg1
 10
1.073900
 20
2.074000
  0
SEQEND
  8
gg1
  0
POLYLINE
  8
gg1
 62
1
 40
0.000000
 41
0.000000
 66
  1
  0
VERTEX
  8
gg1
 10
-0.154000
 20
0.734100
  0
VERTEX
  8
gg1
 10
-0.154000
 20
0.754100
  0
VERTEX
  8
gg1
 10
-0.154000
 20
0.744100
  0
VERTEX
  8
gg1
 10
-0.214000
 20
0.744100
  0
VERTEX
  8
gg1
 10
-0.204000
 20
0.734100
  0
SEQEND
  8
gg1
  0
POLYLINE
  8
gg1
 62
1
 40
0.000000
 41
0.000000
 66
  1
  0
VERTEX
  8
gg1
 10
-0.204000
 20
0.784000
  0
VERTEX
  8
gg1
 10
-0.214000
 20
0.794000
  0
VERTEX
  8
gg1
 10
-0.214000
 20
0.814000
  0
VERTEX
  8
gg1
 10
-0.204000
 20
0.824000
  0
VERTEX
  8
gg1
 10
-0.194000
 20
0.824000
  0
VERTEX
  8
gg1
 10
-0.184000
 20
0.814000
  0
VERTEX
  8
gg1
 10
-0.174000
 20
0.824000
  0
VERTEX
  8
gg1
 10
-0.164000
 20
0.824000
  0
VERTEX
  8
gg1
 10
-0.154000
 20
0.814000
  0
VERTEX
  8
gg1
 10
-0.154000
 20
0.794000
  0
VERTEX
  8
gg1
 10
-0.164000
 20
0.784000
  0
VERTEX
  8
gg1
 10
-0.174000
 20
0.784000
  0
VERTEX
  8
gg1
 10
-0.184000
 20
0.794000
  0
VERTEX
  8
gg1
 10
-0.194000
 20
0.784000
  0
VERTEX
  8
gg1
 10
-0.204000
 20
0.784000
  0
SEQEND
  8
gg1
  0
POLYLINE
  8
gg1
 62
1
 40
0.000000
 41
0.000000
 66
  1
  0
VERTEX
  8
gg1
 10
-0.184000
 20
0.794000
  0
VERTEX
  8
gg1
 10
-0.184000
 20
0.814000
  0
SEQEND
  8
gg1
  0
POLYLINE
  8
gg1
 62
1
 40
0.000000
 41
0.000000
 66
  1
  0
VERTEX
  8
gg1
 10
-0.214000
 20
0.884000
  0
VERTEX
  8
gg1
 10
-0.204000
 20
0.864000
  0
VERTEX
  8
gg1
 10
-0.184000
 20
0.844000
  0
VERTEX
  8
gg1
 10
-0.164000
 20
0.844000
  0
VERTEX
  8
gg1
 10
-0.154000
 20
0.854000
  0
VERTEX
  8
gg1
 10
-0.154000
 20
0.874000
  0
VERTEX
  8
gg1
 10
-0.164000
 20
0.884000
  0
VERTEX
  8
gg1
 10
-0.174000
 20
0.884000
  0
VERTEX
  8
gg1
 10
-0.184000
 20
0.874000
  0
VERTEX
  8
gg1
 10
-0.184000
 20
0.844000
  0
SEQEND
  8
gg1
  0
POLYLINE
  8
gg1
 62
1
 40
0.000000
 41
0.000000
 66
  1
  0
VERTEX
  8
gg1
 10
-0.204000
 20
0.904000
  0
VERTEX
  8
gg1
 10
-0.214000
 20
0.914000
  0
VERTEX
  8
gg1
 10
-0.214000
 20
0.934000
  0
VERTEX
  8
gg1
 10
-0.204000
 20
0.944000
  0
VERTEX
  8
gg1
 10
-0.164000
 20
0.944000
  0
VERTEX
  8
gg1
 10
-0.154000
 20
0.934000
  0
VERTEX
  8
gg1
 10
-0.154000
 20
0.914000
  0
VERTEX
  8
gg1
 10
-0.164000
 20
0.904000
  0
VERTEX
  8
gg1
 10
-0.204000
 20
0.904000
  0
SEQEND
  8
gg1
  0
POLYLINE
  8
gg1
 62
1
 40
0.000000
 41
0.000000
 66
  1
  0
VERTEX
  8
gg1
 10
-0.154000
 20
0.964000
  0
VERTEX
  8
gg1
 10
-0.194000
 20
0.964000
  0
VERTEX
  8
gg1
 10
-0.194000
 20
0.974000
  0
VERTEX
  8
gg1
 10
-0.184000
 20
0.984000
  0
VERTEX
  8
gg1
 10
-0.154000
 20
0.984000
  0
VERTEX
  8
gg1
 10
-0.184000
 20
0.984000
  0
VERTEX
  8
gg1
 10
-0.194000
 20
0.994000
  0
VERTEX
  8
gg1
 10
-0.184000
 20
1.004000
  0
VERTEX
  8
gg1
 10
-0.154000
 20
1.004000
  0
SEQEND
  8
gg1
  0
POLYLINE
  8
gg1
 62
1
 40
0.000000
 41
0.000000
 66
  1
  0
VERTEX
  8
gg1
 10
-0.154000
 20
1.024000
  0
VERTEX
  8
gg1
 10
-0.154000
 20
1.044000
  0
VERTEX
  8
gg1
 10
-0.154000
 20
1.034000
  0
VERTEX
  8
gg1
 10
-0.194000
 20
1.034000
  0
VERTEX
  8
gg1
 10
-0.194000
 20
1.024000
  0
SEQEND
  8
gg1
  0
POLYLINE
  8
gg1
 62
1
 40
0.000000
 41
0.000000
 66
  1
  0
VERTEX
  8
gg1
 10
-0.154000
 20
1.073900
  0
VERTEX
  8
gg1
 10
-0.154000
 20
1.093900
  0
VERTEX
  8
gg1
 10
-0.154000
 20
1.083900
  0
VERTEX
  8
gg1
 10
-0.214000
 20
1.083900
  0
VERTEX
  8
gg1
 10
-0.214000
 20
1.073900
  0
SEQEND
  8
gg1
  0
POLYLINE
  8
gg1
 62
1
 40
0.000000
 41
0.000000
 66
  1
  0
VERTEX
  8
gg1
 10
1.667500
 20
0.130000
  0
VERTEX
  8
gg1
 10
1.792500
 20
0.130000
  0
SEQEND
  8
gg1
  0
POLYLINE
  8
gg1
 62
1
 40
0.000000
 41
0.000000
 66
  1
  0
VERTEX
  8
gg1
 10
1.730000
 20
0.067500
  0
VERTEX
  8
gg1
 10
1.730000
 20
0.192500
  0
SEQEND
  8
gg1
  0
POLYLINE
  8
gg1
 62
1
 40
0.000000
 41
0.000000
 66
  1
  0
VERTEX
  8
gg1
 10
0.067500
 20
0.130000
  0
VERTEX
  8
gg1
 10
0.192500
 20
0.130000
  0
SEQEND
  8
gg1
  0
POLYLINE
  8
gg1
 62
1
 40
0.000000
 41
0.000000
 66
  1
  0
VERTEX
  8
gg1
 10
0.130000
 20
0.067500
  0
VERTEX
  8
gg1
 10
0.130000
 20
0.192500
  0
SEQEND
  8
gg1
  0
POLYLINE
  8
gg1
 62
1
 40
0.000000
 41
0.000000
 66
  1
  0
VERTEX
  8
gg1
 10
1.680500
 20
0.400000
  0
VERTEX
  8
gg1
 10
1.805500
 20
0.400000
  0
SEQEND
  8
gg1
  0
POLYLINE
  8
gg1
 62
1
 40
0.000000
 41
0.000000
 66
  1
  0
VERTEX
  8
gg1
 10
1.743000
 20
0.337500
  0
VERTEX
  8
gg1
 10
1.743000
 20
0.462500
  0
SEQEND
  8
gg1
  0
POLYLINE
  8
gg1
 62
1
 40
0.000000
 41
0.000000
 66
  1
  0
VERTEX
  8
gg1
 10
0.054500
 20
0.400000
  0
VERTEX
  8
gg1
 10
0.179500
 20
0.400000
  0
SEQEND
  8
gg1
  0
POLYLINE
  8
gg1
 62
1
 40
0.000000
 41
0.000000
 66
  1
  0
VERTEX
  8
gg1
 10
0.117000
 20
0.337500
  0
VERTEX
  8
gg1
 10
0.117000
 20
0.462500
  0
SEQEND
  8
gg1
  0
POLYLINE
  8
gg1
 62
1
 40
0.000000
 41
0.000000
 66
  1
  0
VERTEX
  8
gg1
 10
0.054000
 20
0.545000
  0
VERTEX
  8
gg1
 10
0.096000
 20
0.545000
  0
SEQEND
  8
gg1
  0
POLYLINE
  8
gg1
 62
1
 40
0.000000
 41
0.000000
 66
  1
  0
VERTEX
  8
gg1
 10
0.075000
 20
0.524000
  0
VERTEX
  8
gg1
 10
0.075000
 20
0.566000
  0
SEQEND
  8
gg1
  0
POLYLINE
  8
gg1
 62
1
 40
0.000000
 41
0.000000
 66
  1
  0
VERTEX
  8
gg1
 10
0.054000
 20
0.645000
  0
VERTEX
  8
gg1
 10
0.096000
 20
0.645000
  0
SEQEND
  8
gg1
  0
POLYLINE
  8
gg1
 62
1
 40
0.000000
 41
0.000000
 66
  1
  0
VERTEX
  8
gg1
 10
0.075000
 20
0.624000
  0
VERTEX
  8
gg1
 10
0.075000
 20
0.666000
  0
SEQEND
  8
gg1
  0
POLYLINE
  8
gg1
 62
1
 40
0.000000
 41
0.000000
 66
  1
  0
VERTEX
  8
gg1
 10
0.054000
 20
0.745000
  0
VERTEX
  8
gg1
 10
0.096000
 20
0.745000
  0
SEQEND
  8
gg1
  0
POLYLINE
  8
gg1
 62
1
 40
0.000000
 41
0.000000
 66
  1
  0
VERTEX
  8
gg1
 10
0.075000
 20
0.724000
  0
VERTEX
  8
gg1
 10
0.075000
 20
0.766000
  0
SEQEND
  8
gg1
  0
POLYLINE
  8
gg1
 62
1
 40
0.000000
 41
0.000000
 66
  1
  0
VERTEX
  8
gg1
 10
0.054000
 20
0.845000
  0
VERTEX
  8
gg1
 10
0.096000
 20
0.845000
  0
SEQEND
  8
gg1
  0
POLYLINE
  8
gg1
 62
1
 40
0.000000
 41
0.000000
 66
  1
  0
VERTEX
  8
gg1
 10
0.075000
 20
0.824000
  0
VERTEX
  8
gg1
 10
0.075000
 20
0.866000
  0
SEQEND
  8
gg1
  0
POLYLINE
  8
gg1
 62
1
 40
0.000000
 41
0.000000
 66
  1
  0
VERTEX
  8
gg1
 10
0.054000
 20
0.945000
  0
VERTEX
  8
gg1
 10
0.096000
 20
0.945000
  0
SEQEND
  8
gg1
  0
POLYLINE
  8
gg1
 62
1
 40
0.000000
 41
0.000000
 66
  1
  0
VERTEX
  8
gg1
 10
0.075000
 20
0.924000
  0
VERTEX
  8
gg1
 10
0.075000
 20
0.966000
  0
SEQEND
  8
gg1
  0
POLYLINE
  8
gg1
 62
1
 40
0.000000
 41
0.000000
 66
  1
  0
VERTEX
  8
gg1
 10
0.254000
 20
0.545000
  0
VERTEX
  8
gg1
 10
0.296000
 20
0.545000
  0
SEQEND
  8
gg1
  0
POLYLINE
  8
gg1
 62
1
 40
0.000000
 41
0.000000
 66
  1
  0
VERTEX
  8
gg1
 10
0.275000
 20
0.524000
  0
VERTEX
  8
gg1
 10
0.275000
 20
0.566000
  0
SEQEND
  8
gg1
  0
POLYLINE
  8
gg1
 62
1
 40
0.000000
 41
0.000000
 66
  1
  0
VERTEX
  8
gg1
 10
0.254000
 20
0.645000
  0
VERTEX
  8
gg1
 10
0.296000
 20
0.645000
  0
SEQEND
  8
gg1
  0
POLYLINE
  8
gg1
 62
1
 40
0.000000
 41
0.000000
 66
  1
  0
VERTEX
  8
gg1
 10
0.275000
 20
0.624000
  0
VERTEX
  8
gg1
 10
0.275000
 20
0.666000
  0
SEQEND
  8
gg1
  0
POLYLINE
  8
gg1
 62
1
 40
0.000000
 41
0.000000
 66
  1
  0
VERTEX
  8
gg1
 10
0.254000
 20
0.745000
  0
VERTEX
  8
gg1
 10
0.296000
 20
0.745000
  0
SEQEND
  8
gg1
  0
POLYLINE
  8
gg1
 62
1
 40
0.000000
 41
0.000000
 66
  1
  0
VERTEX
  8
gg1
 10
0.275000
 20
0.724000
  0
VERTEX
  8
gg1
 10
0.275000
 20
0.766000
  0
SEQEND
  8
gg1
  0
POLYLINE
  8
gg1
 62
1
 40
0.000000
 41
0.000000
 66
  1
  0
VERTEX
  8
gg1
 10
0.254000
 20
0.845000
  0
VERTEX
  8
gg1
 10
0.296000
 20
0.845000
  0
SEQEND
  8
gg1
  0
POLYLINE
  8
gg1
 62
1
 40
0.000000
 41
0.000000
 66
  1
  0
VERTEX
  8
gg1
 10
0.275000
 20
0.824000
  0
VERTEX
  8
gg1
 10
0.275000
 20
0.866000
  0
SEQEND
  8
gg1
  0
POLYLINE
  8
gg1
 62
1
 40
0.000000
 41
0.000000
 66
  1
  0
VERTEX
  8
gg1
 10
0.254000
 20
0.945000
  0
VERTEX
  8
gg1
 10
0.296000
 20
0.945000
  0
SEQEND
  8
gg1
  0
POLYLINE
  8
gg1
 62
1
 40
0.000000
 41
0.000000
 66
  1
  0
VERTEX
  8
gg1
 10
0.275000
 20
0.924000
  0
VERTEX
  8
gg1
 10
0.275000
 20
0.966000
  0
SEQEND
  8
gg1
  0
POLYLINE
  8
gg1
 62
1
 40
0.000000
 41
0.000000
 66
  1
  0
VERTEX
  8
gg1
 10
0.168000
 20
1.789000
  0
VERTEX
  8
gg1
 10
0.210000
 20
1.789000
  0
SEQEND
  8
gg1
  0
POLYLINE
  8
gg1
 62
1
 40
0.000000
 41
0.000000
 66
  1
  0
VERTEX
  8
gg1
 10
0.189000
 20
1.768000
  0
VERTEX
  8
gg1
 10
0.189000
 20
1.810000
  0
SEQEND
  8
gg1
  0
POLYLINE
  8
gg1
 62
1
 40
0.000000
 41
0.000000
 66
  1
  0
VERTEX
  8
gg1
 10
0.268000
 20
1.689000
  0
VERTEX
  8
gg1
 10
0.310000
 20
1.689000
  0
SEQEND
  8
gg1
  0
POLYLINE
  8
gg1
 62
1
 40
0.000000
 41
0.000000
 66
  1
  0
VERTEX
  8
gg1
 10
0.289000
 20
1.668000
  0
VERTEX
  8
gg1
 10
0.289000
 20
1.710000
  0
SEQEND
  8
gg1
  0
POLYLINE
  8
gg1
 62
1
 40
0.000000
 41
0.000000
 66
  1
  0
VERTEX
  8
gg1
 10
0.268000
 20
1.789000
  0
VERTEX
  8
gg1
 10
0.310000
 20
1.789000
  0
SEQEND
  8
gg1
  0
POLYLINE
  8
gg1
 62
1
 40
0.000000
 41
0.000000
 66
  1
  0
VERTEX
  8
gg1
 10
0.289000
 20
1.768000
  0
VERTEX
  8
gg1
 10
0.289000
 20
1.810000
  0
SEQEND
  8
gg1
  0
POLYLINE
  8
gg1
 62
1
 40
0.000000
 41
0.000000
 66
  1
  0
VERTEX
  8
gg1
 10
0.168000
 20
1.689000
  0
VERTEX
  8
gg1
 10
0.210000
 20
1.689000
  0
SEQEND
  8
gg1
  0
POLYLINE
  8
gg1
 62
1
 40
0.000000
 41
0.000000
 66
  1
  0
VERTEX
  8
gg1
 10
0.189000
 20
1.668000
  0
VERTEX
  8
gg1
 10
0.189000
 20
1.710000
  0
SEQEND
  8
gg1
  0
POLYLINE
  8
gg1
 62
1
 40
0.000000
 41
0.000000
 66
  1
  0
VERTEX
  8
gg1
 10
0.068000
 20
1.789000
  0
VERTEX
  8
gg1
 10
0.110000
 20
1.789000
  0
SEQEND
  8
gg1
  0
POLYLINE
  8
gg1
 62
1
 40
0.000000
 41
0.000000
 66
  1
  0
VERTEX
  8
gg1
 10
0.089000
 20
1.768000
  0
VERTEX
  8
gg1
 10
0.089000
 20
1.810000
  0
SEQEND
  8
gg1
  0
POLYLINE
  8
gg1
 62
1
 40
0.000000
 41
0.000000
 66
  1
  0
VERTEX
  8
gg1
 10
0.068000
 20
1.689000
  0
VERTEX
  8
gg1
 10
0.110000
 20
1.689000
  0
SEQEND
  8
gg1
  0
POLYLINE
  8
gg1
 62
1
 40
0.000000
 41
0.000000
 66
  1
  0
VERTEX
  8
gg1
 10
0.089000
 20
1.668000
  0
VERTEX
  8
gg1
 10
0.089000
 20
1.710000
  0
SEQEND
  8
gg1
  0
POLYLINE
  8
gg1
 62
1
 40
0.000000
 41
0.000000
 66
  1
  0
VERTEX
  8
gg1
 10
0.254000
 20
1.075000
  0
VERTEX
  8
gg1
 10
0.296000
 20
1.075000
  0
SEQEND
  8
gg1
  0
POLYLINE
  8
gg1
 62
1
 40
0.000000
 41
0.000000
 66
  1
  0
VERTEX
  8
gg1
 10
0.275000
 20
1.054000
  0
VERTEX
  8
gg1
 10
0.275000
 20
1.096000
  0
SEQEND
  8
gg1
  0
POLYLINE
  8
gg1
 62
1
 40
0.000000
 41
0.000000
 66
  1
  0
VERTEX
  8
gg1
 10
0.154000
 20
1.075000
  0
VERTEX
  8
gg1
 10
0.196000
 20
1.075000
  0
SEQEND
  8
gg1
  0
POLYLINE
  8
gg1
 62
1
 40
0.000000
 41
0.000000
 66
  1
  0
VERTEX
  8
gg1
 10
0.175000
 20
1.054000
  0
VERTEX
  8
gg1
 10
0.175000
 20
1.096000
  0
SEQEND
  8
gg1
  0
POLYLINE
  8
gg1
 62
1
 40
0.000000
 41
0.000000
 66
  1
  0
VERTEX
  8
gg1
 10
1.638000
 20
0.789000
  0
VERTEX
  8
gg1
 10
1.724000
 20
0.789000
  0
SEQEND
  8
gg1
  0
POLYLINE
  8
gg1
 62
1
 40
0.000000
 41
0.000000
 66
  1
  0
VERTEX
  8
gg1
 10
1.681000
 20
0.746000
  0
VERTEX
  8
gg1
 10
1.681000
 20
0.832000
  0
SEQEND
  8
gg1
  0
POLYLINE
  8
gg1
 62
1
 40
0.000000
 41
0.000000
 66
  1
  0
VERTEX
  8
gg1
 10
1.638000
 20
0.589000
  0
VERTEX
  8
gg1
 10
1.724000
 20
0.589000
  0
SEQEND
  8
gg1
  0
POLYLINE
  8
gg1
 62
1
 40
0.000000
 41
0.000000
 66
  1
  0
VERTEX
  8
gg1
 10
1.681000
 20
0.546000
  0
VERTEX
  8
gg1
 10
1.681000
 20
0.632000
  0
SEQEND
  8
gg1
  0
POLYLINE
  8
gg1
 62
1
 40
0.000000
 41
0.000000
 66
  1
  0
VERTEX
  8
gg1
 10
0.876600
 20
1.680000
  0
VERTEX
  8
gg1
 10
0.904600
 20
1.680000
  0
SEQEND
  8
gg1
  0
POLYLINE
  8
gg1
 62
1
 40
0.000000
 41
0.000000
 66
  1
  0
VERTEX
  8
gg1
 10
0.890600
 20
1.666000
  0
VERTEX
  8
gg1
 10
0.890600
 20
1.694000
  0
SEQEND
  8
gg1
  0
POLYLINE
  8
gg1
 62
1
 40
0.000000
 41
0.000000
 66
  1
  0
VERTEX
  8
gg1
 10
0.797900
 20
1.680000
  0
VERTEX
  8
gg1
 10
0.825900
 20
1.680000
  0
SEQEND
  8
gg1
  0
POLYLINE
  8
gg1
 62
1
 40
0.000000
 41
0.000000
 66
  1
  0
VERTEX
  8
gg1
 10
0.811900
 20
1.666000
  0
VERTEX
  8
gg1
 10
0.811900
 20
1.694000
  0
SEQEND
  8
gg1
  0
POLYLINE
  8
gg1
 62
1
 40
0.000000
 41
0.000000
 66
  1
  0
VERTEX
  8
gg1
 10
0.719200
 20
1.680000
  0
VERTEX
  8
gg1
 10
0.747200
 20
1.680000
  0
SEQEND
  8
gg1
  0
POLYLINE
  8
gg1
 62
1
 40
0.000000
 41
0.000000
 66
  1
  0
VERTEX
  8
gg1
 10
0.733200
 20
1.666000
  0
VERTEX
  8
gg1
 10
0.733200
 20
1.694000
  0
SEQEND
  8
gg1
  0
POLYLINE
  8
gg1
 62
1
 40
0.000000
 41
0.000000
 66
  1
  0
VERTEX
  8
gg1
 10
0.640400
 20
1.680000
  0
VERTEX
  8
gg1
 10
0.668400
 20
1.680000
  0
SEQEND
  8
gg1
  0
POLYLINE
  8
gg1
 62
1
 40
0.000000
 41
0.000000
 66
  1
  0
VERTEX
  8
gg1
 10
0.654400
 20
1.666000
  0
VERTEX
  8
gg1
 10
0.654400
 20
1.694000
  0
SEQEND
  8
gg1
  0
POLYLINE
  8
gg1
 62
1
 40
0.000000
 41
0.000000
 66
  1
  0
VERTEX
  8
gg1
 10
0.561700
 20
1.680000
  0
VERTEX
  8
gg1
 10
0.589700
 20
1.680000
  0
SEQEND
  8
gg1
  0
POLYLINE
  8
gg1
 62
1
 40
0.000000
 41
0.000000
 66
  1
  0
VERTEX
  8
gg1
 10
0.575700
 20
1.666000
  0
VERTEX
  8
gg1
 10
0.575700
 20
1.694000
  0
SEQEND
  8
gg1
  0
POLYLINE
  8
gg1
 62
1
 40
0.000000
 41
0.000000
 66
  1
  0
VERTEX
  8
gg1
 10
0.876600
 20
1.601300
  0
VERTEX
  8
gg1
 10
0.904600
 20
1.601300
  0
SEQEND
  8
gg1
  0
POLYLINE
  8
gg1
 62
1
 40
0.000000
 41
0.000000
 66
  1
  0
VERTEX
  8
gg1
 10
0.890600
 20
1.587300
  0
VERTEX
  8
gg1
 10
0.890600
 20
1.615300
  0
SEQEND
  8
gg1
  0
POLYLINE
  8
gg1
 62
1
 40
0.000000
 41
0.000000
 66
  1
  0
VERTEX
  8
gg1
 10
0.797900
 20
1.601300
  0
VERTEX
  8
gg1
 10
0.825900
 20
1.601300
  0
SEQEND
  8
gg1
  0
POLYLINE
  8
gg1
 62
1
 40
0.000000
 41
0.000000
 66
  1
  0
VERTEX
  8
gg1
 10
0.811900
 20
1.587300
  0
VERTEX
  8
gg1
 10
0.811900
 20
1.615300
  0
SEQEND
  8
gg1
  0
POLYLINE
  8
gg1
 62
1
 40
0.000000
 41
0.000000
 66
  1
  0
VERTEX
  8
gg1
 10
0.719200
 20
1.601300
  0
VERTEX
  8
gg1
 10
0.747200
 20
1.601300
  0
SEQEND
  8
gg1
  0
POLYLINE
  8
gg1
 62
1
 40
0.000000
 41
0.000000
 66
  1
  0
VERTEX
  8
gg1
 10
0.733200
 20
1.587300
  0
VERTEX
  8
gg1
 10
0.733200
 20
1.615300
  0
SEQEND
  8
gg1
  0
POLYLINE
  8
gg1
 62
1
 40
0.000000
 41
0.000000
 66
  1
  0
VERTEX
  8
gg1
 10
0.640400
 20
1.601300
  0
VERTEX
  8
gg1
 10
0.668400
 20
1.601300
  0
SEQEND
  8
gg1
  0
POLYLINE
  8
gg1
 62
1
 40
0.000000
 41
0.000000
 66
  1
  0
VERTEX
  8
gg1
 10
0.654400
 20
1.587300
  0
VERTEX
  8
gg1
 10
0.654400
 20
1.615300
  0
SEQEND
  8
gg1
  0
POLYLINE
  8
gg1
 62
1
 40
0.000000
 41
0.000000
 66
  1
  0
VERTEX
  8
gg1
 10
0.561700
 20
1.601300
  0
VERTEX
  8
gg1
 10
0.589700
 20
1.601300
  0
SEQEND
  8
gg1
  0
POLYLINE
  8
gg1
 62
1
 40
0.000000
 41
0.000000
 66
  1
  0
VERTEX
  8
gg1
 10
0.575700
 20
1.587300
  0
VERTEX
  8
gg1
 10
0.575700
 20
1.615300
  0
SEQEND
  8
gg1
  0
POLYLINE
  8
gg1
 62
1
 40
0.000000
 41
0.000000
 66
  1
  0
VERTEX
  8
gg1
 10
0.955400
 20
1.601300
  0
VERTEX
  8
gg1
 10
0.983400
 20
1.601300
  0
SEQEND
  8
gg1
  0
POLYLINE
  8
gg1
 62
1
 40
0.000000
 41
0.000000
 66
  1
  0
VERTEX
  8
gg1
 10
0.969400
 20
1.587300
  0
VERTEX
  8
gg1
 10
0.969400
 20
1.615300
  0
SEQEND
  8
gg1
  0
POLYLINE
  8
gg1
 62
1
 40
0.000000
 41
0.000000
 66
  1
  0
VERTEX
  8
gg1
 10
1.034100
 20
1.601300
  0
VERTEX
  8
gg1
 10
1.062100
 20
1.601300
  0
SEQEND
  8
gg1
  0
POLYLINE
  8
gg1
 62
1
 40
0.000000
 41
0.000000
 66
  1
  0
VERTEX
  8
gg1
 10
1.048100
 20
1.587300
  0
VERTEX
  8
gg1
 10
1.048100
 20
1.615300
  0
SEQEND
  8
gg1
  0
POLYLINE
  8
gg1
 62
1
 40
0.000000
 41
0.000000
 66
  1
  0
VERTEX
  8
gg1
 10
1.112800
 20
1.601300
  0
VERTEX
  8
gg1
 10
1.140800
 20
1.601300
  0
SEQEND
  8
gg1
  0
POLYLINE
  8
gg1
 62
1
 40
0.000000
 41
0.000000
 66
  1
  0
VERTEX
  8
gg1
 10
1.126900
 20
1.587300
  0
VERTEX
  8
gg1
 10
1.126900
 20
1.615300
  0
SEQEND
  8
gg1
  0
POLYLINE
  8
gg1
 62
1
 40
0.000000
 41
0.000000
 66
  1
  0
VERTEX
  8
gg1
 10
1.191600
 20
1.601300
  0
VERTEX
  8
gg1
 10
1.219600
 20
1.601300
  0
SEQEND
  8
gg1
  0
POLYLINE
  8
gg1
 62
1
 40
0.000000
 41
0.000000
 66
  1
  0
VERTEX
  8
gg1
 10
1.205600
 20
1.587300
  0
VERTEX
  8
gg1
 10
1.205600
 20
1.615300
  0
SEQEND
  8
gg1
  0
POLYLINE
  8
gg1
 62
1
 40
0.000000
 41
0.000000
 66
  1
  0
VERTEX
  8
gg1
 10
1.270300
 20
1.601300
  0
VERTEX
  8
gg1
 10
1.298300
 20
1.601300
  0
SEQEND
  8
gg1
  0
POLYLINE
  8
gg1
 62
1
 40
0.000000
 41
0.000000
 66
  1
  0
VERTEX
  8
gg1
 10
1.284300
 20
1.587300
  0
VERTEX
  8
gg1
 10
1.284300
 20
1.615300
  0
SEQEND
  8
gg1
  0
POLYLINE
  8
gg1
 62
1
 40
0.000000
 41
0.000000
 66
  1
  0
VERTEX
  8
gg1
 10
0.955400
 20
1.680000
  0
VERTEX
  8
gg1
 10
0.983400
 20
1.680000
  0
SEQEND
  8
gg1
  0
POLYLINE
  8
gg1
 62
1
 40
0.000000
 41
0.000000
 66
  1
  0
VERTEX
  8
gg1
 10
0.969400
 20
1.666000
  0
VERTEX
  8
gg1
 10
0.969400
 20
1.694000
  0
SEQEND
  8
gg1
  0
POLYLINE
  8
gg1
 62
1
 40
0.000000
 41
0.000000
 66
  1
  0
VERTEX
  8
gg1
 10
1.034100
 20
1.680000
  0
VERTEX
  8
gg1
 10
1.062100
 20
1.680000
  0
SEQEND
  8
gg1
  0
POLYLINE
  8
gg1
 62
1
 40
0.000000
 41
0.000000
 66
  1
  0
VERTEX
  8
gg1
 10
1.048100
 20
1.666000
  0
VERTEX
  8
gg1
 10
1.048100
 20
1.694000
  0
SEQEND
  8
gg1
  0
POLYLINE
  8
gg1
 62
1
 40
0.000000
 41
0.000000
 66
  1
  0
VERTEX
  8
gg1
 10
1.112800
 20
1.680000
  0
VERTEX
  8
gg1
 10
1.140800
 20
1.680000
  0
SEQEND
  8
gg1
  0
POLYLINE
  8
gg1
 62
1
 40
0.000000
 41
0.000000
 66
  1
  0
VERTEX
  8
gg1
 10
1.126900
 20
1.666000
  0
VERTEX
  8
gg1
 10
1.126900
 20
1.694000
  0
SEQEND
  8
gg1
  0
POLYLINE
  8
gg1
 62
1
 40
0.000000
 41
0.000000
 66
  1
  0
VERTEX
  8
gg1
 10
1.191600
 20
1.680000
  0
VERTEX
  8
gg1
 10
1.219600
 20
1.680000
  0
SEQEND
  8
gg1
  0
POLYLINE
  8
gg1
 62
1
 40
0.000000
 41
0.000000
 66
  1
  0
VERTEX
  8
gg1
 10
1.205600
 20
1.666000
  0
VERTEX
  8
gg1
 10
1.205600
 20
1.694000
  0
SEQEND
  8
gg1
  0
POLYLINE
  8
gg1
 62
1
 40
0.000000
 41
0.000000
 66
  1
  0
VERTEX
  8
gg1
 10
1.270300
 20
1.680000
  0
VERTEX
  8
gg1
 10
1.298300
 20
1.680000
  0
SEQEND
  8
gg1
  0
POLYLINE
  8
gg1
 62
1
 40
0.000000
 41
0.000000
 66
  1
  0
VERTEX
  8
gg1
 10
1.284300
 20
1.666000
  0
VERTEX
  8
gg1
 10
1.284300
 20
1.694000
  0
SEQEND
  8
gg1
  0
POLYLINE
  8
gg1
 62
1
 40
0.000000
 41
0.000000
 66
  1
  0
VERTEX
  8
gg1
 10
1.759000
 20
1.475000
  0
VERTEX
  8
gg1
 10
1.801000
 20
1.475000
  0
SEQEND
  8
gg1
  0
POLYLINE
  8
gg1
 62
1
 40
0.000000
 41
0.000000
 66
  1
  0
VERTEX
  8
gg1
 10
1.780000
 20
1.454000
  0
VERTEX
  8
gg1
 10
1.780000
 20
1.496000
  0
SEQEND
  8
gg1
  0
POLYLINE
  8
gg1
 62
1
 40
0.000000
 41
0.000000
 66
  1
  0
VERTEX
  8
gg1
 10
1.759000
 20
1.675000
  0
VERTEX
  8
gg1
 10
1.801000
 20
1.675000
  0
SEQEND
  8
gg1
  0
POLYLINE
  8
gg1
 62
1
 40
0.000000
 41
0.000000
 66
  1
  0
VERTEX
  8
gg1
 10
1.780000
 20
1.654000
  0
VERTEX
  8
gg1
 10
1.780000
 20
1.696000
  0
SEQEND
  8
gg1
  0
POLYLINE
  8
gg1
 62
1
 40
0.000000
 41
0.000000
 66
  1
  0
VERTEX
  8
gg1
 10
1.759000
 20
1.575000
  0
VERTEX
  8
gg1
 10
1.801000
 20
1.575000
  0
SEQEND
  8
gg1
  0
POLYLINE
  8
gg1
 62
1
 40
0.000000
 41
0.000000
 66
  1
  0
VERTEX
  8
gg1
 10
1.780000
 20
1.554000
  0
VERTEX
  8
gg1
 10
1.780000
 20
1.596000
  0
SEQEND
  8
gg1
  0
POLYLINE
  8
gg1
 62
1
 40
0.000000
 41
0.000000
 66
  1
  0
VERTEX
  8
gg1
 10
1.759000
 20
1.375000
  0
VERTEX
  8
gg1
 10
1.801000
 20
1.375000
  0
SEQEND
  8
gg1
  0
POLYLINE
  8
gg1
 62
1
 40
0.000000
 41
0.000000
 66
  1
  0
VERTEX
  8
gg1
 10
1.780000
 20
1.354000
  0
VERTEX
  8
gg1
 10
1.780000
 20
1.396000
  0
SEQEND
  8
gg1
  0
POLYLINE
  8
gg1
 62
1
 40
0.000000
 41
0.000000
 66
  1
  0
VERTEX
  8
gg1
 10
1.759000
 20
1.275000
  0
VERTEX
  8
gg1
 10
1.801000
 20
1.275000
  0
SEQEND
  8
gg1
  0
POLYLINE
  8
gg1
 62
1
 40
0.000000
 41
0.000000
 66
  1
  0
VERTEX
  8
gg1
 10
1.780000
 20
1.254000
  0
VERTEX
  8
gg1
 10
1.780000
 20
1.296000
  0
SEQEND
  8
gg1
  0
POLYLINE
  8
gg1
 62
1
 40
0.000000
 41
0.000000
 66
  1
  0
VERTEX
  8
gg1
 10
0.057000
 20
1.596000
  0
VERTEX
  8
gg1
 10
0.099000
 20
1.596000
  0
SEQEND
  8
gg1
  0
POLYLINE
  8
gg1
 62
1
 40
0.000000
 41
0.000000
 66
  1
  0
VERTEX
  8
gg1
 10
0.078000
 20
1.575000
  0
VERTEX
  8
gg1
 10
0.078000
 20
1.617000
  0
SEQEND
  8
gg1
  0
POLYLINE
  8
gg1
 62
1
 40
0.000000
 41
0.000000
 66
  1
  0
VERTEX
  8
gg1
 10
0.057000
 20
1.496000
  0
VERTEX
  8
gg1
 10
0.099000
 20
1.496000
  0
SEQEND
  8
gg1
  0
POLYLINE
  8
gg1
 62
1
 40
0.000000
 41
0.000000
 66
  1
  0
VERTEX
  8
gg1
 10
0.078000
 20
1.475000
  0
VERTEX
  8
gg1
 10
0.078000
 20
1.517000
  0
SEQEND
  8
gg1
  0
POLYLINE
  8
gg1
 62
1
 40
0.000000
 41
0.000000
 66
  1
  0
VERTEX
  8
gg1
 10
1.558000
 20
0.980000
  0
VERTEX
  8
gg1
 10
1.600000
 20
0.980000
  0
SEQEND
  8
gg1
  0
POLYLINE
  8
gg1
 62
1
 40
0.000000
 41
0.000000
 66
  1
  0
VERTEX
  8
gg1
 10
1.579000
 20
0.959000
  0
VERTEX
  8
gg1
 10
1.579000
 20
1.001000
  0
SEQEND
  8
gg1
  0
POLYLINE
  8
gg1
 62
1
 40
0.000000
 41
0.000000
 66
  1
  0
VERTEX
  8
gg1
 10
1.658000
 20
0.980000
  0
VERTEX
  8
gg1
 10
1.700000
 20
0.980000
  0
SEQEND
  8
gg1
  0
POLYLINE
  8
gg1
 62
1
 40
0.000000
 41
0.000000
 66
  1
  0
VERTEX
  8
gg1
 10
1.679000
 20
0.959000
  0
VERTEX
  8
gg1
 10
1.679000
 20
1.001000
  0
SEQEND
  8
gg1
  0
POLYLINE
  8
gg1
 62
1
 40
0.000000
 41
0.000000
 66
  1
  0
VERTEX
  8
gg1
 10
1.758000
 20
0.980000
  0
VERTEX
  8
gg1
 10
1.800000
 20
0.980000
  0
SEQEND
  8
gg1
  0
POLYLINE
  8
gg1
 62
1
 40
0.000000
 41
0.000000
 66
  1
  0
VERTEX
  8
gg1
 10
1.779000
 20
0.959000
  0
VERTEX
  8
gg1
 10
1.779000
 20
1.001000
  0
SEQEND
  8
gg1
  0
POLYLINE
  8
gg1
 62
1
 40
0.000000
 41
0.000000
 66
  1
  0
VERTEX
  8
gg1
 10
0.154000
 20
0.945000
  0
VERTEX
  8
gg1
 10
0.196000
 20
0.945000
  0
SEQEND
  8
gg1
  0
POLYLINE
  8
gg1
 62
1
 40
0.000000
 41
0.000000
 66
  1
  0
VERTEX
  8
gg1
 10
0.175000
 20
0.924000
  0
VERTEX
  8
gg1
 10
0.175000
 20
0.966000
  0
SEQEND
  8
gg1
  0
POLYLINE
  8
gg1
 62
1
 40
0.000000
 41
0.000000
 66
  1
  0
VERTEX
  8
gg1
 10
0.154000
 20
0.845000
  0
VERTEX
  8
gg1
 10
0.196000
 20
0.845000
  0
SEQEND
  8
gg1
  0
POLYLINE
  8
gg1
 62
1
 40
0.000000
 41
0.000000
 66
  1
  0
VERTEX
  8
gg1
 10
0.175000
 20
0.824000
  0
VERTEX
  8
gg1
 10
0.175000
 20
0.866000
  0
SEQEND
  8
gg1
  0
POLYLINE
  8
gg1
 62
1
 40
0.000000
 41
0.000000
 66
  1
  0
VERTEX
  8
gg1
 10
0.154000
 20
0.745000
  0
VERTEX
  8
gg1
 10
0.196000
 20
0.745000
  0
SEQEND
  8
gg1
  0
POLYLINE
  8
gg1
 62
1
 40
0.000000
 41
0.000000
 66
  1
  0
VERTEX
  8
gg1
 10
0.175000
 20
0.724000
  0
VERTEX
  8
gg1
 10
0.175000
 20
0.766000
  0
SEQEND
  8
gg1
  0
POLYLINE
  8
gg1
 62
1
 40
0.000000
 41
0.000000
 66
  1
  0
VERTEX
  8
gg1
 10
0.154000
 20
0.645000
  0
VERTEX
  8
gg1
 10
0.196000
 20
0.645000
  0
SEQEND
  8
gg1
  0
POLYLINE
  8
gg1
 62
1
 40
0.000000
 41
0.000000
 66
  1
  0
VERTEX
  8
gg1
 10
0.175000
 20
0.624000
  0
VERTEX
  8
gg1
 10
0.175000
 20
0.666000
  0
SEQEND
  8
gg1
  0
POLYLINE
  8
gg1
 62
1
 40
0.000000
 41
0.000000
 66
  1
  0
VERTEX
  8
gg1
 10
0.154000
 20
0.545000
  0
VERTEX
  8
gg1
 10
0.196000
 20
0.545000
  0
SEQEND
  8
gg1
  0
POLYLINE
  8
gg1
 62
1
 40
0.000000
 41
0.000000
 66
  1
  0
VERTEX
  8
gg1
 10
0.175000
 20
0.524000
  0
VERTEX
  8
gg1
 10
0.175000
 20
0.566000
  0
SEQEND
  8
gg1
  0
POLYLINE
  8
gg1
 62
1
 40
0.000000
 41
0.000000
 66
  1
  0
VERTEX
  8
gg1
 10
1.655000
 20
1.199000
  0
VERTEX
  8
gg1
 10
1.675000
 20
1.199000
  0
SEQEND
  8
gg1
  0
POLYLINE
  8
gg1
 62
1
 40
0.000000
 41
0.000000
 66
  1
  0
VERTEX
  8
gg1
 10
1.665000
 20
1.189000
  0
VERTEX
  8
gg1
 10
1.665000
 20
1.209000
  0
SEQEND
  8
gg1
  0
POLYLINE
  8
gg1
 62
1
 40
0.000000
 41
0.000000
 66
  1
  0
VERTEX
  8
gg1
 10
1.759000
 20
1.113000
  0
VERTEX
  8
gg1
 10
1.779000
 20
1.113000
  0
SEQEND
  8
gg1
  0
POLYLINE
  8
gg1
 62
1
 40
0.000000
 41
0.000000
 66
  1
  0
VERTEX
  8
gg1
 10
1.769000
 20
1.103000
  0
VERTEX
  8
gg1
 10
1.769000
 20
1.123000
  0
SEQEND
  8
gg1
  0
POLYLINE
  8
gg1
 62
1
 40
0.000000
 41
0.000000
 66
  1
  0
VERTEX
  8
gg1
 10
1.638000
 20
1.520000
  0
VERTEX
  8
gg1
 10
1.658000
 20
1.520000
  0
SEQEND
  8
gg1
  0
POLYLINE
  8
gg1
 62
1
 40
0.000000
 41
0.000000
 66
  1
  0
VERTEX
  8
gg1
 10
1.648000
 20
1.510000
  0
VERTEX
  8
gg1
 10
1.648000
 20
1.530000
  0
SEQEND
  8
gg1
  0
POLYLINE
  8
gg1
 62
1
 40
0.000000
 41
0.000000
 66
  1
  0
VERTEX
  8
gg1
 10
1.626000
 20
1.322000
  0
VERTEX
  8
gg1
 10
1.646000
 20
1.322000
  0
SEQEND
  8
gg1
  0
POLYLINE
  8
gg1
 62
1
 40
0.000000
 41
0.000000
 66
  1
  0
VERTEX
  8
gg1
 10
1.636000
 20
1.312000
  0
VERTEX
  8
gg1
 10
1.636000
 20
1.332000
  0
SEQEND
  8
gg1
  0
POLYLINE
  8
gg1
 62
1
 40
0.000000
 41
0.000000
 66
  1
  0
VERTEX
  8
gg1
 10
1.611000
 20
1.581000
  0
VERTEX
  8
gg1
 10
1.631000
 20
1.581000
  0
SEQEND
  8
gg1
  0
POLYLINE
  8
gg1
 62
1
 40
0.000000
 41
0.000000
 66
  1
  0
VERTEX
  8
gg1
 10
1.621000
 20
1.571000
  0
VERTEX
  8
gg1
 10
1.621000
 20
1.591000
  0
SEQEND
  8
gg1
  0
POLYLINE
  8
gg1
 62
1
 40
0.000000
 41
0.000000
 66
  1
  0
VERTEX
  8
gg1
 10
1.647000
 20
1.630000
  0
VERTEX
  8
gg1
 10
1.667000
 20
1.630000
  0
SEQEND
  8
gg1
  0
POLYLINE
  8
gg1
 62
1
 40
0.000000
 41
0.000000
 66
  1
  0
VERTEX
  8
gg1
 10
1.657000
 20
1.620000
  0
VERTEX
  8
gg1
 10
1.657000
 20
1.640000
  0
SEQEND
  8
gg1
  0
POLYLINE
  8
gg1
 62
1
 40
0.000000
 41
0.000000
 66
  1
  0
VERTEX
  8
gg1
 10
1.317000
 20
1.484000
  0
VERTEX
  8
gg1
 10
1.337000
 20
1.484000
  0
SEQEND
  8
gg1
  0
POLYLINE
  8
gg1
 62
1
 40
0.000000
 41
0.000000
 66
  1
  0
VERTEX
  8
gg1
 10
1.327000
 20
1.474000
  0
VERTEX
  8
gg1
 10
1.327000
 20
1.494000
  0
SEQEND
  8
gg1
  0
POLYLINE
  8
gg1
 62
1
 40
0.000000
 41
0.000000
 66
  1
  0
VERTEX
  8
gg1
 10
1.781000
 20
0.658000
  0
VERTEX
  8
gg1
 10
1.801000
 20
0.658000
  0
SEQEND
  8
gg1
  0
POLYLINE
  8
gg1
 62
1
 40
0.000000
 41
0.000000
 66
  1
  0
VERTEX
  8
gg1
 10
1.791000
 20
0.648000
  0
VERTEX
  8
gg1
 10
1.791000
 20
0.668000
  0
SEQEND
  8
gg1
  0
POLYLINE
  8
gg1
 62
1
 40
0.000000
 41
0.000000
 66
  1
  0
VERTEX
  8
gg1
 10
1.781000
 20
0.520000
  0
VERTEX
  8
gg1
 10
1.801000
 20
0.520000
  0
SEQEND
  8
gg1
  0
POLYLINE
  8
gg1
 62
1
 40
0.000000
 41
0.000000
 66
  1
  0
VERTEX
  8
gg1
 10
1.791000
 20
0.510000
  0
VERTEX
  8
gg1
 10
1.791000
 20
0.530000
  0
SEQEND
  8
gg1
  0
POLYLINE
  8
gg1
 62
1
 40
0.000000
 41
0.000000
 66
  1
  0
VERTEX
  8
gg1
 10
1.355000
 20
0.501000
  0
VERTEX
  8
gg1
 10
1.375000
 20
0.501000
  0
SEQEND
  8
gg1
  0
POLYLINE
  8
gg1
 62
1
 40
0.000000
 41
0.000000
 66
  1
  0
VERTEX
  8
gg1
 10
1.365000
 20
0.491000
  0
VERTEX
  8
gg1
 10
1.365000
 20
0.511000
  0
SEQEND
  8
gg1
  0
POLYLINE
  8
gg1
 62
1
 40
0.000000
 41
0.000000
 66
  1
  0
VERTEX
  8
gg1
 10
1.165000
 20
0.409000
  0
VERTEX
  8
gg1
 10
1.185000
 20
0.409000
  0
SEQEND
  8
gg1
  0
POLYLINE
  8
gg1
 62
1
 40
0.000000
 41
0.000000
 66
  1
  0
VERTEX
  8
gg1
 10
1.175000
 20
0.399000
  0
VERTEX
  8
gg1
 10
1.175000
 20
0.419000
  0
SEQEND
  8
gg1
  0
POLYLINE
  8
gg1
 62
1
 40
0.000000
 41
0.000000
 66
  1
  0
VERTEX
  8
gg1
 10
0.052000
 20
1.246000
  0
VERTEX
  8
gg1
 10
0.072000
 20
1.246000
  0
SEQEND
  8
gg1
  0
POLYLINE
  8
gg1
 62
1
 40
0.000000
 41
0.000000
 66
  1
  0
VERTEX
  8
gg1
 10
0.062000
 20
1.236000
  0
VERTEX
  8
gg1
 10
0.062000
 20
1.256000
  0
SEQEND
  8
gg1
  0
POLYLINE
  8
gg1
 62
1
 40
0.000000
 41
0.000000
 66
  1
  0
VERTEX
  8
gg1
 10
1.638000
 20
1.432000
  0
VERTEX
  8
gg1
 10
1.658000
 20
1.432000
  0
SEQEND
  8
gg1
  0
POLYLINE
  8
gg1
 62
1
 40
0.000000
 41
0.000000
 66
  1
  0
VERTEX
  8
gg1
 10
1.648000
 20
1.422000
  0
VERTEX
  8
gg1
 10
1.648000
 20
1.442000
  0
SEQEND
  8
gg1
  0
POLYLINE
  8
gg1
 62
1
 40
0.000000
 41
0.000000
 66
  1
  0
VERTEX
  8
gg1
 10
1.418000
 20
1.802000
  0
VERTEX
  8
gg1
 10
1.438000
 20
1.802000
  0
SEQEND
  8
gg1
  0
POLYLINE
  8
gg1
 62
1
 40
0.000000
 41
0.000000
 66
  1
  0
VERTEX
  8
gg1
 10
1.428000
 20
1.792000
  0
VERTEX
  8
gg1
 10
1.428000
 20
1.812000
  0
SEQEND
  8
gg1
  0
POLYLINE
  8
gg1
 62
1
 40
0.000000
 41
0.000000
 66
  1
  0
VERTEX
  8
gg1
 10
1.478000
 20
1.803000
  0
VERTEX
  8
gg1
 10
1.498000
 20
1.803000
  0
SEQEND
  8
gg1
  0
POLYLINE
  8
gg1
 62
1
 40
0.000000
 41
0.000000
 66
  1
  0
VERTEX
  8
gg1
 10
1.488000
 20
1.793000
  0
VERTEX
  8
gg1
 10
1.488000
 20
1.813000
  0
SEQEND
  8
gg1
  0
POLYLINE
  8
gg1
 62
1
 40
0.000000
 41
0.000000
 66
  1
  0
VERTEX
  8
gg1
 10
1.537000
 20
1.802000
  0
VERTEX
  8
gg1
 10
1.557000
 20
1.802000
  0
SEQEND
  8
gg1
  0
POLYLINE
  8
gg1
 62
1
 40
0.000000
 41
0.000000
 66
  1
  0
VERTEX
  8
gg1
 10
1.547000
 20
1.792000
  0
VERTEX
  8
gg1
 10
1.547000
 20
1.812000
  0
SEQEND
  8
gg1
  0
POLYLINE
  8
gg1
 62
1
 40
0.000000
 41
0.000000
 66
  1
  0
VERTEX
  8
gg1
 10
1.557000
 20
1.752000
  0
VERTEX
  8
gg1
 10
1.577000
 20
1.752000
  0
SEQEND
  8
gg1
  0
POLYLINE
  8
gg1
 62
1
 40
0.000000
 41
0.000000
 66
  1
  0
VERTEX
  8
gg1
 10
1.567000
 20
1.742000
  0
VERTEX
  8
gg1
 10
1.567000
 20
1.762000
  0
SEQEND
  8
gg1
  0
POLYLINE
  8
gg1
 62
1
 40
0.000000
 41
0.000000
 66
  1
  0
VERTEX
  8
gg1
 10
1.662000
 20
1.727000
  0
VERTEX
  8
gg1
 10
1.682000
 20
1.727000
  0
SEQEND
  8
gg1
  0
POLYLINE
  8
gg1
 62
1
 40
0.000000
 41
0.000000
 66
  1
  0
VERTEX
  8
gg1
 10
1.672000
 20
1.717000
  0
VERTEX
  8
gg1
 10
1.672000
 20
1.737000
  0
SEQEND
  8
gg1
  0
POLYLINE
  8
gg1
 62
1
 40
0.000000
 41
0.000000
 66
  1
  0
VERTEX
  8
gg1
 10
1.603000
 20
1.687000
  0
VERTEX
  8
gg1
 10
1.623000
 20
1.687000
  0
SEQEND
  8
gg1
  0
POLYLINE
  8
gg1
 62
1
 40
0.000000
 41
0.000000
 66
  1
  0
VERTEX
  8
gg1
 10
1.613000
 20
1.677000
  0
VERTEX
  8
gg1
 10
1.613000
 20
1.697000
  0
SEQEND
  8
gg1
  0
POLYLINE
  8
gg1
 62
1
 40
0.000000
 41
0.000000
 66
  1
  0
VERTEX
  8
gg1
 10
1.500000
 20
1.435000
  0
VERTEX
  8
gg1
 10
1.520000
 20
1.435000
  0
SEQEND
  8
gg1
  0
POLYLINE
  8
gg1
 62
1
 40
0.000000
 41
0.000000
 66
  1
  0
VERTEX
  8
gg1
 10
1.510000
 20
1.425000
  0
VERTEX
  8
gg1
 10
1.510000
 20
1.445000
  0
SEQEND
  8
gg1
  0
POLYLINE
  8
gg1
 62
1
 40
0.000000
 41
0.000000
 66
  1
  0
VERTEX
  8
gg1
 10
1.500000
 20
1.318000
  0
VERTEX
  8
gg1
 10
1.520000
 20
1.318000
  0
SEQEND
  8
gg1
  0
POLYLINE
  8
gg1
 62
1
 40
0.000000
 41
0.000000
 66
  1
  0
VERTEX
  8
gg1
 10
1.510000
 20
1.308000
  0
VERTEX
  8
gg1
 10
1.510000
 20
1.328000
  0
SEQEND
  8
gg1
  0
POLYLINE
  8
gg1
 62
1
 40
0.000000
 41
0.000000
 66
  1
  0
VERTEX
  8
gg1
 10
1.500000
 20
1.376000
  0
VERTEX
  8
gg1
 10
1.520000
 20
1.376000
  0
SEQEND
  8
gg1
  0
POLYLINE
  8
gg1
 62
1
 40
0.000000
 41
0.000000
 66
  1
  0
VERTEX
  8
gg1
 10
1.510000
 20
1.366000
  0
VERTEX
  8
gg1
 10
1.510000
 20
1.386000
  0
SEQEND
  8
gg1
  0
POLYLINE
  8
gg1
 62
1
 40
0.000000
 41
0.000000
 66
  1
  0
VERTEX
  8
gg1
 10
0.635000
 20
0.761000
  0
VERTEX
  8
gg1
 10
0.655000
 20
0.761000
  0
SEQEND
  8
gg1
  0
POLYLINE
  8
gg1
 62
1
 40
0.000000
 41
0.000000
 66
  1
  0
VERTEX
  8
gg1
 10
0.645000
 20
0.751000
  0
VERTEX
  8
gg1
 10
0.645000
 20
0.771000
  0
SEQEND
  8
gg1
  0
POLYLINE
  8
gg1
 62
1
 40
0.000000
 41
0.000000
 66
  1
  0
VERTEX
  8
gg1
 10
0.608000
 20
0.834000
  0
VERTEX
  8
gg1
 10
0.628000
 20
0.834000
  0
SEQEND
  8
gg1
  0
POLYLINE
  8
gg1
 62
1
 40
0.000000
 41
0.000000
 66
  1
  0
VERTEX
  8
gg1
 10
0.618000
 20
0.824000
  0
VERTEX
  8
gg1
 10
0.618000
 20
0.844000
  0
SEQEND
  8
gg1
  0
POLYLINE
  8
gg1
 62
1
 40
0.000000
 41
0.000000
 66
  1
  0
VERTEX
  8
gg1
 10
1.564000
 20
0.662000
  0
VERTEX
  8
gg1
 10
1.584000
 20
0.662000
  0
SEQEND
  8
gg1
  0
POLYLINE
  8
gg1
 62
1
 40
0.000000
 41
0.000000
 66
  1
  0
VERTEX
  8
gg1
 10
1.574000
 20
0.652000
  0
VERTEX
  8
gg1
 10
1.574000
 20
0.672000
  0
SEQEND
  8
gg1
  0
POLYLINE
  8
gg1
 62
1
 40
0.000000
 41
0.000000
 66
  1
  0
VERTEX
  8
gg1
 10
1.485000
 20
0.429000
  0
VERTEX
  8
gg1
 10
1.505000
 20
0.429000
  0
SEQEND
  8
gg1
  0
POLYLINE
  8
gg1
 62
1
 40
0.000000
 41
0.000000
 66
  1
  0
VERTEX
  8
gg1
 10
1.495000
 20
0.419000
  0
VERTEX
  8
gg1
 10
1.495000
 20
0.439000
  0
SEQEND
  8
gg1
  0
POLYLINE
  8
gg1
 62
1
 40
0.000000
 41
0.000000
 66
  1
  0
VERTEX
  8
gg1
 10
1.410000
 20
0.552000
  0
VERTEX
  8
gg1
 10
1.430000
 20
0.552000
  0
SEQEND
  8
gg1
  0
POLYLINE
  8
gg1
 62
1
 40
0.000000
 41
0.000000
 66
  1
  0
VERTEX
  8
gg1
 10
1.420000
 20
0.542000
  0
VERTEX
  8
gg1
 10
1.420000
 20
0.562000
  0
SEQEND
  8
gg1
  0
POLYLINE
  8
gg1
 62
1
 40
0.000000
 41
0.000000
 66
  1
  0
VERTEX
  8
gg1
 10
1.410000
 20
0.502000
  0
VERTEX
  8
gg1
 10
1.430000
 20
0.502000
  0
SEQEND
  8
gg1
  0
POLYLINE
  8
gg1
 62
1
 40
0.000000
 41
0.000000
 66
  1
  0
VERTEX
  8
gg1
 10
1.420000
 20
0.492000
  0
VERTEX
  8
gg1
 10
1.420000
 20
0.512000
  0
SEQEND
  8
gg1
  0
POLYLINE
  8
gg1
 62
1
 40
0.000000
 41
0.000000
 66
  1
  0
VERTEX
  8
gg1
 10
1.355000
 20
0.554000
  0
VERTEX
  8
gg1
 10
1.375000
 20
0.554000
  0
SEQEND
  8
gg1
  0
POLYLINE
  8
gg1
 62
1
 40
0.000000
 41
0.000000
 66
  1
  0
VERTEX
  8
gg1
 10
1.365000
 20
0.544000
  0
VERTEX
  8
gg1
 10
1.365000
 20
0.564000
  0
SEQEND
  8
gg1
  0
POLYLINE
  8
gg1
 62
1
 40
0.000000
 41
0.000000
 66
  1
  0
VERTEX
  8
gg1
 10
1.559000
 20
0.505000
  0
VERTEX
  8
gg1
 10
1.579000
 20
0.505000
  0
SEQEND
  8
gg1
  0
POLYLINE
  8
gg1
 62
1
 40
0.000000
 41
0.000000
 66
  1
  0
VERTEX
  8
gg1
 10
1.569000
 20
0.495000
  0
VERTEX
  8
gg1
 10
1.569000
 20
0.515000
  0
SEQEND
  8
gg1
  0
POLYLINE
  8
gg1
 62
1
 40
0.000000
 41
0.000000
 66
  1
  0
VERTEX
  8
gg1
 10
1.537000
 20
0.554000
  0
VERTEX
  8
gg1
 10
1.557000
 20
0.554000
  0
SEQEND
  8
gg1
  0
POLYLINE
  8
gg1
 62
1
 40
0.000000
 41
0.000000
 66
  1
  0
VERTEX
  8
gg1
 10
1.547000
 20
0.544000
  0
VERTEX
  8
gg1
 10
1.547000
 20
0.564000
  0
SEQEND
  8
gg1
  0
POLYLINE
  8
gg1
 62
1
 40
0.000000
 41
0.000000
 66
  1
  0
VERTEX
  8
gg1
 10
1.535000
 20
0.612000
  0
VERTEX
  8
gg1
 10
1.555000
 20
0.612000
  0
SEQEND
  8
gg1
  0
POLYLINE
  8
gg1
 62
1
 40
0.000000
 41
0.000000
 66
  1
  0
VERTEX
  8
gg1
 10
1.545000
 20
0.602000
  0
VERTEX
  8
gg1
 10
1.545000
 20
0.622000
  0
SEQEND
  8
gg1
  0
POLYLINE
  8
gg1
 62
1
 40
0.000000
 41
0.000000
 66
  1
  0
VERTEX
  8
gg1
 10
1.464000
 20
0.610000
  0
VERTEX
  8
gg1
 10
1.484000
 20
0.610000
  0
SEQEND
  8
gg1
  0
POLYLINE
  8
gg1
 62
1
 40
0.000000
 41
0.000000
 66
  1
  0
VERTEX
  8
gg1
 10
1.474000
 20
0.600000
  0
VERTEX
  8
gg1
 10
1.474000
 20
0.620000
  0
SEQEND
  8
gg1
  0
POLYLINE
  8
gg1
 62
1
 40
0.000000
 41
0.000000
 66
  1
  0
VERTEX
  8
gg1
 10
1.399000
 20
0.610000
  0
VERTEX
  8
gg1
 10
1.419000
 20
0.610000
  0
SEQEND
  8
gg1
  0
POLYLINE
  8
gg1
 62
1
 40
0.000000
 41
0.000000
 66
  1
  0
VERTEX
  8
gg1
 10
1.409000
 20
0.600000
  0
VERTEX
  8
gg1
 10
1.409000
 20
0.620000
  0
SEQEND
  8
gg1
  0
POLYLINE
  8
gg1
 62
1
 40
0.000000
 41
0.000000
 66
  1
  0
VERTEX
  8
gg1
 10
1.338000
 20
0.610000
  0
VERTEX
  8
gg1
 10
1.358000
 20
0.610000
  0
SEQEND
  8
gg1
  0
POLYLINE
  8
gg1
 62
1
 40
0.000000
 41
0.000000
 66
  1
  0
VERTEX
  8
gg1
 10
1.348000
 20
0.600000
  0
VERTEX
  8
gg1
 10
1.348000
 20
0.620000
  0
SEQEND
  8
gg1
  0
POLYLINE
  8
gg1
 62
1
 40
0.000000
 41
0.000000
 66
  1
  0
VERTEX
  8
gg1
 10
1.277000
 20
0.610000
  0
VERTEX
  8
gg1
 10
1.297000
 20
0.610000
  0
SEQEND
  8
gg1
  0
POLYLINE
  8
gg1
 62
1
 40
0.000000
 41
0.000000
 66
  1
  0
VERTEX
  8
gg1
 10
1.287000
 20
0.600000
  0
VERTEX
  8
gg1
 10
1.287000
 20
0.620000
  0
SEQEND
  8
gg1
  0
POLYLINE
  8
gg1
 62
1
 40
0.000000
 41
0.000000
 66
  1
  0
VERTEX
  8
gg1
 10
1.548000
 20
1.684000
  0
VERTEX
  8
gg1
 10
1.568000
 20
1.684000
  0
SEQEND
  8
gg1
  0
POLYLINE
  8
gg1
 62
1
 40
0.000000
 41
0.000000
 66
  1
  0
VERTEX
  8
gg1
 10
1.558000
 20
1.674000
  0
VERTEX
  8
gg1
 10
1.558000
 20
1.694000
  0
SEQEND
  8
gg1
  0
POLYLINE
  8
gg1
 62
1
 40
0.000000
 41
0.000000
 66
  1
  0
VERTEX
  8
gg1
 10
1.345000
 20
1.639000
  0
VERTEX
  8
gg1
 10
1.365000
 20
1.639000
  0
SEQEND
  8
gg1
  0
POLYLINE
  8
gg1
 62
1
 40
0.000000
 41
0.000000
 66
  1
  0
VERTEX
  8
gg1
 10
1.355000
 20
1.629000
  0
VERTEX
  8
gg1
 10
1.355000
 20
1.649000
  0
SEQEND
  8
gg1
  0
POLYLINE
  8
gg1
 62
1
 40
0.000000
 41
0.000000
 66
  1
  0
VERTEX
  8
gg1
 10
1.424000
 20
1.682000
  0
VERTEX
  8
gg1
 10
1.444000
 20
1.682000
  0
SEQEND
  8
gg1
  0
POLYLINE
  8
gg1
 62
1
 40
0.000000
 41
0.000000
 66
  1
  0
VERTEX
  8
gg1
 10
1.434000
 20
1.672000
  0
VERTEX
  8
gg1
 10
1.434000
 20
1.692000
  0
SEQEND
  8
gg1
  0
POLYLINE
  8
gg1
 62
1
 40
0.000000
 41
0.000000
 66
  1
  0
VERTEX
  8
gg1
 10
1.524000
 20
1.624000
  0
VERTEX
  8
gg1
 10
1.544000
 20
1.624000
  0
SEQEND
  8
gg1
  0
POLYLINE
  8
gg1
 62
1
 40
0.000000
 41
0.000000
 66
  1
  0
VERTEX
  8
gg1
 10
1.534000
 20
1.614000
  0
VERTEX
  8
gg1
 10
1.534000
 20
1.634000
  0
SEQEND
  8
gg1
  0
POLYLINE
  8
gg1
 62
1
 40
0.000000
 41
0.000000
 66
  1
  0
VERTEX
  8
gg1
 10
1.492000
 20
1.683000
  0
VERTEX
  8
gg1
 10
1.512000
 20
1.683000
  0
SEQEND
  8
gg1
  0
POLYLINE
  8
gg1
 62
1
 40
0.000000
 41
0.000000
 66
  1
  0
VERTEX
  8
gg1
 10
1.502000
 20
1.673000
  0
VERTEX
  8
gg1
 10
1.502000
 20
1.693000
  0
SEQEND
  8
gg1
  0
POLYLINE
  8
gg1
 62
1
 40
0.000000
 41
0.000000
 66
  1
  0
VERTEX
  8
gg1
 10
1.462000
 20
1.624000
  0
VERTEX
  8
gg1
 10
1.482000
 20
1.624000
  0
SEQEND
  8
gg1
  0
POLYLINE
  8
gg1
 62
1
 40
0.000000
 41
0.000000
 66
  1
  0
VERTEX
  8
gg1
 10
1.472000
 20
1.614000
  0
VERTEX
  8
gg1
 10
1.472000
 20
1.634000
  0
SEQEND
  8
gg1
  0
POLYLINE
  8
gg1
 62
1
 40
0.000000
 41
0.000000
 66
  1
  0
VERTEX
  8
gg1
 10
1.398000
 20
1.624000
  0
VERTEX
  8
gg1
 10
1.418000
 20
1.624000
  0
SEQEND
  8
gg1
  0
POLYLINE
  8
gg1
 62
1
 40
0.000000
 41
0.000000
 66
  1
  0
VERTEX
  8
gg1
 10
1.408000
 20
1.614000
  0
VERTEX
  8
gg1
 10
1.408000
 20
1.634000
  0
SEQEND
  8
gg1
  0
POLYLINE
  8
gg1
 62
1
 40
0.000000
 41
0.000000
 66
  1
  0
VERTEX
  8
gg1
 10
1.364000
 20
1.691000
  0
VERTEX
  8
gg1
 10
1.384000
 20
1.691000
  0
SEQEND
  8
gg1
  0
POLYLINE
  8
gg1
 62
1
 40
0.000000
 41
0.000000
 66
  1
  0
VERTEX
  8
gg1
 10
1.374000
 20
1.681000
  0
VERTEX
  8
gg1
 10
1.374000
 20
1.701000
  0
SEQEND
  8
gg1
  0
POLYLINE
  8
gg1
 62
1
 40
0.000000
 41
0.000000
 66
  1
  0
VERTEX
  8
gg1
 10
1.417000
 20
0.941000
  0
VERTEX
  8
gg1
 10
1.437000
 20
0.941000
  0
SEQEND
  8
gg1
  0
POLYLINE
  8
gg1
 62
1
 40
0.000000
 41
0.000000
 66
  1
  0
VERTEX
  8
gg1
 10
1.427000
 20
0.931000
  0
VERTEX
  8
gg1
 10
1.427000
 20
0.951000
  0
SEQEND
  8
gg1
  0
POLYLINE
  8
gg1
 62
1
 40
0.000000
 41
0.000000
 66
  1
  0
VERTEX
  8
gg1
 10
1.272000
 20
0.745000
  0
VERTEX
  8
gg1
 10
1.292000
 20
0.745000
  0
SEQEND
  8
gg1
  0
POLYLINE
  8
gg1
 62
1
 40
0.000000
 41
0.000000
 66
  1
  0
VERTEX
  8
gg1
 10
1.282000
 20
0.735000
  0
VERTEX
  8
gg1
 10
1.282000
 20
0.755000
  0
SEQEND
  8
gg1
  0
POLYLINE
  8
gg1
 62
1
 40
0.000000
 41
0.000000
 66
  1
  0
VERTEX
  8
gg1
 10
1.272000
 20
0.809000
  0
VERTEX
  8
gg1
 10
1.292000
 20
0.809000
  0
SEQEND
  8
gg1
  0
POLYLINE
  8
gg1
 62
1
 40
0.000000
 41
0.000000
 66
  1
  0
VERTEX
  8
gg1
 10
1.282000
 20
0.799000
  0
VERTEX
  8
gg1
 10
1.282000
 20
0.819000
  0
SEQEND
  8
gg1
  0
POLYLINE
  8
gg1
 62
1
 40
0.000000
 41
0.000000
 66
  1
  0
VERTEX
  8
gg1
 10
1.272000
 20
0.869000
  0
VERTEX
  8
gg1
 10
1.292000
 20
0.869000
  0
SEQEND
  8
gg1
  0
POLYLINE
  8
gg1
 62
1
 40
0.000000
 41
0.000000
 66
  1
  0
VERTEX
  8
gg1
 10
1.282000
 20
0.859000
  0
VERTEX
  8
gg1
 10
1.282000
 20
0.879000
  0
SEQEND
  8
gg1
  0
POLYLINE
  8
gg1
 62
1
 40
0.000000
 41
0.000000
 66
  1
  0
VERTEX
  8
gg1
 10
1.272000
 20
0.923000
  0
VERTEX
  8
gg1
 10
1.292000
 20
0.923000
  0
SEQEND
  8
gg1
  0
POLYLINE
  8
gg1
 62
1
 40
0.000000
 41
0.000000
 66
  1
  0
VERTEX
  8
gg1
 10
1.282000
 20
0.913000
  0
VERTEX
  8
gg1
 10
1.282000
 20
0.933000
  0
SEQEND
  8
gg1
  0
POLYLINE
  8
gg1
 62
1
 40
0.000000
 41
0.000000
 66
  1
  0
VERTEX
  8
gg1
 10
1.344000
 20
0.941000
  0
VERTEX
  8
gg1
 10
1.364000
 20
0.941000
  0
SEQEND
  8
gg1
  0
POLYLINE
  8
gg1
 62
1
 40
0.000000
 41
0.000000
 66
  1
  0
VERTEX
  8
gg1
 10
1.354000
 20
0.931000
  0
VERTEX
  8
gg1
 10
1.354000
 20
0.951000
  0
SEQEND
  8
gg1
  0
POLYLINE
  8
gg1
 62
1
 40
0.000000
 41
0.000000
 66
  1
  0
VERTEX
  8
gg1
 10
1.742000
 20
0.886000
  0
VERTEX
  8
gg1
 10
1.762000
 20
0.886000
  0
SEQEND
  8
gg1
  0
POLYLINE
  8
gg1
 62
1
 40
0.000000
 41
0.000000
 66
  1
  0
VERTEX
  8
gg1
 10
1.752000
 20
0.876000
  0
VERTEX
  8
gg1
 10
1.752000
 20
0.896000
  0
SEQEND
  8
gg1
  0
POLYLINE
  8
gg1
 62
1
 40
0.000000
 41
0.000000
 66
  1
  0
VERTEX
  8
gg1
 10
1.593000
 20
0.889000
  0
VERTEX
  8
gg1
 10
1.613000
 20
0.889000
  0
SEQEND
  8
gg1
  0
POLYLINE
  8
gg1
 62
1
 40
0.000000
 41
0.000000
 66
  1
  0
VERTEX
  8
gg1
 10
1.603000
 20
0.879000
  0
VERTEX
  8
gg1
 10
1.603000
 20
0.899000
  0
SEQEND
  8
gg1
  0
POLYLINE
  8
gg1
 62
1
 40
0.000000
 41
0.000000
 66
  1
  0
VERTEX
  8
gg1
 10
1.482000
 20
0.940000
  0
VERTEX
  8
gg1
 10
1.502000
 20
0.940000
  0
SEQEND
  8
gg1
  0
POLYLINE
  8
gg1
 62
1
 40
0.000000
 41
0.000000
 66
  1
  0
VERTEX
  8
gg1
 10
1.492000
 20
0.930000
  0
VERTEX
  8
gg1
 10
1.492000
 20
0.950000
  0
SEQEND
  8
gg1
  0
POLYLINE
  8
gg1
 62
1
 40
0.000000
 41
0.000000
 66
  1
  0
VERTEX
  8
gg1
 10
1.548000
 20
0.789000
  0
VERTEX
  8
gg1
 10
1.568000
 20
0.789000
  0
SEQEND
  8
gg1
  0
POLYLINE
  8
gg1
 62
1
 40
0.000000
 41
0.000000
 66
  1
  0
VERTEX
  8
gg1
 10
1.558000
 20
0.779000
  0
VERTEX
  8
gg1
 10
1.558000
 20
0.799000
  0
SEQEND
  8
gg1
  0
POLYLINE
  8
gg1
 62
1
 40
0.000000
 41
0.000000
 66
  1
  0
VERTEX
  8
gg1
 10
1.560000
 20
0.732000
  0
VERTEX
  8
gg1
 10
1.580000
 20
0.732000
  0
SEQEND
  8
gg1
  0
POLYLINE
  8
gg1
 62
1
 40
0.000000
 41
0.000000
 66
  1
  0
VERTEX
  8
gg1
 10
1.570000
 20
0.722000
  0
VERTEX
  8
gg1
 10
1.570000
 20
0.742000
  0
SEQEND
  8
gg1
  0
POLYLINE
  8
gg1
 62
1
 40
0.000000
 41
0.000000
 66
  1
  0
VERTEX
  8
gg1
 10
1.494000
 20
0.741000
  0
VERTEX
  8
gg1
 10
1.514000
 20
0.741000
  0
SEQEND
  8
gg1
  0
POLYLINE
  8
gg1
 62
1
 40
0.000000
 41
0.000000
 66
  1
  0
VERTEX
  8
gg1
 10
1.504000
 20
0.731000
  0
VERTEX
  8
gg1
 10
1.504000
 20
0.751000
  0
SEQEND
  8
gg1
  0
POLYLINE
  8
gg1
 62
1
 40
0.000000
 41
0.000000
 66
  1
  0
VERTEX
  8
gg1
 10
1.479000
 20
0.685000
  0
VERTEX
  8
gg1
 10
1.499000
 20
0.685000
  0
SEQEND
  8
gg1
  0
POLYLINE
  8
gg1
 62
1
 40
0.000000
 41
0.000000
 66
  1
  0
VERTEX
  8
gg1
 10
1.489000
 20
0.675000
  0
VERTEX
  8
gg1
 10
1.489000
 20
0.695000
  0
SEQEND
  8
gg1
  0
POLYLINE
  8
gg1
 62
1
 40
0.000000
 41
0.000000
 66
  1
  0
VERTEX
  8
gg1
 10
1.494000
 20
0.807000
  0
VERTEX
  8
gg1
 10
1.514000
 20
0.807000
  0
SEQEND
  8
gg1
  0
POLYLINE
  8
gg1
 62
1
 40
0.000000
 41
0.000000
 66
  1
  0
VERTEX
  8
gg1
 10
1.504000
 20
0.797000
  0
VERTEX
  8
gg1
 10
1.504000
 20
0.817000
  0
SEQEND
  8
gg1
  0
POLYLINE
  8
gg1
 62
1
 40
0.000000
 41
0.000000
 66
  1
  0
VERTEX
  8
gg1
 10
1.412000
 20
0.684000
  0
VERTEX
  8
gg1
 10
1.432000
 20
0.684000
  0
SEQEND
  8
gg1
  0
POLYLINE
  8
gg1
 62
1
 40
0.000000
 41
0.000000
 66
  1
  0
VERTEX
  8
gg1
 10
1.422000
 20
0.674000
  0
VERTEX
  8
gg1
 10
1.422000
 20
0.694000
  0
SEQEND
  8
gg1
  0
POLYLINE
  8
gg1
 62
1
 40
0.000000
 41
0.000000
 66
  1
  0
VERTEX
  8
gg1
 10
1.345000
 20
0.684000
  0
VERTEX
  8
gg1
 10
1.365000
 20
0.684000
  0
SEQEND
  8
gg1
  0
POLYLINE
  8
gg1
 62
1
 40
0.000000
 41
0.000000
 66
  1
  0
VERTEX
  8
gg1
 10
1.355000
 20
0.674000
  0
VERTEX
  8
gg1
 10
1.355000
 20
0.694000
  0
SEQEND
  8
gg1
  0
POLYLINE
  8
gg1
 62
1
 40
0.000000
 41
0.000000
 66
  1
  0
VERTEX
  8
gg1
 10
1.275000
 20
0.684000
  0
VERTEX
  8
gg1
 10
1.295000
 20
0.684000
  0
SEQEND
  8
gg1
  0
POLYLINE
  8
gg1
 62
1
 40
0.000000
 41
0.000000
 66
  1
  0
VERTEX
  8
gg1
 10
1.285000
 20
0.674000
  0
VERTEX
  8
gg1
 10
1.285000
 20
0.694000
  0
SEQEND
  8
gg1
  0
POLYLINE
  8
gg1
 62
1
 40
0.000000
 41
0.000000
 66
  1
  0
VERTEX
  8
gg1
 10
0.410000
 20
0.718000
  0
VERTEX
  8
gg1
 10
0.430000
 20
0.718000
  0
SEQEND
  8
gg1
  0
POLYLINE
  8
gg1
 62
1
 40
0.000000
 41
0.000000
 66
  1
  0
VERTEX
  8
gg1
 10
0.420000
 20
0.708000
  0
VERTEX
  8
gg1
 10
0.420000
 20
0.728000
  0
SEQEND
  8
gg1
  0
POLYLINE
  8
gg1
 62
1
 40
0.000000
 41
0.000000
 66
  1
  0
VERTEX
  8
gg1
 10
0.183000
 20
1.394000
  0
VERTEX
  8
gg1
 10
0.203000
 20
1.394000
  0
SEQEND
  8
gg1
  0
POLYLINE
  8
gg1
 62
1
 40
0.000000
 41
0.000000
 66
  1
  0
VERTEX
  8
gg1
 10
0.193000
 20
1.384000
  0
VERTEX
  8
gg1
 10
0.193000
 20
1.404000
  0
SEQEND
  8
gg1
  0
POLYLINE
  8
gg1
 62
1
 40
0.000000
 41
0.000000
 66
  1
  0
VERTEX
  8
gg1
 10
0.202000
 20
1.212000
  0
VERTEX
  8
gg1
 10
0.222000
 20
1.212000
  0
SEQEND
  8
gg1
  0
POLYLINE
  8
gg1
 62
1
 40
0.000000
 41
0.000000
 66
  1
  0
VERTEX
  8
gg1
 10
0.212000
 20
1.202000
  0
VERTEX
  8
gg1
 10
0.212000
 20
1.222000
  0
SEQEND
  8
gg1
  0
POLYLINE
  8
gg1
 62
1
 40
0.000000
 41
0.000000
 66
  1
  0
VERTEX
  8
gg1
 10
1.290000
 20
1.082000
  0
VERTEX
  8
gg1
 10
1.310000
 20
1.082000
  0
SEQEND
  8
gg1
  0
POLYLINE
  8
gg1
 62
1
 40
0.000000
 41
0.000000
 66
  1
  0
VERTEX
  8
gg1
 10
1.300000
 20
1.072000
  0
VERTEX
  8
gg1
 10
1.300000
 20
1.092000
  0
SEQEND
  8
gg1
  0
POLYLINE
  8
gg1
 62
1
 40
0.000000
 41
0.000000
 66
  1
  0
VERTEX
  8
gg1
 10
1.257000
 20
1.484000
  0
VERTEX
  8
gg1
 10
1.277000
 20
1.484000
  0
SEQEND
  8
gg1
  0
POLYLINE
  8
gg1
 62
1
 40
0.000000
 41
0.000000
 66
  1
  0
VERTEX
  8
gg1
 10
1.267000
 20
1.474000
  0
VERTEX
  8
gg1
 10
1.267000
 20
1.494000
  0
SEQEND
  8
gg1
  0
POLYLINE
  8
gg1
 62
1
 40
0.000000
 41
0.000000
 66
  1
  0
VERTEX
  8
gg1
 10
1.686500
 20
1.138500
  0
VERTEX
  8
gg1
 10
1.706500
 20
1.138500
  0
SEQEND
  8
gg1
  0
POLYLINE
  8
gg1
 62
1
 40
0.000000
 41
0.000000
 66
  1
  0
VERTEX
  8
gg1
 10
1.696500
 20
1.128500
  0
VERTEX
  8
gg1
 10
1.696500
 20
1.148500
  0
SEQEND
  8
gg1
  0
POLYLINE
  8
gg1
 62
1
 40
0.000000
 41
0.000000
 66
  1
  0
VERTEX
  8
gg1
 10
0.655000
 20
1.452000
  0
VERTEX
  8
gg1
 10
0.675000
 20
1.452000
  0
SEQEND
  8
gg1
  0
POLYLINE
  8
gg1
 62
1
 40
0.000000
 41
0.000000
 66
  1
  0
VERTEX
  8
gg1
 10
0.665000
 20
1.442000
  0
VERTEX
  8
gg1
 10
0.665000
 20
1.462000
  0
SEQEND
  8
gg1
  0
POLYLINE
  8
gg1
 62
1
 40
0.000000
 41
0.000000
 66
  1
  0
VERTEX
  8
gg1
 10
0.106800
 20
1.156200
  0
VERTEX
  8
gg1
 10
0.126800
 20
1.156200
  0
SEQEND
  8
gg1
  0
POLYLINE
  8
gg1
 62
1
 40
0.000000
 41
0.000000
 66
  1
  0
VERTEX
  8
gg1
 10
0.116800
 20
1.146200
  0
VERTEX
  8
gg1
 10
0.116800
 20
1.166200
  0
SEQEND
  8
gg1
  0
POLYLINE
  8
gg1
 62
1
 40
0.000000
 41
0.000000
 66
  1
  0
VERTEX
  8
gg1
 10
0.490000
 20
1.539000
  0
VERTEX
  8
gg1
 10
0.510000
 20
1.539000
  0
SEQEND
  8
gg1
  0
POLYLINE
  8
gg1
 62
1
 40
0.000000
 41
0.000000
 66
  1
  0
VERTEX
  8
gg1
 10
0.500000
 20
1.529000
  0
VERTEX
  8
gg1
 10
0.500000
 20
1.549000
  0
SEQEND
  8
gg1
  0
POLYLINE
  8
gg1
 62
1
 40
0.000000
 41
0.000000
 66
  1
  0
VERTEX
  8
gg1
 10
0.177000
 20
1.341000
  0
VERTEX
  8
gg1
 10
0.197000
 20
1.341000
  0
SEQEND
  8
gg1
  0
POLYLINE
  8
gg1
 62
1
 40
0.000000
 41
0.000000
 66
  1
  0
VERTEX
  8
gg1
 10
0.187000
 20
1.331000
  0
VERTEX
  8
gg1
 10
0.187000
 20
1.351000
  0
SEQEND
  8
gg1
  0
POLYLINE
  8
gg1
 62
1
 40
0.000000
 41
0.000000
 66
  1
  0
VERTEX
  8
gg1
 10
0.335000
 20
1.207300
  0
VERTEX
  8
gg1
 10
0.355000
 20
1.207300
  0
SEQEND
  8
gg1
  0
POLYLINE
  8
gg1
 62
1
 40
0.000000
 41
0.000000
 66
  1
  0
VERTEX
  8
gg1
 10
0.345000
 20
1.197300
  0
VERTEX
  8
gg1
 10
0.345000
 20
1.217300
  0
SEQEND
  8
gg1
  0
POLYLINE
  8
gg1
 62
1
 40
0.000000
 41
0.000000
 66
  1
  0
VERTEX
  8
gg1
 10
0.423000
 20
1.103000
  0
VERTEX
  8
gg1
 10
0.443000
 20
1.103000
  0
SEQEND
  8
gg1
  0
POLYLINE
  8
gg1
 62
1
 40
0.000000
 41
0.000000
 66
  1
  0
VERTEX
  8
gg1
 10
0.433000
 20
1.093000
  0
VERTEX
  8
gg1
 10
0.433000
 20
1.113000
  0
SEQEND
  8
gg1
  0
POLYLINE
  8
gg1
 62
1
 40
0.000000
 41
0.000000
 66
  1
  0
VERTEX
  8
gg1
 10
0.420000
 20
0.578000
  0
VERTEX
  8
gg1
 10
0.440000
 20
0.578000
  0
SEQEND
  8
gg1
  0
POLYLINE
  8
gg1
 62
1
 40
0.000000
 41
0.000000
 66
  1
  0
VERTEX
  8
gg1
 10
0.430000
 20
0.568000
  0
VERTEX
  8
gg1
 10
0.430000
 20
0.588000
  0
SEQEND
  8
gg1
  0
POLYLINE
  8
gg1
 62
1
 40
0.000000
 41
0.000000
 66
  1
  0
VERTEX
  8
gg1
 10
0.421000
 20
0.648000
  0
VERTEX
  8
gg1
 10
0.441000
 20
0.648000
  0
SEQEND
  8
gg1
  0
POLYLINE
  8
gg1
 62
1
 40
0.000000
 41
0.000000
 66
  1
  0
VERTEX
  8
gg1
 10
0.431000
 20
0.638000
  0
VERTEX
  8
gg1
 10
0.431000
 20
0.658000
  0
SEQEND
  8
gg1
  0
POLYLINE
  8
gg1
 62
1
 40
0.000000
 41
0.000000
 66
  1
  0
VERTEX
  8
gg1
 10
0.104000
 20
1.314000
  0
VERTEX
  8
gg1
 10
0.124000
 20
1.314000
  0
SEQEND
  8
gg1
  0
POLYLINE
  8
gg1
 62
1
 40
0.000000
 41
0.000000
 66
  1
  0
VERTEX
  8
gg1
 10
0.114000
 20
1.304000
  0
VERTEX
  8
gg1
 10
0.114000
 20
1.324000
  0
SEQEND
  8
gg1
  0
POLYLINE
  8
gg1
 62
1
 40
0.000000
 41
0.000000
 66
  1
  0
VERTEX
  8
gg1
 10
0.310000
 20
1.557000
  0
VERTEX
  8
gg1
 10
0.330000
 20
1.557000
  0
SEQEND
  8
gg1
  0
POLYLINE
  8
gg1
 62
1
 40
0.000000
 41
0.000000
 66
  1
  0
VERTEX
  8
gg1
 10
0.320000
 20
1.547000
  0
VERTEX
  8
gg1
 10
0.320000
 20
1.567000
  0
SEQEND
  8
gg1
  0
POLYLINE
  8
gg1
 62
1
 40
0.000000
 41
0.000000
 66
  1
  0
VERTEX
  8
gg1
 10
0.478000
 20
1.606000
  0
VERTEX
  8
gg1
 10
0.498000
 20
1.606000
  0
SEQEND
  8
gg1
  0
POLYLINE
  8
gg1
 62
1
 40
0.000000
 41
0.000000
 66
  1
  0
VERTEX
  8
gg1
 10
0.488000
 20
1.596000
  0
VERTEX
  8
gg1
 10
0.488000
 20
1.616000
  0
SEQEND
  8
gg1
  0
POLYLINE
  8
gg1
 62
1
 40
0.000000
 41
0.000000
 66
  1
  0
VERTEX
  8
gg1
 10
0.471200
 20
0.871800
  0
VERTEX
  8
gg1
 10
0.491200
 20
0.871800
  0
SEQEND
  8
gg1
  0
POLYLINE
  8
gg1
 62
1
 40
0.000000
 41
0.000000
 66
  1
  0
VERTEX
  8
gg1
 10
0.481200
 20
0.861800
  0
VERTEX
  8
gg1
 10
0.481200
 20
0.881800
  0
SEQEND
  8
gg1
  0
POLYLINE
  8
gg1
 62
1
 40
0.000000
 41
0.000000
 66
  1
  0
VERTEX
  8
gg1
 10
0.432000
 20
1.209000
  0
VERTEX
  8
gg1
 10
0.452000
 20
1.209000
  0
SEQEND
  8
gg1
  0
POLYLINE
  8
gg1
 62
1
 40
0.000000
 41
0.000000
 66
  1
  0
VERTEX
  8
gg1
 10
0.442000
 20
1.199000
  0
VERTEX
  8
gg1
 10
0.442000
 20
1.219000
  0
SEQEND
  8
gg1
  0
POLYLINE
  8
gg1
 62
1
 40
0.000000
 41
0.000000
 66
  1
  0
VERTEX
  8
gg1
 10
0.488000
 20
1.416000
  0
VERTEX
  8
gg1
 10
0.508000
 20
1.416000
  0
SEQEND
  8
gg1
  0
POLYLINE
  8
gg1
 62
1
 40
0.000000
 41
0.000000
 66
  1
  0
VERTEX
  8
gg1
 10
0.498000
 20
1.406000
  0
VERTEX
  8
gg1
 10
0.498000
 20
1.426000
  0
SEQEND
  8
gg1
  0
POLYLINE
  8
gg1
 62
1
 40
0.000000
 41
0.000000
 66
  1
  0
VERTEX
  8
gg1
 10
1.394000
 20
1.750000
  0
VERTEX
  8
gg1
 10
1.414000
 20
1.750000
  0
SEQEND
  8
gg1
  0
POLYLINE
  8
gg1
 62
1
 40
0.000000
 41
0.000000
 66
  1
  0
VERTEX
  8
gg1
 10
1.404000
 20
1.740000
  0
VERTEX
  8
gg1
 10
1.404000
 20
1.760000
  0
SEQEND
  8
gg1
  0
POLYLINE
  8
gg1
 62
1
 40
0.000000
 41
0.000000
 66
  1
  0
VERTEX
  8
gg1
 10
0.990000
 20
0.450000
  0
VERTEX
  8
gg1
 10
1.010000
 20
0.450000
  0
SEQEND
  8
gg1
  0
POLYLINE
  8
gg1
 62
1
 40
0.000000
 41
0.000000
 66
  1
  0
VERTEX
  8
gg1
 10
1.000000
 20
0.440000
  0
VERTEX
  8
gg1
 10
1.000000
 20
0.460000
  0
SEQEND
  8
gg1
  0
POLYLINE
  8
gg1
 62
1
 40
0.000000
 41
0.000000
 66
  1
  0
VERTEX
  8
gg1
 10
1.275000
 20
1.009000
  0
VERTEX
  8
gg1
 10
1.295000
 20
1.009000
  0
SEQEND
  8
gg1
  0
POLYLINE
  8
gg1
 62
1
 40
0.000000
 41
0.000000
 66
  1
  0
VERTEX
  8
gg1
 10
1.285000
 20
0.999000
  0
VERTEX
  8
gg1
 10
1.285000
 20
1.019000
  0
SEQEND
  8
gg1
  0
POLYLINE
  8
gg1
 62
1
 40
0.000000
 41
0.000000
 66
  1
  0
VERTEX
  8
gg1
 10
0.489000
 20
1.186000
  0
VERTEX
  8
gg1
 10
0.509000
 20
1.186000
  0
SEQEND
  8
gg1
  0
POLYLINE
  8
gg1
 62
1
 40
0.000000
 41
0.000000
 66
  1
  0
VERTEX
  8
gg1
 10
0.499000
 20
1.176000
  0
VERTEX
  8
gg1
 10
0.499000
 20
1.196000
  0
SEQEND
  8
gg1
  0
POLYLINE
  8
gg1
 62
1
 40
0.000000
 41
0.000000
 66
  1
  0
VERTEX
  8
gg1
 10
0.476000
 20
1.301000
  0
VERTEX
  8
gg1
 10
0.496000
 20
1.301000
  0
SEQEND
  8
gg1
  0
POLYLINE
  8
gg1
 62
1
 40
0.000000
 41
0.000000
 66
  1
  0
VERTEX
  8
gg1
 10
0.486000
 20
1.291000
  0
VERTEX
  8
gg1
 10
0.486000
 20
1.311000
  0
SEQEND
  8
gg1
  0
POLYLINE
  8
gg1
 62
1
 40
0.000000
 41
0.000000
 66
  1
  0
VERTEX
  8
gg1
 10
0.624000
 20
0.458000
  0
VERTEX
  8
gg1
 10
0.644000
 20
0.458000
  0
SEQEND
  8
gg1
  0
POLYLINE
  8
gg1
 62
1
 40
0.000000
 41
0.000000
 66
  1
  0
VERTEX
  8
gg1
 10
0.634000
 20
0.448000
  0
VERTEX
  8
gg1
 10
0.634000
 20
0.468000
  0
SEQEND
  8
gg1
  0
POLYLINE
  8
gg1
 62
1
 40
0.000000
 41
0.000000
 66
  1
  0
VERTEX
  8
gg1
 10
0.170000
 20
1.249000
  0
VERTEX
  8
gg1
 10
0.190000
 20
1.249000
  0
SEQEND
  8
gg1
  0
POLYLINE
  8
gg1
 62
1
 40
0.000000
 41
0.000000
 66
  1
  0
VERTEX
  8
gg1
 10
0.180000
 20
1.239000
  0
VERTEX
  8
gg1
 10
0.180000
 20
1.259000
  0
SEQEND
  8
gg1
  0
POLYLINE
  8
gg1
 62
1
 40
0.000000
 41
0.000000
 66
  1
  0
VERTEX
  8
gg1
 10
1.061000
 20
0.578000
  0
VERTEX
  8
gg1
 10
1.081000
 20
0.578000
  0
SEQEND
  8
gg1
  0
POLYLINE
  8
gg1
 62
1
 40
0.000000
 41
0.000000
 66
  1
  0
VERTEX
  8
gg1
 10
1.071000
 20
0.568000
  0
VERTEX
  8
gg1
 10
1.071000
 20
0.588000
  0
SEQEND
  8
gg1
  0
POLYLINE
  8
gg1
 62
1
 40
0.000000
 41
0.000000
 66
  1
  0
VERTEX
  8
gg1
 10
1.710000
 20
1.727000
  0
VERTEX
  8
gg1
 10
1.730000
 20
1.727000
  0
SEQEND
  8
gg1
  0
POLYLINE
  8
gg1
 62
1
 40
0.000000
 41
0.000000
 66
  1
  0
VERTEX
  8
gg1
 10
1.720000
 20
1.717000
  0
VERTEX
  8
gg1
 10
1.720000
 20
1.737000
  0
SEQEND
  8
gg1
  0
POLYLINE
  8
gg1
 62
1
 40
0.000000
 41
0.000000
 66
  1
  0
VERTEX
  8
gg1
 10
1.782000
 20
0.589000
  0
VERTEX
  8
gg1
 10
1.802000
 20
0.589000
  0
SEQEND
  8
gg1
  0
POLYLINE
  8
gg1
 62
1
 40
0.000000
 41
0.000000
 66
  1
  0
VERTEX
  8
gg1
 10
1.792000
 20
0.579000
  0
VERTEX
  8
gg1
 10
1.792000
 20
0.599000
  0
SEQEND
  8
gg1
  0
POLYLINE
  8
gg1
 62
1
 40
0.000000
 41
0.000000
 66
  1
  0
VERTEX
  8
gg1
 10
1.494000
 20
0.866000
  0
VERTEX
  8
gg1
 10
1.514000
 20
0.866000
  0
SEQEND
  8
gg1
  0
POLYLINE
  8
gg1
 62
1
 40
0.000000
 41
0.000000
 66
  1
  0
VERTEX
  8
gg1
 10
1.504000
 20
0.856000
  0
VERTEX
  8
gg1
 10
1.504000
 20
0.876000
  0
SEQEND
  8
gg1
  0
POLYLINE
  8
gg1
 62
1
 40
0.000000
 41
0.000000
 66
  1
  0
VERTEX
  8
gg1
 10
1.666000
 20
0.897000
  0
VERTEX
  8
gg1
 10
1.686000
 20
0.897000
  0
SEQEND
  8
gg1
  0
POLYLINE
  8
gg1
 62
1
 40
0.000000
 41
0.000000
 66
  1
  0
VERTEX
  8
gg1
 10
1.676000
 20
0.887000
  0
VERTEX
  8
gg1
 10
1.676000
 20
0.907000
  0
SEQEND
  8
gg1
  0
POLYLINE
  8
gg1
 62
1
 40
0.000000
 41
0.000000
 66
  1
  0
VERTEX
  8
gg1
 10
1.552000
 20
0.845000
  0
VERTEX
  8
gg1
 10
1.572000
 20
0.845000
  0
SEQEND
  8
gg1
  0
POLYLINE
  8
gg1
 62
1
 40
0.000000
 41
0.000000
 66
  1
  0
VERTEX
  8
gg1
 10
1.562000
 20
0.835000
  0
VERTEX
  8
gg1
 10
1.562000
 20
0.855000
  0
SEQEND
  8
gg1
  0
POLYLINE
  8
gg1
 62
1
 40
0.000000
 41
0.000000
 66
  1
  0
VERTEX
  8
gg1
 10
1.583000
 20
1.631000
  0
VERTEX
  8
gg1
 10
1.603000
 20
1.631000
  0
SEQEND
  8
gg1
  0
POLYLINE
  8
gg1
 62
1
 40
0.000000
 41
0.000000
 66
  1
  0
VERTEX
  8
gg1
 10
1.593000
 20
1.621000
  0
VERTEX
  8
gg1
 10
1.593000
 20
1.641000
  0
SEQEND
  8
gg1
  0
POLYLINE
  8
gg1
 62
1
 40
0.000000
 41
0.000000
 66
  1
  0
VERTEX
  8
gg1
 10
1.296000
 20
1.350000
  0
VERTEX
  8
gg1
 10
1.316000
 20
1.350000
  0
SEQEND
  8
gg1
  0
POLYLINE
  8
gg1
 62
1
 40
0.000000
 41
0.000000
 66
  1
  0
VERTEX
  8
gg1
 10
1.306000
 20
1.340000
  0
VERTEX
  8
gg1
 10
1.306000
 20
1.360000
  0
SEQEND
  8
gg1
  0
POLYLINE
  8
gg1
 62
1
 40
0.000000
 41
0.000000
 66
  1
  0
VERTEX
  8
gg1
 10
0.633000
 20
1.381000
  0
VERTEX
  8
gg1
 10
0.653000
 20
1.381000
  0
SEQEND
  8
gg1
  0
POLYLINE
  8
gg1
 62
1
 40
0.000000
 41
0.000000
 66
  1
  0
VERTEX
  8
gg1
 10
0.643000
 20
1.371000
  0
VERTEX
  8
gg1
 10
0.643000
 20
1.391000
  0
SEQEND
  8
gg1
  0
POLYLINE
  8
gg1
 62
1
 40
0.000000
 41
0.000000
 66
  1
  0
VERTEX
  8
gg1
 10
0.598000
 20
0.528000
  0
VERTEX
  8
gg1
 10
0.618000
 20
0.528000
  0
SEQEND
  8
gg1
  0
POLYLINE
  8
gg1
 62
1
 40
0.000000
 41
0.000000
 66
  1
  0
VERTEX
  8
gg1
 10
0.608000
 20
0.518000
  0
VERTEX
  8
gg1
 10
0.608000
 20
0.538000
  0
SEQEND
  8
gg1
  0
POLYLINE
  8
gg1
 62
1
 40
0.000000
 41
0.000000
 66
  1
  0
VERTEX
  8
gg1
 10
0.606000
 20
0.903000
  0
VERTEX
  8
gg1
 10
0.626000
 20
0.903000
  0
SEQEND
  8
gg1
  0
POLYLINE
  8
gg1
 62
1
 40
0.000000
 41
0.000000
 66
  1
  0
VERTEX
  8
gg1
 10
0.616000
 20
0.893000
  0
VERTEX
  8
gg1
 10
0.616000
 20
0.913000
  0
SEQEND
  8
gg1
  0
POLYLINE
  8
gg1
 62
1
 40
0.000000
 41
0.000000
 66
  1
  0
VERTEX
  8
gg1
 10
1.219000
 20
1.146000
  0
VERTEX
  8
gg1
 10
1.239000
 20
1.146000
  0
SEQEND
  8
gg1
  0
POLYLINE
  8
gg1
 62
1
 40
0.000000
 41
0.000000
 66
  1
  0
VERTEX
  8
gg1
 10
1.229000
 20
1.136000
  0
VERTEX
  8
gg1
 10
1.229000
 20
1.156000
  0
SEQEND
  8
gg1
  0
POLYLINE
  8
gg1
 62
1
 40
0.000000
 41
0.000000
 66
  1
  0
VERTEX
  8
gg1
 10
0.184000
 20
1.472000
  0
VERTEX
  8
gg1
 10
0.204000
 20
1.472000
  0
SEQEND
  8
gg1
  0
POLYLINE
  8
gg1
 62
1
 40
0.000000
 41
0.000000
 66
  1
  0
VERTEX
  8
gg1
 10
0.194000
 20
1.462000
  0
VERTEX
  8
gg1
 10
0.194000
 20
1.482000
  0
SEQEND
  8
gg1
  0
POLYLINE
  8
gg1
 62
1
 40
0.000000
 41
0.000000
 66
  1
  0
VERTEX
  8
gg1
 10
0.393000
 20
1.720000
  0
VERTEX
  8
gg1
 10
0.413000
 20
1.720000
  0
SEQEND
  8
gg1
  0
POLYLINE
  8
gg1
 62
1
 40
0.000000
 41
0.000000
 66
  1
  0
VERTEX
  8
gg1
 10
0.403000
 20
1.710000
  0
VERTEX
  8
gg1
 10
0.403000
 20
1.730000
  0
SEQEND
  8
gg1
  0
POLYLINE
  8
gg1
 62
1
 40
0.000000
 41
0.000000
 66
  1
  0
VERTEX
  8
gg1
 10
0.353000
 20
1.405000
  0
VERTEX
  8
gg1
 10
0.373000
 20
1.405000
  0
SEQEND
  8
gg1
  0
POLYLINE
  8
gg1
 62
1
 40
0.000000
 41
0.000000
 66
  1
  0
VERTEX
  8
gg1
 10
0.363000
 20
1.395000
  0
VERTEX
  8
gg1
 10
0.363000
 20
1.415000
  0
SEQEND
  8
gg1
  0
POLYLINE
  8
gg1
 62
1
 40
0.000000
 41
0.000000
 66
  1
  0
VERTEX
  8
gg1
 10
0.393000
 20
1.365000
  0
VERTEX
  8
gg1
 10
0.413000
 20
1.365000
  0
SEQEND
  8
gg1
  0
POLYLINE
  8
gg1
 62
1
 40
0.000000
 41
0.000000
 66
  1
  0
VERTEX
  8
gg1
 10
0.403000
 20
1.355000
  0
VERTEX
  8
gg1
 10
0.403000
 20
1.375000
  0
SEQEND
  8
gg1
  0
POLYLINE
  8
gg1
 62
1
 40
0.000000
 41
0.000000
 66
  1
  0
VERTEX
  8
gg1
 10
0.393000
 20
1.445000
  0
VERTEX
  8
gg1
 10
0.413000
 20
1.445000
  0
SEQEND
  8
gg1
  0
POLYLINE
  8
gg1
 62
1
 40
0.000000
 41
0.000000
 66
  1
  0
VERTEX
  8
gg1
 10
0.403000
 20
1.435000
  0
VERTEX
  8
gg1
 10
0.403000
 20
1.455000
  0
SEQEND
  8
gg1
  0
POLYLINE
  8
gg1
 62
1
 40
0.000000
 41
0.000000
 66
  1
  0
VERTEX
  8
gg1
 10
0.313000
 20
1.445000
  0
VERTEX
  8
gg1
 10
0.333000
 20
1.445000
  0
SEQEND
  8
gg1
  0
POLYLINE
  8
gg1
 62
1
 40
0.000000
 41
0.000000
 66
  1
  0
VERTEX
  8
gg1
 10
0.323000
 20
1.435000
  0
VERTEX
  8
gg1
 10
0.323000
 20
1.455000
  0
SEQEND
  8
gg1
  0
POLYLINE
  8
gg1
 62
1
 40
0.000000
 41
0.000000
 66
  1
  0
VERTEX
  8
gg1
 10
0.313000
 20
1.365000
  0
VERTEX
  8
gg1
 10
0.333000
 20
1.365000
  0
SEQEND
  8
gg1
  0
POLYLINE
  8
gg1
 62
1
 40
0.000000
 41
0.000000
 66
  1
  0
VERTEX
  8
gg1
 10
0.323000
 20
1.355000
  0
VERTEX
  8
gg1
 10
0.323000
 20
1.375000
  0
SEQEND
  8
gg1
  0
ENDSEC
  0
EOF
