  0
SECTION
  2
HEADER
  9
$EXTMIN
 10
-0.177000
 20
-0.178000
  9
$EXTMAX
 10
0.455000
 20
0.555000
  9
$LIMMIN
 10
-0.177000
 20
-0.178000
  9
$LIMMAX
 10
0.455000
 20
0.555000
  9
$FILLMODE
 70
  1
  0
ENDSEC
  0
SECTION
  2
TABLES
  0
TABLE
  2
LTYPE
 70
  1
  0
LTYPE
  2
CONTINUOUS
 70
 64
  3
Solid line
 72
 65
 73
  0
 40
0.0
  0
ENDTAB
  0
TABLE
  2
LAYER
 70
 1
  0
LAYER
  2
0
 70
  0
 62
7
  6
CONTINUOUS
  0
LAYER
  2
gg1
 70
  0
 62
1
  6
CONTINUOUS
  0
ENDTAB
  0
TABLE
  2
STYLE
 70
  1
  0
STYLE
  2
STANDARD
 70
  0
 40
0.0
 41
1.0
 50
0.0
 71
  0
 42
0.2
  3
txt
  4

  0
ENDTAB
  0
ENDSEC
  0
SECTION
  2
BLOCKS
  0
BLOCK
  8
0
  2
D10
 70
64
 10
0.0
 20
0.0
  3
D10
  0
CIRCLE
  8
0
 10
0.000000
 20
0.000000
 40
0.005000
 0
ENDBLK
  8
0
  0
BLOCK
  8
0
  2
D11
 70
64
 10
0.0
 20
0.0
  3
D11
  0
CIRCLE
  8
0
 10
0.000000
 20
0.000000
 40
0.002500
 0
ENDBLK
  8
0
  0
BLOCK
  8
0
  2
D12
 70
64
 10
0.0
 20
0.0
  3
D12
  0
CIRCLE
  8
0
 10
0.000000
 20
0.000000
 40
0.003000
 0
ENDBLK
  8
0
  0
ENDSEC
  0
SECTION
  2
ENTITIES
  0
POLYLINE
  8
gg1
 62
1
 40
0.000000
 41
0.000000
 66
  1
  0
VERTEX
  8
gg1
 10
0.000000
 20
-0.150000
  0
VERTEX
  8
gg1
 10
0.000000
 20
-0.010000
  0
SEQEND
  8
gg1
  0
POLYLINE
  8
gg1
 62
1
 40
0.000000
 41
0.000000
 66
  1
  0
VERTEX
  8
gg1
 10
0.350000
 20
-0.150000
  0
VERTEX
  8
gg1
 10
0.350000
 20
-0.010000
  0
SEQEND
  8
gg1
  0
POLYLINE
  8
gg1
 62
1
 40
0.000000
 41
0.000000
 66
  1
  0
VERTEX
  8
gg1
 10
0.350000
 20
-0.140000
  0
VERTEX
  8
gg1
 10
0.450000
 20
-0.140000
  0
SEQEND
  8
gg1
  0
POLYLINE
  8
gg1
 62
1
 40
0.000000
 41
0.000000
 66
  1
  0
VERTEX
  8
gg1
 10
-0.100000
 20
-0.140000
  0
VERTEX
  8
gg1
 10
0.000000
 20
-0.140000
  0
SEQEND
  8
gg1
  0
POLYLINE
  8
gg1
 62
1
 40
0.000000
 41
0.000000
 66
  1
  0
VERTEX
  8
gg1
 10
0.350000
 20
-0.140000
  0
VERTEX
  8
gg1
 10
0.410000
 20
-0.160000
  0
SEQEND
  8
gg1
  0
POLYLINE
  8
gg1
 62
1
 40
0.000000
 41
0.000000
 66
  1
  0
VERTEX
  8
gg1
 10
0.350000
 20
-0.140000
  0
VERTEX
  8
gg1
 10
0.410000
 20
-0.120000
  0
SEQEND
  8
gg1
  0
POLYLINE
  8
gg1
 62
1
 40
0.000000
 41
0.000000
 66
  1
  0
VERTEX
  8
gg1
 10
-0.060000
 20
-0.120000
  0
VERTEX
  8
gg1
 10
0.000000
 20
-0.140000
  0
SEQEND
  8
gg1
  0
POLYLINE
  8
gg1
 62
1
 40
0.000000
 41
0.000000
 66
  1
  0
VERTEX
  8
gg1
 10
-0.060000
 20
-0.160000
  0
VERTEX
  8
gg1
 10
0.000000
 20
-0.140000
  0
SEQEND
  8
gg1
  0
POLYLINE
  8
gg1
 62
1
 40
0.000000
 41
0.000000
 66
  1
  0
VERTEX
  8
gg1
 10
-0.160000
 20
0.000000
  0
VERTEX
  8
gg1
 10
-0.010000
 20
0.000000
  0
SEQEND
  8
gg1
  0
POLYLINE
  8
gg1
 62
1
 40
0.000000
 41
0.000000
 66
  1
  0
VERTEX
  8
gg1
 10
-0.160000
 20
0.450000
  0
VERTEX
  8
gg1
 10
-0.010000
 20
0.450000
  0
SEQEND
  8
gg1
  0
POLYLINE
  8
gg1
 62
1
 40
0.000000
 41
0.000000
 66
  1
  0
VERTEX
  8
gg1
 10
-0.150000
 20
0.450000
  0
VERTEX
  8
gg1
 10
-0.150000
 20
0.550000
  0
SEQEND
  8
gg1
  0
POLYLINE
  8
gg1
 62
1
 40
0.000000
 41
0.000000
 66
  1
  0
VERTEX
  8
gg1
 10
-0.150000
 20
-0.100000
  0
VERTEX
  8
gg1
 10
-0.150000
 20
0.000000
  0
SEQEND
  8
gg1
  0
POLYLINE
  8
gg1
 62
1
 40
0.000000
 41
0.000000
 66
  1
  0
VERTEX
  8
gg1
 10
-0.150000
 20
0.450000
  0
VERTEX
  8
gg1
 10
-0.130000
 20
0.510000
  0
SEQEND
  8
gg1
  0
POLYLINE
  8
gg1
 62
1
 40
0.000000
 41
0.000000
 66
  1
  0
VERTEX
  8
gg1
 10
-0.170000
 20
0.510000
  0
VERTEX
  8
gg1
 10
-0.150000
 20
0.450000
  0
SEQEND
  8
gg1
  0
POLYLINE
  8
gg1
 62
1
 40
0.000000
 41
0.000000
 66
  1
  0
VERTEX
  8
gg1
 10
-0.170000
 20
-0.060000
  0
VERTEX
  8
gg1
 10
-0.150000
 20
0.000000
  0
VERTEX
  8
gg1
 10
-0.130000
 20
-0.060000
  0
SEQEND
  8
gg1
  0
POLYLINE
  8
gg1
 62
1
 40
0.000000
 41
0.000000
 66
  1
  0
VERTEX
  8
gg1
 10
0.000000
 20
0.000000
  0
VERTEX
  8
gg1
 10
0.000000
 20
0.450000
  0
SEQEND
  8
gg1
  0
POLYLINE
  8
gg1
 62
1
 40
0.000000
 41
0.000000
 66
  1
  0
VERTEX
  8
gg1
 10
0.000000
 20
0.000000
  0
VERTEX
  8
gg1
 10
0.350000
 20
0.000000
  0
VERTEX
  8
gg1
 10
0.350000
 20
0.450000
  0
SEQEND
  8
gg1
  0
POLYLINE
  8
gg1
 62
1
 40
0.000000
 41
0.000000
 66
  1
  0
VERTEX
  8
gg1
 10
0.000000
 20
0.450000
  0
VERTEX
  8
gg1
 10
0.350000
 20
0.450000
  0
SEQEND
  8
gg1
  0
POLYLINE
  8
gg1
 62
1
 40
0.000000
 41
0.000000
 66
  1
  0
VERTEX
  8
gg1
 10
0.055000
 20
0.050000
  0
VERTEX
  8
gg1
 10
0.095000
 20
0.050000
  0
SEQEND
  8
gg1
  0
POLYLINE
  8
gg1
 62
1
 40
0.000000
 41
0.000000
 66
  1
  0
VERTEX
  8
gg1
 10
0.075000
 20
0.030000
  0
VERTEX
  8
gg1
 10
0.075000
 20
0.070000
  0
SEQEND
  8
gg1
  0
POLYLINE
  8
gg1
 62
1
 40
0.000000
 41
0.000000
 66
  1
  0
VERTEX
  8
gg1
 10
0.155000
 20
0.050000
  0
VERTEX
  8
gg1
 10
0.195000
 20
0.050000
  0
SEQEND
  8
gg1
  0
POLYLINE
  8
gg1
 62
1
 40
0.000000
 41
0.000000
 66
  1
  0
VERTEX
  8
gg1
 10
0.175000
 20
0.030000
  0
VERTEX
  8
gg1
 10
0.175000
 20
0.070000
  0
SEQEND
  8
gg1
  0
POLYLINE
  8
gg1
 62
1
 40
0.000000
 41
0.000000
 66
  1
  0
VERTEX
  8
gg1
 10
0.255000
 20
0.050000
  0
VERTEX
  8
gg1
 10
0.295000
 20
0.050000
  0
SEQEND
  8
gg1
  0
POLYLINE
  8
gg1
 62
1
 40
0.000000
 41
0.000000
 66
  1
  0
VERTEX
  8
gg1
 10
0.275000
 20
0.030000
  0
VERTEX
  8
gg1
 10
0.275000
 20
0.070000
  0
SEQEND
  8
gg1
  0
POLYLINE
  8
gg1
 62
1
 40
0.000000
 41
0.000000
 66
  1
  0
VERTEX
  8
gg1
 10
0.059500
 20
0.362000
  0
VERTEX
  8
gg1
 10
0.074500
 20
0.362000
  0
SEQEND
  8
gg1
  0
POLYLINE
  8
gg1
 62
1
 40
0.000000
 41
0.000000
 66
  1
  0
VERTEX
  8
gg1
 10
0.067000
 20
0.354500
  0
VERTEX
  8
gg1
 10
0.067000
 20
0.369500
  0
SEQEND
  8
gg1
  0
POLYLINE
  8
gg1
 62
1
 40
0.000000
 41
0.000000
 66
  1
  0
VERTEX
  8
gg1
 10
0.207500
 20
0.407500
  0
VERTEX
  8
gg1
 10
0.222500
 20
0.407500
  0
SEQEND
  8
gg1
  0
POLYLINE
  8
gg1
 62
1
 40
0.000000
 41
0.000000
 66
  1
  0
VERTEX
  8
gg1
 10
0.215000
 20
0.400000
  0
VERTEX
  8
gg1
 10
0.215000
 20
0.415000
  0
SEQEND
  8
gg1
  0
POLYLINE
  8
gg1
 62
1
 40
0.000000
 41
0.000000
 66
  1
  0
VERTEX
  8
gg1
 10
0.237500
 20
0.407500
  0
VERTEX
  8
gg1
 10
0.252500
 20
0.407500
  0
SEQEND
  8
gg1
  0
POLYLINE
  8
gg1
 62
1
 40
0.000000
 41
0.000000
 66
  1
  0
VERTEX
  8
gg1
 10
0.245000
 20
0.400000
  0
VERTEX
  8
gg1
 10
0.245000
 20
0.415000
  0
SEQEND
  8
gg1
  0
POLYLINE
  8
gg1
 62
1
 40
0.000000
 41
0.000000
 66
  1
  0
VERTEX
  8
gg1
 10
0.222500
 20
0.250000
  0
VERTEX
  8
gg1
 10
0.237500
 20
0.250000
  0
SEQEND
  8
gg1
  0
POLYLINE
  8
gg1
 62
1
 40
0.000000
 41
0.000000
 66
  1
  0
VERTEX
  8
gg1
 10
0.230000
 20
0.242500
  0
VERTEX
  8
gg1
 10
0.230000
 20
0.257500
  0
SEQEND
  8
gg1
  0
POLYLINE
  8
gg1
 62
1
 40
0.000000
 41
0.000000
 66
  1
  0
VERTEX
  8
gg1
 10
0.240200
 20
0.279500
  0
VERTEX
  8
gg1
 10
0.255200
 20
0.279500
  0
SEQEND
  8
gg1
  0
POLYLINE
  8
gg1
 62
1
 40
0.000000
 41
0.000000
 66
  1
  0
VERTEX
  8
gg1
 10
0.247700
 20
0.272000
  0
VERTEX
  8
gg1
 10
0.247700
 20
0.287000
  0
SEQEND
  8
gg1
  0
POLYLINE
  8
gg1
 62
1
 40
0.000000
 41
0.000000
 66
  1
  0
VERTEX
  8
gg1
 10
0.204800
 20
0.279500
  0
VERTEX
  8
gg1
 10
0.219800
 20
0.279500
  0
SEQEND
  8
gg1
  0
POLYLINE
  8
gg1
 62
1
 40
0.000000
 41
0.000000
 66
  1
  0
VERTEX
  8
gg1
 10
0.212300
 20
0.272000
  0
VERTEX
  8
gg1
 10
0.212300
 20
0.287000
  0
SEQEND
  8
gg1
  0
POLYLINE
  8
gg1
 62
1
 40
0.000000
 41
0.000000
 66
  1
  0
VERTEX
  8
gg1
 10
0.204800
 20
0.220500
  0
VERTEX
  8
gg1
 10
0.219800
 20
0.220500
  0
SEQEND
  8
gg1
  0
POLYLINE
  8
gg1
 62
1
 40
0.000000
 41
0.000000
 66
  1
  0
VERTEX
  8
gg1
 10
0.212300
 20
0.213000
  0
VERTEX
  8
gg1
 10
0.212300
 20
0.228000
  0
SEQEND
  8
gg1
  0
POLYLINE
  8
gg1
 62
1
 40
0.000000
 41
0.000000
 66
  1
  0
VERTEX
  8
gg1
 10
0.240200
 20
0.220500
  0
VERTEX
  8
gg1
 10
0.255200
 20
0.220500
  0
SEQEND
  8
gg1
  0
POLYLINE
  8
gg1
 62
1
 40
0.000000
 41
0.000000
 66
  1
  0
VERTEX
  8
gg1
 10
0.247700
 20
0.213000
  0
VERTEX
  8
gg1
 10
0.247700
 20
0.228000
  0
SEQEND
  8
gg1
  0
POLYLINE
  8
gg1
 62
1
 40
0.000000
 41
0.000000
 66
  1
  0
VERTEX
  8
gg1
 10
0.159500
 20
0.163000
  0
VERTEX
  8
gg1
 10
0.174500
 20
0.163000
  0
SEQEND
  8
gg1
  0
POLYLINE
  8
gg1
 62
1
 40
0.000000
 41
0.000000
 66
  1
  0
VERTEX
  8
gg1
 10
0.167000
 20
0.155500
  0
VERTEX
  8
gg1
 10
0.167000
 20
0.170500
  0
SEQEND
  8
gg1
  0
POLYLINE
  8
gg1
 62
1
 40
0.000000
 41
0.000000
 66
  1
  0
VERTEX
  8
gg1
 10
0.031900
 20
0.355000
  0
VERTEX
  8
gg1
 10
0.046900
 20
0.355000
  0
SEQEND
  8
gg1
  0
POLYLINE
  8
gg1
 62
1
 40
0.000000
 41
0.000000
 66
  1
  0
VERTEX
  8
gg1
 10
0.039400
 20
0.347500
  0
VERTEX
  8
gg1
 10
0.039400
 20
0.362500
  0
SEQEND
  8
gg1
  0
POLYLINE
  8
gg1
 62
1
 40
0.000000
 41
0.000000
 66
  1
  0
VERTEX
  8
gg1
 10
0.177500
 20
0.407500
  0
VERTEX
  8
gg1
 10
0.192500
 20
0.407500
  0
SEQEND
  8
gg1
  0
POLYLINE
  8
gg1
 62
1
 40
0.000000
 41
0.000000
 66
  1
  0
VERTEX
  8
gg1
 10
0.185000
 20
0.400000
  0
VERTEX
  8
gg1
 10
0.185000
 20
0.415000
  0
SEQEND
  8
gg1
  0
POLYLINE
  8
gg1
 62
1
 40
0.000000
 41
0.000000
 66
  1
  0
VERTEX
  8
gg1
 10
0.259500
 20
0.163000
  0
VERTEX
  8
gg1
 10
0.274500
 20
0.163000
  0
SEQEND
  8
gg1
  0
POLYLINE
  8
gg1
 62
1
 40
0.000000
 41
0.000000
 66
  1
  0
VERTEX
  8
gg1
 10
0.267000
 20
0.155500
  0
VERTEX
  8
gg1
 10
0.267000
 20
0.170500
  0
SEQEND
  8
gg1
  0
POLYLINE
  8
gg1
 62
1
 40
0.000000
 41
0.000000
 66
  1
  0
VERTEX
  8
gg1
 10
0.025000
 20
-0.125000
  0
VERTEX
  8
gg1
 10
0.035000
 20
-0.115000
  0
VERTEX
  8
gg1
 10
0.055000
 20
-0.115000
  0
VERTEX
  8
gg1
 10
0.065000
 20
-0.125000
  0
VERTEX
  8
gg1
 10
0.065000
 20
-0.135000
  0
VERTEX
  8
gg1
 10
0.055000
 20
-0.145000
  0
VERTEX
  8
gg1
 10
0.045000
 20
-0.145000
  0
VERTEX
  8
gg1
 10
0.055000
 20
-0.145000
  0
VERTEX
  8
gg1
 10
0.065000
 20
-0.155000
  0
VERTEX
  8
gg1
 10
0.065000
 20
-0.165000
  0
VERTEX
  8
gg1
 10
0.055000
 20
-0.175000
  0
VERTEX
  8
gg1
 10
0.035000
 20
-0.175000
  0
VERTEX
  8
gg1
 10
0.025000
 20
-0.165000
  0
SEQEND
  8
gg1
  0
POLYLINE
  8
gg1
 62
1
 40
0.000000
 41
0.000000
 66
  1
  0
VERTEX
  8
gg1
 10
0.125000
 20
-0.115000
  0
VERTEX
  8
gg1
 10
0.085000
 20
-0.115000
  0
VERTEX
  8
gg1
 10
0.085000
 20
-0.145000
  0
VERTEX
  8
gg1
 10
0.105000
 20
-0.135000
  0
VERTEX
  8
gg1
 10
0.115000
 20
-0.135000
  0
VERTEX
  8
gg1
 10
0.125000
 20
-0.145000
  0
VERTEX
  8
gg1
 10
0.125000
 20
-0.165000
  0
VERTEX
  8
gg1
 10
0.115000
 20
-0.175000
  0
VERTEX
  8
gg1
 10
0.095000
 20
-0.175000
  0
VERTEX
  8
gg1
 10
0.085000
 20
-0.165000
  0
SEQEND
  8
gg1
  0
POLYLINE
  8
gg1
 62
1
 40
0.000000
 41
0.000000
 66
  1
  0
VERTEX
  8
gg1
 10
0.145000
 20
-0.125000
  0
VERTEX
  8
gg1
 10
0.155000
 20
-0.115000
  0
VERTEX
  8
gg1
 10
0.175000
 20
-0.115000
  0
VERTEX
  8
gg1
 10
0.184900
 20
-0.125000
  0
VERTEX
  8
gg1
 10
0.184900
 20
-0.165000
  0
VERTEX
  8
gg1
 10
0.175000
 20
-0.175000
  0
VERTEX
  8
gg1
 10
0.155000
 20
-0.175000
  0
VERTEX
  8
gg1
 10
0.145000
 20
-0.165000
  0
VERTEX
  8
gg1
 10
0.145000
 20
-0.125000
  0
SEQEND
  8
gg1
  0
POLYLINE
  8
gg1
 62
1
 40
0.000000
 41
0.000000
 66
  1
  0
VERTEX
  8
gg1
 10
0.204900
 20
-0.175000
  0
VERTEX
  8
gg1
 10
0.204900
 20
-0.135000
  0
VERTEX
  8
gg1
 10
0.214900
 20
-0.135000
  0
VERTEX
  8
gg1
 10
0.224900
 20
-0.145000
  0
VERTEX
  8
gg1
 10
0.224900
 20
-0.175000
  0
VERTEX
  8
gg1
 10
0.224900
 20
-0.145000
  0
VERTEX
  8
gg1
 10
0.234900
 20
-0.135000
  0
VERTEX
  8
gg1
 10
0.244900
 20
-0.145000
  0
VERTEX
  8
gg1
 10
0.244900
 20
-0.175000
  0
SEQEND
  8
gg1
  0
POLYLINE
  8
gg1
 62
1
 40
0.000000
 41
0.000000
 66
  1
  0
VERTEX
  8
gg1
 10
0.264900
 20
-0.175000
  0
VERTEX
  8
gg1
 10
0.284900
 20
-0.175000
  0
VERTEX
  8
gg1
 10
0.274900
 20
-0.175000
  0
VERTEX
  8
gg1
 10
0.274900
 20
-0.135000
  0
VERTEX
  8
gg1
 10
0.264900
 20
-0.135000
  0
SEQEND
  8
gg1
  0
POLYLINE
  8
gg1
 62
1
 40
0.000000
 41
0.000000
 66
  1
  0
VERTEX
  8
gg1
 10
0.314900
 20
-0.175000
  0
VERTEX
  8
gg1
 10
0.334900
 20
-0.175000
  0
VERTEX
  8
gg1
 10
0.324900
 20
-0.175000
  0
VERTEX
  8
gg1
 10
0.324900
 20
-0.115000
  0
VERTEX
  8
gg1
 10
0.314900
 20
-0.115000
  0
SEQEND
  8
gg1
  0
POLYLINE
  8
gg1
 62
1
 40
0.000000
 41
0.000000
 66
  1
  0
VERTEX
  8
gg1
 10
-0.114000
 20
0.084000
  0
VERTEX
  8
gg1
 10
-0.174000
 20
0.084000
  0
VERTEX
  8
gg1
 10
-0.144000
 20
0.054000
  0
VERTEX
  8
gg1
 10
-0.144000
 20
0.094000
  0
SEQEND
  8
gg1
  0
POLYLINE
  8
gg1
 62
1
 40
0.000000
 41
0.000000
 66
  1
  0
VERTEX
  8
gg1
 10
-0.174000
 20
0.154000
  0
VERTEX
  8
gg1
 10
-0.174000
 20
0.114000
  0
VERTEX
  8
gg1
 10
-0.144000
 20
0.114000
  0
VERTEX
  8
gg1
 10
-0.154000
 20
0.134000
  0
VERTEX
  8
gg1
 10
-0.154000
 20
0.144000
  0
VERTEX
  8
gg1
 10
-0.144000
 20
0.154000
  0
VERTEX
  8
gg1
 10
-0.124000
 20
0.154000
  0
VERTEX
  8
gg1
 10
-0.114000
 20
0.144000
  0
VERTEX
  8
gg1
 10
-0.114000
 20
0.124000
  0
VERTEX
  8
gg1
 10
-0.124000
 20
0.114000
  0
SEQEND
  8
gg1
  0
POLYLINE
  8
gg1
 62
1
 40
0.000000
 41
0.000000
 66
  1
  0
VERTEX
  8
gg1
 10
-0.164000
 20
0.174000
  0
VERTEX
  8
gg1
 10
-0.174000
 20
0.184000
  0
VERTEX
  8
gg1
 10
-0.174000
 20
0.204000
  0
VERTEX
  8
gg1
 10
-0.164000
 20
0.214000
  0
VERTEX
  8
gg1
 10
-0.124000
 20
0.214000
  0
VERTEX
  8
gg1
 10
-0.114000
 20
0.204000
  0
VERTEX
  8
gg1
 10
-0.114000
 20
0.184000
  0
VERTEX
  8
gg1
 10
-0.124000
 20
0.174000
  0
VERTEX
  8
gg1
 10
-0.164000
 20
0.174000
  0
SEQEND
  8
gg1
  0
POLYLINE
  8
gg1
 62
1
 40
0.000000
 41
0.000000
 66
  1
  0
VERTEX
  8
gg1
 10
-0.114000
 20
0.234000
  0
VERTEX
  8
gg1
 10
-0.154000
 20
0.234000
  0
VERTEX
  8
gg1
 10
-0.154000
 20
0.244000
  0
VERTEX
  8
gg1
 10
-0.144000
 20
0.254000
  0
VERTEX
  8
gg1
 10
-0.114000
 20
0.254000
  0
VERTEX
  8
gg1
 10
-0.144000
 20
0.254000
  0
VERTEX
  8
gg1
 10
-0.154000
 20
0.264000
  0
VERTEX
  8
gg1
 10
-0.144000
 20
0.274000
  0
VERTEX
  8
gg1
 10
-0.114000
 20
0.274000
  0
SEQEND
  8
gg1
  0
POLYLINE
  8
gg1
 62
1
 40
0.000000
 41
0.000000
 66
  1
  0
VERTEX
  8
gg1
 10
-0.114000
 20
0.294000
  0
VERTEX
  8
gg1
 10
-0.114000
 20
0.314000
  0
VERTEX
  8
gg1
 10
-0.114000
 20
0.304000
  0
VERTEX
  8
gg1
 10
-0.154000
 20
0.304000
  0
VERTEX
  8
gg1
 10
-0.154000
 20
0.294000
  0
SEQEND
  8
gg1
  0
POLYLINE
  8
gg1
 62
1
 40
0.000000
 41
0.000000
 66
  1
  0
VERTEX
  8
gg1
 10
-0.114000
 20
0.344000
  0
VERTEX
  8
gg1
 10
-0.114000
 20
0.364000
  0
VERTEX
  8
gg1
 10
-0.114000
 20
0.354000
  0
VERTEX
  8
gg1
 10
-0.174000
 20
0.354000
  0
VERTEX
  8
gg1
 10
-0.174000
 20
0.344000
  0
SEQEND
  8
gg1
  0
ENDSEC
  0
EOF
