  0
SECTION
  2
HEADER
  9
$EXTMIN
 10
-0.377000
 20
-0.139000
  9
$EXTMAX
 10
1.155000
 20
1.005000
  9
$LIMMIN
 10
-0.377000
 20
-0.139000
  9
$LIMMAX
 10
1.155000
 20
1.005000
  9
$FILLMODE
 70
  1
  0
ENDSEC
  0
SECTION
  2
TABLES
  0
TABLE
  2
LTYPE
 70
  1
  0
LTYPE
  2
CONTINUOUS
 70
 64
  3
Solid line
 72
 65
 73
  0
 40
0.0
  0
ENDTAB
  0
TABLE
  2
LAYER
 70
 1
  0
LAYER
  2
0
 70
  0
 62
7
  6
CONTINUOUS
  0
LAYER
  2
gg1
 70
  0
 62
1
  6
CONTINUOUS
  0
ENDTAB
  0
TABLE
  2
STYLE
 70
  1
  0
STYLE
  2
STANDARD
 70
  0
 40
0.0
 41
1.0
 50
0.0
 71
  0
 42
0.2
  3
txt
  4

  0
ENDTAB
  0
ENDSEC
  0
SECTION
  2
BLOCKS
  0
BLOCK
  8
0
  2
D10
 70
64
 10
0.0
 20
0.0
  3
D10
  0
CIRCLE
  8
0
 10
0.000000
 20
0.000000
 40
0.005000
 0
ENDBLK
  8
0
  0
BLOCK
  8
0
  2
D11
 70
64
 10
0.0
 20
0.0
  3
D11
  0
CIRCLE
  8
0
 10
0.000000
 20
0.000000
 40
0.002500
 0
ENDBLK
  8
0
  0
BLOCK
  8
0
  2
D12
 70
64
 10
0.0
 20
0.0
  3
D12
  0
CIRCLE
  8
0
 10
0.000000
 20
0.000000
 40
0.003000
 0
ENDBLK
  8
0
  0
ENDSEC
  0
SECTION
  2
ENTITIES
  0
POLYLINE
  8
gg1
 62
1
 40
0.000000
 41
0.000000
 66
  1
  0
VERTEX
  8
gg1
 10
1.150000
 20
-0.110000
  0
VERTEX
  8
gg1
 10
1.150000
 20
-0.010000
  0
SEQEND
  8
gg1
  0
POLYLINE
  8
gg1
 62
1
 40
0.000000
 41
0.000000
 66
  1
  0
VERTEX
  8
gg1
 10
0.000000
 20
-0.110000
  0
VERTEX
  8
gg1
 10
0.000000
 20
-0.010000
  0
SEQEND
  8
gg1
  0
POLYLINE
  8
gg1
 62
1
 40
0.000000
 41
0.000000
 66
  1
  0
VERTEX
  8
gg1
 10
0.749900
 20
-0.100000
  0
VERTEX
  8
gg1
 10
1.150000
 20
-0.100000
  0
SEQEND
  8
gg1
  0
POLYLINE
  8
gg1
 62
1
 40
0.000000
 41
0.000000
 66
  1
  0
VERTEX
  8
gg1
 10
0.000000
 20
-0.100000
  0
VERTEX
  8
gg1
 10
0.368100
 20
-0.100000
  0
SEQEND
  8
gg1
  0
POLYLINE
  8
gg1
 62
1
 40
0.000000
 41
0.000000
 66
  1
  0
VERTEX
  8
gg1
 10
1.090000
 20
-0.080000
  0
VERTEX
  8
gg1
 10
1.150000
 20
-0.100000
  0
SEQEND
  8
gg1
  0
POLYLINE
  8
gg1
 62
1
 40
0.000000
 41
0.000000
 66
  1
  0
VERTEX
  8
gg1
 10
1.090000
 20
-0.120000
  0
VERTEX
  8
gg1
 10
1.150000
 20
-0.100000
  0
SEQEND
  8
gg1
  0
POLYLINE
  8
gg1
 62
1
 40
0.000000
 41
0.000000
 66
  1
  0
VERTEX
  8
gg1
 10
0.000000
 20
-0.100000
  0
VERTEX
  8
gg1
 10
0.060000
 20
-0.120000
  0
SEQEND
  8
gg1
  0
POLYLINE
  8
gg1
 62
1
 40
0.000000
 41
0.000000
 66
  1
  0
VERTEX
  8
gg1
 10
0.000000
 20
-0.100000
  0
VERTEX
  8
gg1
 10
0.060000
 20
-0.080000
  0
SEQEND
  8
gg1
  0
POLYLINE
  8
gg1
 62
1
 40
0.000000
 41
0.000000
 66
  1
  0
VERTEX
  8
gg1
 10
-0.360000
 20
1.000000
  0
VERTEX
  8
gg1
 10
-0.010000
 20
1.000000
  0
SEQEND
  8
gg1
  0
POLYLINE
  8
gg1
 62
1
 40
0.000000
 41
0.000000
 66
  1
  0
VERTEX
  8
gg1
 10
-0.360000
 20
0.000000
  0
VERTEX
  8
gg1
 10
-0.010000
 20
0.000000
  0
SEQEND
  8
gg1
  0
POLYLINE
  8
gg1
 62
1
 40
0.000000
 41
0.000000
 66
  1
  0
VERTEX
  8
gg1
 10
-0.350000
 20
0.679900
  0
VERTEX
  8
gg1
 10
-0.350000
 20
1.000000
  0
SEQEND
  8
gg1
  0
POLYLINE
  8
gg1
 62
1
 40
0.000000
 41
0.000000
 66
  1
  0
VERTEX
  8
gg1
 10
-0.350000
 20
0.000000
  0
VERTEX
  8
gg1
 10
-0.350000
 20
0.288100
  0
SEQEND
  8
gg1
  0
POLYLINE
  8
gg1
 62
1
 40
0.000000
 41
0.000000
 66
  1
  0
VERTEX
  8
gg1
 10
-0.370000
 20
0.940000
  0
VERTEX
  8
gg1
 10
-0.350000
 20
1.000000
  0
VERTEX
  8
gg1
 10
-0.330000
 20
0.940000
  0
SEQEND
  8
gg1
  0
POLYLINE
  8
gg1
 62
1
 40
0.000000
 41
0.000000
 66
  1
  0
VERTEX
  8
gg1
 10
-0.350000
 20
0.000000
  0
VERTEX
  8
gg1
 10
-0.330000
 20
0.060000
  0
SEQEND
  8
gg1
  0
POLYLINE
  8
gg1
 62
1
 40
0.000000
 41
0.000000
 66
  1
  0
VERTEX
  8
gg1
 10
-0.370000
 20
0.060000
  0
VERTEX
  8
gg1
 10
-0.350000
 20
0.000000
  0
SEQEND
  8
gg1
  0
POLYLINE
  8
gg1
 62
1
 40
0.000000
 41
0.000000
 66
  1
  0
VERTEX
  8
gg1
 10
0.000000
 20
0.000000
  0
VERTEX
  8
gg1
 10
1.150000
 20
0.000000
  0
VERTEX
  8
gg1
 10
1.150000
 20
1.000000
  0
SEQEND
  8
gg1
  0
POLYLINE
  8
gg1
 62
1
 40
0.000000
 41
0.000000
 66
  1
  0
VERTEX
  8
gg1
 10
0.000000
 20
1.000000
  0
VERTEX
  8
gg1
 10
1.150000
 20
1.000000
  0
SEQEND
  8
gg1
  0
POLYLINE
  8
gg1
 62
1
 40
0.000000
 41
0.000000
 66
  1
  0
VERTEX
  8
gg1
 10
0.000000
 20
0.000000
  0
VERTEX
  8
gg1
 10
0.000000
 20
1.000000
  0
SEQEND
  8
gg1
  0
POLYLINE
  8
gg1
 62
1
 40
0.000000
 41
0.000000
 66
  1
  0
VERTEX
  8
gg1
 10
0.057000
 20
0.100000
  0
VERTEX
  8
gg1
 10
0.143000
 20
0.100000
  0
SEQEND
  8
gg1
  0
POLYLINE
  8
gg1
 62
1
 40
0.000000
 41
0.000000
 66
  1
  0
VERTEX
  8
gg1
 10
0.100000
 20
0.057000
  0
VERTEX
  8
gg1
 10
0.100000
 20
0.143000
  0
SEQEND
  8
gg1
  0
POLYLINE
  8
gg1
 62
1
 40
0.000000
 41
0.000000
 66
  1
  0
VERTEX
  8
gg1
 10
0.057000
 20
0.900000
  0
VERTEX
  8
gg1
 10
0.143000
 20
0.900000
  0
SEQEND
  8
gg1
  0
POLYLINE
  8
gg1
 62
1
 40
0.000000
 41
0.000000
 66
  1
  0
VERTEX
  8
gg1
 10
0.100000
 20
0.857000
  0
VERTEX
  8
gg1
 10
0.100000
 20
0.943000
  0
SEQEND
  8
gg1
  0
POLYLINE
  8
gg1
 62
1
 40
0.000000
 41
0.000000
 66
  1
  0
VERTEX
  8
gg1
 10
1.007000
 20
0.100000
  0
VERTEX
  8
gg1
 10
1.093000
 20
0.100000
  0
SEQEND
  8
gg1
  0
POLYLINE
  8
gg1
 62
1
 40
0.000000
 41
0.000000
 66
  1
  0
VERTEX
  8
gg1
 10
1.050000
 20
0.057000
  0
VERTEX
  8
gg1
 10
1.050000
 20
0.143000
  0
SEQEND
  8
gg1
  0
POLYLINE
  8
gg1
 62
1
 40
0.000000
 41
0.000000
 66
  1
  0
VERTEX
  8
gg1
 10
1.007000
 20
0.900000
  0
VERTEX
  8
gg1
 10
1.093000
 20
0.900000
  0
SEQEND
  8
gg1
  0
POLYLINE
  8
gg1
 62
1
 40
0.000000
 41
0.000000
 66
  1
  0
VERTEX
  8
gg1
 10
1.050000
 20
0.857000
  0
VERTEX
  8
gg1
 10
1.050000
 20
0.943000
  0
SEQEND
  8
gg1
  0
POLYLINE
  8
gg1
 62
1
 40
0.000000
 41
0.000000
 66
  1
  0
VERTEX
  8
gg1
 10
0.278800
 20
0.268700
  0
VERTEX
  8
gg1
 10
0.338800
 20
0.268700
  0
SEQEND
  8
gg1
  0
POLYLINE
  8
gg1
 62
1
 40
0.000000
 41
0.000000
 66
  1
  0
VERTEX
  8
gg1
 10
0.308800
 20
0.238700
  0
VERTEX
  8
gg1
 10
0.308800
 20
0.298700
  0
SEQEND
  8
gg1
  0
POLYLINE
  8
gg1
 62
1
 40
0.000000
 41
0.000000
 66
  1
  0
VERTEX
  8
gg1
 10
0.278800
 20
0.749100
  0
VERTEX
  8
gg1
 10
0.338800
 20
0.749100
  0
SEQEND
  8
gg1
  0
POLYLINE
  8
gg1
 62
1
 40
0.000000
 41
0.000000
 66
  1
  0
VERTEX
  8
gg1
 10
0.308800
 20
0.719100
  0
VERTEX
  8
gg1
 10
0.308800
 20
0.779100
  0
SEQEND
  8
gg1
  0
POLYLINE
  8
gg1
 62
1
 40
0.000000
 41
0.000000
 66
  1
  0
VERTEX
  8
gg1
 10
0.751200
 20
0.749100
  0
VERTEX
  8
gg1
 10
0.811200
 20
0.749100
  0
SEQEND
  8
gg1
  0
POLYLINE
  8
gg1
 62
1
 40
0.000000
 41
0.000000
 66
  1
  0
VERTEX
  8
gg1
 10
0.781200
 20
0.719100
  0
VERTEX
  8
gg1
 10
0.781200
 20
0.779100
  0
SEQEND
  8
gg1
  0
POLYLINE
  8
gg1
 62
1
 40
0.000000
 41
0.000000
 66
  1
  0
VERTEX
  8
gg1
 10
0.751200
 20
0.268700
  0
VERTEX
  8
gg1
 10
0.811200
 20
0.268700
  0
SEQEND
  8
gg1
  0
POLYLINE
  8
gg1
 62
1
 40
0.000000
 41
0.000000
 66
  1
  0
VERTEX
  8
gg1
 10
0.781200
 20
0.238700
  0
VERTEX
  8
gg1
 10
0.781200
 20
0.298700
  0
SEQEND
  8
gg1
  0
POLYLINE
  8
gg1
 62
1
 40
0.000000
 41
0.000000
 66
  1
  0
VERTEX
  8
gg1
 10
0.515000
 20
0.190000
  0
VERTEX
  8
gg1
 10
0.575000
 20
0.190000
  0
SEQEND
  8
gg1
  0
POLYLINE
  8
gg1
 62
1
 40
0.000000
 41
0.000000
 66
  1
  0
VERTEX
  8
gg1
 10
0.545000
 20
0.160000
  0
VERTEX
  8
gg1
 10
0.545000
 20
0.220000
  0
SEQEND
  8
gg1
  0
POLYLINE
  8
gg1
 62
1
 40
0.000000
 41
0.000000
 66
  1
  0
VERTEX
  8
gg1
 10
0.940000
 20
0.700000
  0
VERTEX
  8
gg1
 10
0.980000
 20
0.700000
  0
SEQEND
  8
gg1
  0
POLYLINE
  8
gg1
 62
1
 40
0.000000
 41
0.000000
 66
  1
  0
VERTEX
  8
gg1
 10
0.960000
 20
0.680000
  0
VERTEX
  8
gg1
 10
0.960000
 20
0.720000
  0
SEQEND
  8
gg1
  0
POLYLINE
  8
gg1
 62
1
 40
0.000000
 41
0.000000
 66
  1
  0
VERTEX
  8
gg1
 10
0.940000
 20
0.500000
  0
VERTEX
  8
gg1
 10
0.980000
 20
0.500000
  0
SEQEND
  8
gg1
  0
POLYLINE
  8
gg1
 62
1
 40
0.000000
 41
0.000000
 66
  1
  0
VERTEX
  8
gg1
 10
0.960000
 20
0.480000
  0
VERTEX
  8
gg1
 10
0.960000
 20
0.520000
  0
SEQEND
  8
gg1
  0
POLYLINE
  8
gg1
 62
1
 40
0.000000
 41
0.000000
 66
  1
  0
VERTEX
  8
gg1
 10
0.940000
 20
0.300000
  0
VERTEX
  8
gg1
 10
0.980000
 20
0.300000
  0
SEQEND
  8
gg1
  0
POLYLINE
  8
gg1
 62
1
 40
0.000000
 41
0.000000
 66
  1
  0
VERTEX
  8
gg1
 10
0.960000
 20
0.280000
  0
VERTEX
  8
gg1
 10
0.960000
 20
0.320000
  0
SEQEND
  8
gg1
  0
POLYLINE
  8
gg1
 62
1
 40
0.000000
 41
0.000000
 66
  1
  0
VERTEX
  8
gg1
 10
0.040000
 20
0.500000
  0
VERTEX
  8
gg1
 10
0.080000
 20
0.500000
  0
SEQEND
  8
gg1
  0
POLYLINE
  8
gg1
 62
1
 40
0.000000
 41
0.000000
 66
  1
  0
VERTEX
  8
gg1
 10
0.060000
 20
0.480000
  0
VERTEX
  8
gg1
 10
0.060000
 20
0.520000
  0
SEQEND
  8
gg1
  0
POLYLINE
  8
gg1
 62
1
 40
0.000000
 41
0.000000
 66
  1
  0
VERTEX
  8
gg1
 10
0.040000
 20
0.400000
  0
VERTEX
  8
gg1
 10
0.080000
 20
0.400000
  0
SEQEND
  8
gg1
  0
POLYLINE
  8
gg1
 62
1
 40
0.000000
 41
0.000000
 66
  1
  0
VERTEX
  8
gg1
 10
0.060000
 20
0.380000
  0
VERTEX
  8
gg1
 10
0.060000
 20
0.420000
  0
SEQEND
  8
gg1
  0
POLYLINE
  8
gg1
 62
1
 40
0.000000
 41
0.000000
 66
  1
  0
VERTEX
  8
gg1
 10
0.040000
 20
0.300000
  0
VERTEX
  8
gg1
 10
0.080000
 20
0.300000
  0
SEQEND
  8
gg1
  0
POLYLINE
  8
gg1
 62
1
 40
0.000000
 41
0.000000
 66
  1
  0
VERTEX
  8
gg1
 10
0.060000
 20
0.280000
  0
VERTEX
  8
gg1
 10
0.060000
 20
0.320000
  0
SEQEND
  8
gg1
  0
POLYLINE
  8
gg1
 62
1
 40
0.000000
 41
0.000000
 66
  1
  0
VERTEX
  8
gg1
 10
1.015000
 20
0.303100
  0
VERTEX
  8
gg1
 10
1.085000
 20
0.303100
  0
SEQEND
  8
gg1
  0
POLYLINE
  8
gg1
 62
1
 40
0.000000
 41
0.000000
 66
  1
  0
VERTEX
  8
gg1
 10
1.050000
 20
0.268100
  0
VERTEX
  8
gg1
 10
1.050000
 20
0.338100
  0
SEQEND
  8
gg1
  0
POLYLINE
  8
gg1
 62
1
 40
0.000000
 41
0.000000
 66
  1
  0
VERTEX
  8
gg1
 10
1.015000
 20
0.696900
  0
VERTEX
  8
gg1
 10
1.085000
 20
0.696900
  0
SEQEND
  8
gg1
  0
POLYLINE
  8
gg1
 62
1
 40
0.000000
 41
0.000000
 66
  1
  0
VERTEX
  8
gg1
 10
1.050000
 20
0.661800
  0
VERTEX
  8
gg1
 10
1.050000
 20
0.731900
  0
SEQEND
  8
gg1
  0
POLYLINE
  8
gg1
 62
1
 40
0.000000
 41
0.000000
 66
  1
  0
VERTEX
  8
gg1
 10
1.015000
 20
0.500000
  0
VERTEX
  8
gg1
 10
1.085000
 20
0.500000
  0
SEQEND
  8
gg1
  0
POLYLINE
  8
gg1
 62
1
 40
0.000000
 41
0.000000
 66
  1
  0
VERTEX
  8
gg1
 10
1.050000
 20
0.465000
  0
VERTEX
  8
gg1
 10
1.050000
 20
0.535000
  0
SEQEND
  8
gg1
  0
POLYLINE
  8
gg1
 62
1
 40
0.000000
 41
0.000000
 66
  1
  0
VERTEX
  8
gg1
 10
0.200000
 20
0.635000
  0
VERTEX
  8
gg1
 10
0.220000
 20
0.635000
  0
SEQEND
  8
gg1
  0
POLYLINE
  8
gg1
 62
1
 40
0.000000
 41
0.000000
 66
  1
  0
VERTEX
  8
gg1
 10
0.210000
 20
0.625000
  0
VERTEX
  8
gg1
 10
0.210000
 20
0.645000
  0
SEQEND
  8
gg1
  0
POLYLINE
  8
gg1
 62
1
 40
0.000000
 41
0.000000
 66
  1
  0
VERTEX
  8
gg1
 10
0.107500
 20
0.562500
  0
VERTEX
  8
gg1
 10
0.127500
 20
0.562500
  0
SEQEND
  8
gg1
  0
POLYLINE
  8
gg1
 62
1
 40
0.000000
 41
0.000000
 66
  1
  0
VERTEX
  8
gg1
 10
0.117500
 20
0.552500
  0
VERTEX
  8
gg1
 10
0.117500
 20
0.572500
  0
SEQEND
  8
gg1
  0
POLYLINE
  8
gg1
 62
1
 40
0.000000
 41
0.000000
 66
  1
  0
VERTEX
  8
gg1
 10
0.860000
 20
0.887500
  0
VERTEX
  8
gg1
 10
0.880000
 20
0.887500
  0
SEQEND
  8
gg1
  0
POLYLINE
  8
gg1
 62
1
 40
0.000000
 41
0.000000
 66
  1
  0
VERTEX
  8
gg1
 10
0.870000
 20
0.877500
  0
VERTEX
  8
gg1
 10
0.870000
 20
0.897500
  0
SEQEND
  8
gg1
  0
POLYLINE
  8
gg1
 62
1
 40
0.000000
 41
0.000000
 66
  1
  0
VERTEX
  8
gg1
 10
0.207000
 20
0.560000
  0
VERTEX
  8
gg1
 10
0.227000
 20
0.560000
  0
SEQEND
  8
gg1
  0
POLYLINE
  8
gg1
 62
1
 40
0.000000
 41
0.000000
 66
  1
  0
VERTEX
  8
gg1
 10
0.217000
 20
0.550000
  0
VERTEX
  8
gg1
 10
0.217000
 20
0.570000
  0
SEQEND
  8
gg1
  0
POLYLINE
  8
gg1
 62
1
 40
0.000000
 41
0.000000
 66
  1
  0
VERTEX
  8
gg1
 10
0.465000
 20
0.075000
  0
VERTEX
  8
gg1
 10
0.485000
 20
0.075000
  0
SEQEND
  8
gg1
  0
POLYLINE
  8
gg1
 62
1
 40
0.000000
 41
0.000000
 66
  1
  0
VERTEX
  8
gg1
 10
0.475000
 20
0.065000
  0
VERTEX
  8
gg1
 10
0.475000
 20
0.085000
  0
SEQEND
  8
gg1
  0
POLYLINE
  8
gg1
 62
1
 40
0.000000
 41
0.000000
 66
  1
  0
VERTEX
  8
gg1
 10
0.565000
 20
0.075000
  0
VERTEX
  8
gg1
 10
0.585000
 20
0.075000
  0
SEQEND
  8
gg1
  0
POLYLINE
  8
gg1
 62
1
 40
0.000000
 41
0.000000
 66
  1
  0
VERTEX
  8
gg1
 10
0.575000
 20
0.065000
  0
VERTEX
  8
gg1
 10
0.575000
 20
0.085000
  0
SEQEND
  8
gg1
  0
POLYLINE
  8
gg1
 62
1
 40
0.000000
 41
0.000000
 66
  1
  0
VERTEX
  8
gg1
 10
0.665000
 20
0.075000
  0
VERTEX
  8
gg1
 10
0.685000
 20
0.075000
  0
SEQEND
  8
gg1
  0
POLYLINE
  8
gg1
 62
1
 40
0.000000
 41
0.000000
 66
  1
  0
VERTEX
  8
gg1
 10
0.675000
 20
0.065000
  0
VERTEX
  8
gg1
 10
0.675000
 20
0.085000
  0
SEQEND
  8
gg1
  0
POLYLINE
  8
gg1
 62
1
 40
0.000000
 41
0.000000
 66
  1
  0
VERTEX
  8
gg1
 10
0.765000
 20
0.075000
  0
VERTEX
  8
gg1
 10
0.785000
 20
0.075000
  0
SEQEND
  8
gg1
  0
POLYLINE
  8
gg1
 62
1
 40
0.000000
 41
0.000000
 66
  1
  0
VERTEX
  8
gg1
 10
0.775000
 20
0.065000
  0
VERTEX
  8
gg1
 10
0.775000
 20
0.085000
  0
SEQEND
  8
gg1
  0
POLYLINE
  8
gg1
 62
1
 40
0.000000
 41
0.000000
 66
  1
  0
VERTEX
  8
gg1
 10
0.865000
 20
0.075000
  0
VERTEX
  8
gg1
 10
0.885000
 20
0.075000
  0
SEQEND
  8
gg1
  0
POLYLINE
  8
gg1
 62
1
 40
0.000000
 41
0.000000
 66
  1
  0
VERTEX
  8
gg1
 10
0.875000
 20
0.065000
  0
VERTEX
  8
gg1
 10
0.875000
 20
0.085000
  0
SEQEND
  8
gg1
  0
POLYLINE
  8
gg1
 62
1
 40
0.000000
 41
0.000000
 66
  1
  0
VERTEX
  8
gg1
 10
0.715000
 20
0.825000
  0
VERTEX
  8
gg1
 10
0.735000
 20
0.825000
  0
SEQEND
  8
gg1
  0
POLYLINE
  8
gg1
 62
1
 40
0.000000
 41
0.000000
 66
  1
  0
VERTEX
  8
gg1
 10
0.725000
 20
0.815000
  0
VERTEX
  8
gg1
 10
0.725000
 20
0.835000
  0
SEQEND
  8
gg1
  0
POLYLINE
  8
gg1
 62
1
 40
0.000000
 41
0.000000
 66
  1
  0
VERTEX
  8
gg1
 10
0.765000
 20
0.825000
  0
VERTEX
  8
gg1
 10
0.785000
 20
0.825000
  0
SEQEND
  8
gg1
  0
POLYLINE
  8
gg1
 62
1
 40
0.000000
 41
0.000000
 66
  1
  0
VERTEX
  8
gg1
 10
0.775000
 20
0.815000
  0
VERTEX
  8
gg1
 10
0.775000
 20
0.835000
  0
SEQEND
  8
gg1
  0
POLYLINE
  8
gg1
 62
1
 40
0.000000
 41
0.000000
 66
  1
  0
VERTEX
  8
gg1
 10
0.870000
 20
0.740000
  0
VERTEX
  8
gg1
 10
0.890000
 20
0.740000
  0
SEQEND
  8
gg1
  0
POLYLINE
  8
gg1
 62
1
 40
0.000000
 41
0.000000
 66
  1
  0
VERTEX
  8
gg1
 10
0.880000
 20
0.730000
  0
VERTEX
  8
gg1
 10
0.880000
 20
0.750000
  0
SEQEND
  8
gg1
  0
POLYLINE
  8
gg1
 62
1
 40
0.000000
 41
0.000000
 66
  1
  0
VERTEX
  8
gg1
 10
0.840000
 20
0.775000
  0
VERTEX
  8
gg1
 10
0.860000
 20
0.775000
  0
SEQEND
  8
gg1
  0
POLYLINE
  8
gg1
 62
1
 40
0.000000
 41
0.000000
 66
  1
  0
VERTEX
  8
gg1
 10
0.850000
 20
0.765000
  0
VERTEX
  8
gg1
 10
0.850000
 20
0.785000
  0
SEQEND
  8
gg1
  0
POLYLINE
  8
gg1
 62
1
 40
0.000000
 41
0.000000
 66
  1
  0
VERTEX
  8
gg1
 10
0.340000
 20
0.820000
  0
VERTEX
  8
gg1
 10
0.360000
 20
0.820000
  0
SEQEND
  8
gg1
  0
POLYLINE
  8
gg1
 62
1
 40
0.000000
 41
0.000000
 66
  1
  0
VERTEX
  8
gg1
 10
0.350000
 20
0.810000
  0
VERTEX
  8
gg1
 10
0.350000
 20
0.830000
  0
SEQEND
  8
gg1
  0
POLYLINE
  8
gg1
 62
1
 40
0.000000
 41
0.000000
 66
  1
  0
VERTEX
  8
gg1
 10
0.410000
 20
0.820000
  0
VERTEX
  8
gg1
 10
0.430000
 20
0.820000
  0
SEQEND
  8
gg1
  0
POLYLINE
  8
gg1
 62
1
 40
0.000000
 41
0.000000
 66
  1
  0
VERTEX
  8
gg1
 10
0.420000
 20
0.810000
  0
VERTEX
  8
gg1
 10
0.420000
 20
0.830000
  0
SEQEND
  8
gg1
  0
POLYLINE
  8
gg1
 62
1
 40
0.000000
 41
0.000000
 66
  1
  0
VERTEX
  8
gg1
 10
0.490000
 20
0.820000
  0
VERTEX
  8
gg1
 10
0.510000
 20
0.820000
  0
SEQEND
  8
gg1
  0
POLYLINE
  8
gg1
 62
1
 40
0.000000
 41
0.000000
 66
  1
  0
VERTEX
  8
gg1
 10
0.500000
 20
0.810000
  0
VERTEX
  8
gg1
 10
0.500000
 20
0.830000
  0
SEQEND
  8
gg1
  0
POLYLINE
  8
gg1
 62
1
 40
0.000000
 41
0.000000
 66
  1
  0
VERTEX
  8
gg1
 10
0.340000
 20
0.650000
  0
VERTEX
  8
gg1
 10
0.360000
 20
0.650000
  0
SEQEND
  8
gg1
  0
POLYLINE
  8
gg1
 62
1
 40
0.000000
 41
0.000000
 66
  1
  0
VERTEX
  8
gg1
 10
0.350000
 20
0.640000
  0
VERTEX
  8
gg1
 10
0.350000
 20
0.660000
  0
SEQEND
  8
gg1
  0
POLYLINE
  8
gg1
 62
1
 40
0.000000
 41
0.000000
 66
  1
  0
VERTEX
  8
gg1
 10
0.340000
 20
0.580000
  0
VERTEX
  8
gg1
 10
0.360000
 20
0.580000
  0
SEQEND
  8
gg1
  0
POLYLINE
  8
gg1
 62
1
 40
0.000000
 41
0.000000
 66
  1
  0
VERTEX
  8
gg1
 10
0.350000
 20
0.570000
  0
VERTEX
  8
gg1
 10
0.350000
 20
0.590000
  0
SEQEND
  8
gg1
  0
POLYLINE
  8
gg1
 62
1
 40
0.000000
 41
0.000000
 66
  1
  0
VERTEX
  8
gg1
 10
0.400000
 20
0.540000
  0
VERTEX
  8
gg1
 10
0.420000
 20
0.540000
  0
SEQEND
  8
gg1
  0
POLYLINE
  8
gg1
 62
1
 40
0.000000
 41
0.000000
 66
  1
  0
VERTEX
  8
gg1
 10
0.410000
 20
0.530000
  0
VERTEX
  8
gg1
 10
0.410000
 20
0.550000
  0
SEQEND
  8
gg1
  0
POLYLINE
  8
gg1
 62
1
 40
0.000000
 41
0.000000
 66
  1
  0
VERTEX
  8
gg1
 10
0.830400
 20
0.710000
  0
VERTEX
  8
gg1
 10
0.850400
 20
0.710000
  0
SEQEND
  8
gg1
  0
POLYLINE
  8
gg1
 62
1
 40
0.000000
 41
0.000000
 66
  1
  0
VERTEX
  8
gg1
 10
0.840400
 20
0.700000
  0
VERTEX
  8
gg1
 10
0.840400
 20
0.720000
  0
SEQEND
  8
gg1
  0
POLYLINE
  8
gg1
 62
1
 40
0.000000
 41
0.000000
 66
  1
  0
VERTEX
  8
gg1
 10
0.886300
 20
0.692500
  0
VERTEX
  8
gg1
 10
0.906300
 20
0.692500
  0
SEQEND
  8
gg1
  0
POLYLINE
  8
gg1
 62
1
 40
0.000000
 41
0.000000
 66
  1
  0
VERTEX
  8
gg1
 10
0.896300
 20
0.682500
  0
VERTEX
  8
gg1
 10
0.896300
 20
0.702500
  0
SEQEND
  8
gg1
  0
POLYLINE
  8
gg1
 62
1
 40
0.000000
 41
0.000000
 66
  1
  0
VERTEX
  8
gg1
 10
0.500000
 20
0.540000
  0
VERTEX
  8
gg1
 10
0.520000
 20
0.540000
  0
SEQEND
  8
gg1
  0
POLYLINE
  8
gg1
 62
1
 40
0.000000
 41
0.000000
 66
  1
  0
VERTEX
  8
gg1
 10
0.510000
 20
0.530000
  0
VERTEX
  8
gg1
 10
0.510000
 20
0.550000
  0
SEQEND
  8
gg1
  0
POLYLINE
  8
gg1
 62
1
 40
0.000000
 41
0.000000
 66
  1
  0
VERTEX
  8
gg1
 10
0.590000
 20
0.540000
  0
VERTEX
  8
gg1
 10
0.610000
 20
0.540000
  0
SEQEND
  8
gg1
  0
POLYLINE
  8
gg1
 62
1
 40
0.000000
 41
0.000000
 66
  1
  0
VERTEX
  8
gg1
 10
0.600000
 20
0.530000
  0
VERTEX
  8
gg1
 10
0.600000
 20
0.550000
  0
SEQEND
  8
gg1
  0
POLYLINE
  8
gg1
 62
1
 40
0.000000
 41
0.000000
 66
  1
  0
VERTEX
  8
gg1
 10
0.680000
 20
0.540000
  0
VERTEX
  8
gg1
 10
0.700000
 20
0.540000
  0
SEQEND
  8
gg1
  0
POLYLINE
  8
gg1
 62
1
 40
0.000000
 41
0.000000
 66
  1
  0
VERTEX
  8
gg1
 10
0.690000
 20
0.530000
  0
VERTEX
  8
gg1
 10
0.690000
 20
0.550000
  0
SEQEND
  8
gg1
  0
POLYLINE
  8
gg1
 62
1
 40
0.000000
 41
0.000000
 66
  1
  0
VERTEX
  8
gg1
 10
0.780000
 20
0.540000
  0
VERTEX
  8
gg1
 10
0.800000
 20
0.540000
  0
SEQEND
  8
gg1
  0
POLYLINE
  8
gg1
 62
1
 40
0.000000
 41
0.000000
 66
  1
  0
VERTEX
  8
gg1
 10
0.790000
 20
0.530000
  0
VERTEX
  8
gg1
 10
0.790000
 20
0.550000
  0
SEQEND
  8
gg1
  0
POLYLINE
  8
gg1
 62
1
 40
0.000000
 41
0.000000
 66
  1
  0
VERTEX
  8
gg1
 10
0.570000
 20
0.820000
  0
VERTEX
  8
gg1
 10
0.590000
 20
0.820000
  0
SEQEND
  8
gg1
  0
POLYLINE
  8
gg1
 62
1
 40
0.000000
 41
0.000000
 66
  1
  0
VERTEX
  8
gg1
 10
0.580000
 20
0.810000
  0
VERTEX
  8
gg1
 10
0.580000
 20
0.830000
  0
SEQEND
  8
gg1
  0
POLYLINE
  8
gg1
 62
1
 40
0.000000
 41
0.000000
 66
  1
  0
VERTEX
  8
gg1
 10
0.440000
 20
0.710000
  0
VERTEX
  8
gg1
 10
0.460000
 20
0.710000
  0
SEQEND
  8
gg1
  0
POLYLINE
  8
gg1
 62
1
 40
0.000000
 41
0.000000
 66
  1
  0
VERTEX
  8
gg1
 10
0.450000
 20
0.700000
  0
VERTEX
  8
gg1
 10
0.450000
 20
0.720000
  0
SEQEND
  8
gg1
  0
POLYLINE
  8
gg1
 62
1
 40
0.000000
 41
0.000000
 66
  1
  0
VERTEX
  8
gg1
 10
0.550000
 20
0.650000
  0
VERTEX
  8
gg1
 10
0.570000
 20
0.650000
  0
SEQEND
  8
gg1
  0
POLYLINE
  8
gg1
 62
1
 40
0.000000
 41
0.000000
 66
  1
  0
VERTEX
  8
gg1
 10
0.560000
 20
0.640000
  0
VERTEX
  8
gg1
 10
0.560000
 20
0.660000
  0
SEQEND
  8
gg1
  0
POLYLINE
  8
gg1
 62
1
 40
0.000000
 41
0.000000
 66
  1
  0
VERTEX
  8
gg1
 10
0.650000
 20
0.650000
  0
VERTEX
  8
gg1
 10
0.670000
 20
0.650000
  0
SEQEND
  8
gg1
  0
POLYLINE
  8
gg1
 62
1
 40
0.000000
 41
0.000000
 66
  1
  0
VERTEX
  8
gg1
 10
0.660000
 20
0.640000
  0
VERTEX
  8
gg1
 10
0.660000
 20
0.660000
  0
SEQEND
  8
gg1
  0
POLYLINE
  8
gg1
 62
1
 40
0.000000
 41
0.000000
 66
  1
  0
VERTEX
  8
gg1
 10
0.600000
 20
0.740000
  0
VERTEX
  8
gg1
 10
0.620000
 20
0.740000
  0
SEQEND
  8
gg1
  0
POLYLINE
  8
gg1
 62
1
 40
0.000000
 41
0.000000
 66
  1
  0
VERTEX
  8
gg1
 10
0.610000
 20
0.730000
  0
VERTEX
  8
gg1
 10
0.610000
 20
0.750000
  0
SEQEND
  8
gg1
  0
POLYLINE
  8
gg1
 62
1
 40
0.000000
 41
0.000000
 66
  1
  0
VERTEX
  8
gg1
 10
0.630000
 20
0.230000
  0
VERTEX
  8
gg1
 10
0.650000
 20
0.230000
  0
SEQEND
  8
gg1
  0
POLYLINE
  8
gg1
 62
1
 40
0.000000
 41
0.000000
 66
  1
  0
VERTEX
  8
gg1
 10
0.640000
 20
0.220000
  0
VERTEX
  8
gg1
 10
0.640000
 20
0.240000
  0
SEQEND
  8
gg1
  0
POLYLINE
  8
gg1
 62
1
 40
0.000000
 41
0.000000
 66
  1
  0
VERTEX
  8
gg1
 10
0.450000
 20
0.230000
  0
VERTEX
  8
gg1
 10
0.470000
 20
0.230000
  0
SEQEND
  8
gg1
  0
POLYLINE
  8
gg1
 62
1
 40
0.000000
 41
0.000000
 66
  1
  0
VERTEX
  8
gg1
 10
0.460000
 20
0.220000
  0
VERTEX
  8
gg1
 10
0.460000
 20
0.240000
  0
SEQEND
  8
gg1
  0
POLYLINE
  8
gg1
 62
1
 40
0.000000
 41
0.000000
 66
  1
  0
VERTEX
  8
gg1
 10
0.830000
 20
0.150000
  0
VERTEX
  8
gg1
 10
0.850000
 20
0.150000
  0
SEQEND
  8
gg1
  0
POLYLINE
  8
gg1
 62
1
 40
0.000000
 41
0.000000
 66
  1
  0
VERTEX
  8
gg1
 10
0.840000
 20
0.140000
  0
VERTEX
  8
gg1
 10
0.840000
 20
0.160000
  0
SEQEND
  8
gg1
  0
POLYLINE
  8
gg1
 62
1
 40
0.000000
 41
0.000000
 66
  1
  0
VERTEX
  8
gg1
 10
0.690000
 20
0.160000
  0
VERTEX
  8
gg1
 10
0.710000
 20
0.160000
  0
SEQEND
  8
gg1
  0
POLYLINE
  8
gg1
 62
1
 40
0.000000
 41
0.000000
 66
  1
  0
VERTEX
  8
gg1
 10
0.700000
 20
0.150000
  0
VERTEX
  8
gg1
 10
0.700000
 20
0.170000
  0
SEQEND
  8
gg1
  0
POLYLINE
  8
gg1
 62
1
 40
0.000000
 41
0.000000
 66
  1
  0
VERTEX
  8
gg1
 10
0.210000
 20
0.225000
  0
VERTEX
  8
gg1
 10
0.230000
 20
0.225000
  0
SEQEND
  8
gg1
  0
POLYLINE
  8
gg1
 62
1
 40
0.000000
 41
0.000000
 66
  1
  0
VERTEX
  8
gg1
 10
0.220000
 20
0.215000
  0
VERTEX
  8
gg1
 10
0.220000
 20
0.235000
  0
SEQEND
  8
gg1
  0
POLYLINE
  8
gg1
 62
1
 40
0.000000
 41
0.000000
 66
  1
  0
VERTEX
  8
gg1
 10
0.384100
 20
-0.136000
  0
VERTEX
  8
gg1
 10
0.404000
 20
-0.136000
  0
VERTEX
  8
gg1
 10
0.394100
 20
-0.136000
  0
VERTEX
  8
gg1
 10
0.394100
 20
-0.076000
  0
VERTEX
  8
gg1
 10
0.384100
 20
-0.086000
  0
SEQEND
  8
gg1
  0
POLYLINE
  8
gg1
 62
1
 40
0.000000
 41
0.000000
 66
  1
  0
VERTEX
  8
gg1
 10
0.434000
 20
-0.136000
  0
VERTEX
  8
gg1
 10
0.454000
 20
-0.136000
  0
VERTEX
  8
gg1
 10
0.444000
 20
-0.136000
  0
VERTEX
  8
gg1
 10
0.444000
 20
-0.076000
  0
VERTEX
  8
gg1
 10
0.434000
 20
-0.086000
  0
SEQEND
  8
gg1
  0
POLYLINE
  8
gg1
 62
1
 40
0.000000
 41
0.000000
 66
  1
  0
VERTEX
  8
gg1
 10
0.524000
 20
-0.076000
  0
VERTEX
  8
gg1
 10
0.484000
 20
-0.076000
  0
VERTEX
  8
gg1
 10
0.484000
 20
-0.106000
  0
VERTEX
  8
gg1
 10
0.504000
 20
-0.096000
  0
VERTEX
  8
gg1
 10
0.514000
 20
-0.096000
  0
VERTEX
  8
gg1
 10
0.524000
 20
-0.106000
  0
VERTEX
  8
gg1
 10
0.524000
 20
-0.126000
  0
VERTEX
  8
gg1
 10
0.514000
 20
-0.136000
  0
VERTEX
  8
gg1
 10
0.494000
 20
-0.136000
  0
VERTEX
  8
gg1
 10
0.484000
 20
-0.126000
  0
SEQEND
  8
gg1
  0
POLYLINE
  8
gg1
 62
1
 40
0.000000
 41
0.000000
 66
  1
  0
VERTEX
  8
gg1
 10
0.544000
 20
-0.086000
  0
VERTEX
  8
gg1
 10
0.554000
 20
-0.076000
  0
VERTEX
  8
gg1
 10
0.574000
 20
-0.076000
  0
VERTEX
  8
gg1
 10
0.584000
 20
-0.086000
  0
VERTEX
  8
gg1
 10
0.584000
 20
-0.126000
  0
VERTEX
  8
gg1
 10
0.574000
 20
-0.136000
  0
VERTEX
  8
gg1
 10
0.554000
 20
-0.136000
  0
VERTEX
  8
gg1
 10
0.544000
 20
-0.126000
  0
VERTEX
  8
gg1
 10
0.544000
 20
-0.086000
  0
SEQEND
  8
gg1
  0
POLYLINE
  8
gg1
 62
1
 40
0.000000
 41
0.000000
 66
  1
  0
VERTEX
  8
gg1
 10
0.604000
 20
-0.136000
  0
VERTEX
  8
gg1
 10
0.604000
 20
-0.096000
  0
VERTEX
  8
gg1
 10
0.614000
 20
-0.096000
  0
VERTEX
  8
gg1
 10
0.624000
 20
-0.106000
  0
VERTEX
  8
gg1
 10
0.624000
 20
-0.136000
  0
VERTEX
  8
gg1
 10
0.624000
 20
-0.106000
  0
VERTEX
  8
gg1
 10
0.634000
 20
-0.096000
  0
VERTEX
  8
gg1
 10
0.644000
 20
-0.106000
  0
VERTEX
  8
gg1
 10
0.644000
 20
-0.136000
  0
SEQEND
  8
gg1
  0
POLYLINE
  8
gg1
 62
1
 40
0.000000
 41
0.000000
 66
  1
  0
VERTEX
  8
gg1
 10
0.664000
 20
-0.136000
  0
VERTEX
  8
gg1
 10
0.684000
 20
-0.136000
  0
VERTEX
  8
gg1
 10
0.674000
 20
-0.136000
  0
VERTEX
  8
gg1
 10
0.674000
 20
-0.096000
  0
VERTEX
  8
gg1
 10
0.664000
 20
-0.096000
  0
SEQEND
  8
gg1
  0
POLYLINE
  8
gg1
 62
1
 40
0.000000
 41
0.000000
 66
  1
  0
VERTEX
  8
gg1
 10
0.713900
 20
-0.136000
  0
VERTEX
  8
gg1
 10
0.733900
 20
-0.136000
  0
VERTEX
  8
gg1
 10
0.723900
 20
-0.136000
  0
VERTEX
  8
gg1
 10
0.723900
 20
-0.076000
  0
VERTEX
  8
gg1
 10
0.713900
 20
-0.076000
  0
SEQEND
  8
gg1
  0
POLYLINE
  8
gg1
 62
1
 40
0.000000
 41
0.000000
 66
  1
  0
VERTEX
  8
gg1
 10
-0.314000
 20
0.304100
  0
VERTEX
  8
gg1
 10
-0.314000
 20
0.324100
  0
VERTEX
  8
gg1
 10
-0.314000
 20
0.314100
  0
VERTEX
  8
gg1
 10
-0.374000
 20
0.314100
  0
VERTEX
  8
gg1
 10
-0.364000
 20
0.304100
  0
SEQEND
  8
gg1
  0
POLYLINE
  8
gg1
 62
1
 40
0.000000
 41
0.000000
 66
  1
  0
VERTEX
  8
gg1
 10
-0.364000
 20
0.354000
  0
VERTEX
  8
gg1
 10
-0.374000
 20
0.364000
  0
VERTEX
  8
gg1
 10
-0.374000
 20
0.384000
  0
VERTEX
  8
gg1
 10
-0.364000
 20
0.394000
  0
VERTEX
  8
gg1
 10
-0.324000
 20
0.394000
  0
VERTEX
  8
gg1
 10
-0.314000
 20
0.384000
  0
VERTEX
  8
gg1
 10
-0.314000
 20
0.364000
  0
VERTEX
  8
gg1
 10
-0.324000
 20
0.354000
  0
VERTEX
  8
gg1
 10
-0.364000
 20
0.354000
  0
SEQEND
  8
gg1
  0
POLYLINE
  8
gg1
 62
1
 40
0.000000
 41
0.000000
 66
  1
  0
VERTEX
  8
gg1
 10
-0.364000
 20
0.414000
  0
VERTEX
  8
gg1
 10
-0.374000
 20
0.424000
  0
VERTEX
  8
gg1
 10
-0.374000
 20
0.444000
  0
VERTEX
  8
gg1
 10
-0.364000
 20
0.454000
  0
VERTEX
  8
gg1
 10
-0.324000
 20
0.454000
  0
VERTEX
  8
gg1
 10
-0.314000
 20
0.444000
  0
VERTEX
  8
gg1
 10
-0.314000
 20
0.424000
  0
VERTEX
  8
gg1
 10
-0.324000
 20
0.414000
  0
VERTEX
  8
gg1
 10
-0.364000
 20
0.414000
  0
SEQEND
  8
gg1
  0
POLYLINE
  8
gg1
 62
1
 40
0.000000
 41
0.000000
 66
  1
  0
VERTEX
  8
gg1
 10
-0.364000
 20
0.474000
  0
VERTEX
  8
gg1
 10
-0.374000
 20
0.484000
  0
VERTEX
  8
gg1
 10
-0.374000
 20
0.504000
  0
VERTEX
  8
gg1
 10
-0.364000
 20
0.514000
  0
VERTEX
  8
gg1
 10
-0.324000
 20
0.514000
  0
VERTEX
  8
gg1
 10
-0.314000
 20
0.504000
  0
VERTEX
  8
gg1
 10
-0.314000
 20
0.484000
  0
VERTEX
  8
gg1
 10
-0.324000
 20
0.474000
  0
VERTEX
  8
gg1
 10
-0.364000
 20
0.474000
  0
SEQEND
  8
gg1
  0
POLYLINE
  8
gg1
 62
1
 40
0.000000
 41
0.000000
 66
  1
  0
VERTEX
  8
gg1
 10
-0.314000
 20
0.534000
  0
VERTEX
  8
gg1
 10
-0.354000
 20
0.534000
  0
VERTEX
  8
gg1
 10
-0.354000
 20
0.544000
  0
VERTEX
  8
gg1
 10
-0.344000
 20
0.554000
  0
VERTEX
  8
gg1
 10
-0.314000
 20
0.554000
  0
VERTEX
  8
gg1
 10
-0.344000
 20
0.554000
  0
VERTEX
  8
gg1
 10
-0.354000
 20
0.564000
  0
VERTEX
  8
gg1
 10
-0.344000
 20
0.574000
  0
VERTEX
  8
gg1
 10
-0.314000
 20
0.574000
  0
SEQEND
  8
gg1
  0
POLYLINE
  8
gg1
 62
1
 40
0.000000
 41
0.000000
 66
  1
  0
VERTEX
  8
gg1
 10
-0.314000
 20
0.594000
  0
VERTEX
  8
gg1
 10
-0.314000
 20
0.614000
  0
VERTEX
  8
gg1
 10
-0.314000
 20
0.604000
  0
VERTEX
  8
gg1
 10
-0.354000
 20
0.604000
  0
VERTEX
  8
gg1
 10
-0.354000
 20
0.594000
  0
SEQEND
  8
gg1
  0
POLYLINE
  8
gg1
 62
1
 40
0.000000
 41
0.000000
 66
  1
  0
VERTEX
  8
gg1
 10
-0.314000
 20
0.643900
  0
VERTEX
  8
gg1
 10
-0.314000
 20
0.663900
  0
VERTEX
  8
gg1
 10
-0.314000
 20
0.653900
  0
VERTEX
  8
gg1
 10
-0.374000
 20
0.653900
  0
VERTEX
  8
gg1
 10
-0.374000
 20
0.643900
  0
SEQEND
  8
gg1
  0
ENDSEC
  0
EOF
