  0
SECTION
  2
HEADER
  9
$EXTMIN
 10
-0.557000
 20
-0.044000
  9
$EXTMAX
 10
3.725000
 20
3.860000
  9
$LIMMIN
 10
-0.557000
 20
-0.044000
  9
$LIMMAX
 10
3.725000
 20
3.860000
  9
$FILLMODE
 70
  1
  0
ENDSEC
  0
SECTION
  2
TABLES
  0
TABLE
  2
LTYPE
 70
  1
  0
LTYPE
  2
CONTINUOUS
 70
 64
  3
Solid line
 72
 65
 73
  0
 40
0.0
  0
ENDTAB
  0
TABLE
  2
LAYER
 70
 1
  0
LAYER
  2
0
 70
  0
 62
7
  6
CONTINUOUS
  0
LAYER
  2
gg1
 70
  0
 62
1
  6
CONTINUOUS
  0
ENDTAB
  0
TABLE
  2
STYLE
 70
  1
  0
STYLE
  2
STANDARD
 70
  0
 40
0.0
 41
1.0
 50
0.0
 71
  0
 42
0.2
  3
txt
  4

  0
ENDTAB
  0
ENDSEC
  0
SECTION
  2
BLOCKS
  0
BLOCK
  8
0
  2
D10
 70
64
 10
0.0
 20
0.0
  3
D10
  0
CIRCLE
  8
0
 10
0.000000
 20
0.000000
 40
0.004000
 0
ENDBLK
  8
0
  0
BLOCK
  8
0
  2
D11
 70
64
 10
0.0
 20
0.0
  3
D11
  0
CIRCLE
  8
0
 10
0.000000
 20
0.000000
 40
0.005000
 0
ENDBLK
  8
0
  0
BLOCK
  8
0
  2
D12
 70
64
 10
0.0
 20
0.0
  3
D12
  0
CIRCLE
  8
0
 10
0.000000
 20
0.000000
 40
0.003000
 0
ENDBLK
  8
0
  0
BLOCK
  8
0
  2
D13
 70
64
 10
0.0
 20
0.0
  3
D13
  0
CIRCLE
  8
0
 10
0.000000
 20
0.000000
 40
0.002500
 0
ENDBLK
  8
0
  0
ENDSEC
  0
SECTION
  2
ENTITIES
  0
POLYLINE
  8
gg1
 62
1
 40
0.000000
 41
0.000000
 66
  1
  0
VERTEX
  8
gg1
 10
3.713100
 20
2.711600
  0
VERTEX
  8
gg1
 10
3.713100
 20
2.711600
  0
VERTEX
  8
gg1
 10
3.713100
 20
2.711600
 42
0.667455
  0
VERTEX
  8
gg1
 10
0.286900
 20
2.711600
  0
VERTEX
  8
gg1
 10
0.286900
 20
2.711600
  0
SEQEND
  8
gg1
  0
POLYLINE
  8
gg1
 62
1
 40
0.000000
 41
0.000000
 66
  1
  0
VERTEX
  8
gg1
 10
0.287000
 20
2.711600
  0
VERTEX
  8
gg1
 10
0.287000
 20
2.711600
  0
VERTEX
  8
gg1
 10
0.287000
 20
2.711600
 42
0.523122
  0
VERTEX
  8
gg1
 10
0.329900
 20
2.650000
  0
VERTEX
  8
gg1
 10
0.329900
 20
2.650000
  0
SEQEND
  8
gg1
  0
POLYLINE
  8
gg1
 62
1
 40
0.000000
 41
0.000000
 66
  1
  0
VERTEX
  8
gg1
 10
0.329900
 20
1.350000
  0
VERTEX
  8
gg1
 10
0.329900
 20
1.350000
  0
VERTEX
  8
gg1
 10
0.329900
 20
1.350000
 42
0.522884
  0
VERTEX
  8
gg1
 10
0.287000
 20
1.288400
  0
VERTEX
  8
gg1
 10
0.287000
 20
1.288400
  0
SEQEND
  8
gg1
  0
POLYLINE
  8
gg1
 62
1
 40
0.000000
 41
0.000000
 66
  1
  0
VERTEX
  8
gg1
 10
3.713000
 20
1.288400
  0
VERTEX
  8
gg1
 10
3.713000
 20
1.288400
  0
VERTEX
  8
gg1
 10
3.713000
 20
1.288400
 42
0.523122
  0
VERTEX
  8
gg1
 10
3.670100
 20
1.350000
  0
VERTEX
  8
gg1
 10
3.670100
 20
1.350000
  0
SEQEND
  8
gg1
  0
POLYLINE
  8
gg1
 62
1
 40
0.000000
 41
0.000000
 66
  1
  0
VERTEX
  8
gg1
 10
3.670100
 20
2.650000
  0
VERTEX
  8
gg1
 10
3.670100
 20
2.650000
  0
VERTEX
  8
gg1
 10
3.670100
 20
2.650000
 42
0.522884
  0
VERTEX
  8
gg1
 10
3.713000
 20
2.711600
  0
VERTEX
  8
gg1
 10
3.713000
 20
2.711600
  0
SEQEND
  8
gg1
  0
POLYLINE
  8
gg1
 62
1
 40
0.000000
 41
0.000000
 66
  1
  0
VERTEX
  8
gg1
 10
0.286900
 20
1.288400
  0
VERTEX
  8
gg1
 10
0.286900
 20
1.288400
  0
VERTEX
  8
gg1
 10
0.286900
 20
1.288400
 42
0.667455
  0
VERTEX
  8
gg1
 10
3.713100
 20
1.288400
  0
VERTEX
  8
gg1
 10
3.713100
 20
1.288400
  0
SEQEND
  8
gg1
  0
POLYLINE
  8
gg1
 62
1
 40
0.000000
 41
0.000000
 66
  1
  0
VERTEX
  8
gg1
 10
1.869900
 20
0.910300
  0
VERTEX
  8
gg1
 10
1.869900
 20
0.910300
  0
VERTEX
  8
gg1
 10
1.869900
 20
0.910300
 42
4.383399
  0
VERTEX
  8
gg1
 10
2.130100
 20
0.910300
  0
VERTEX
  8
gg1
 10
2.130100
 20
0.910300
  0
SEQEND
  8
gg1
  0
POLYLINE
  8
gg1
 62
1
 40
0.000000
 41
0.000000
 66
  1
  0
VERTEX
  8
gg1
 10
0.550000
 20
1.350000
  0
VERTEX
  8
gg1
 10
0.550000
 20
2.650000
  0
SEQEND
  8
gg1
  0
POLYLINE
  8
gg1
 62
1
 40
0.000000
 41
0.000000
 66
  1
  0
VERTEX
  8
gg1
 10
0.329900
 20
2.650000
  0
VERTEX
  8
gg1
 10
0.550000
 20
2.650000
  0
SEQEND
  8
gg1
  0
POLYLINE
  8
gg1
 62
1
 40
0.000000
 41
0.000000
 66
  1
  0
VERTEX
  8
gg1
 10
0.329900
 20
1.350000
  0
VERTEX
  8
gg1
 10
0.550000
 20
1.350000
  0
SEQEND
  8
gg1
  0
POLYLINE
  8
gg1
 62
1
 40
0.000000
 41
0.000000
 66
  1
  0
VERTEX
  8
gg1
 10
3.450000
 20
1.350000
  0
VERTEX
  8
gg1
 10
3.670100
 20
1.350000
  0
SEQEND
  8
gg1
  0
POLYLINE
  8
gg1
 62
1
 40
0.000000
 41
0.000000
 66
  1
  0
VERTEX
  8
gg1
 10
3.450000
 20
2.650000
  0
VERTEX
  8
gg1
 10
3.670100
 20
2.650000
  0
SEQEND
  8
gg1
  0
POLYLINE
  8
gg1
 62
1
 40
0.000000
 41
0.000000
 66
  1
  0
VERTEX
  8
gg1
 10
3.450000
 20
1.350000
  0
VERTEX
  8
gg1
 10
3.450000
 20
2.650000
  0
SEQEND
  8
gg1
  0
POLYLINE
  8
gg1
 62
1
 40
0.000000
 41
0.000000
 66
  1
  0
VERTEX
  8
gg1
 10
1.869900
 20
0.910300
  0
VERTEX
  8
gg1
 10
2.130100
 20
0.910300
  0
SEQEND
  8
gg1
  0
POLYLINE
  8
gg1
 62
1
 40
0.000000
 41
0.000000
 66
  1
  0
VERTEX
  8
gg1
 10
-0.160000
 20
2.650000
  0
VERTEX
  8
gg1
 10
0.315900
 20
2.650000
  0
SEQEND
  8
gg1
  0
POLYLINE
  8
gg1
 62
1
 40
0.000000
 41
0.000000
 66
  1
  0
VERTEX
  8
gg1
 10
-0.160000
 20
1.350000
  0
VERTEX
  8
gg1
 10
0.315900
 20
1.350000
  0
SEQEND
  8
gg1
  0
POLYLINE
  8
gg1
 62
1
 40
0.000000
 41
0.000000
 66
  1
  0
VERTEX
  8
gg1
 10
-0.150000
 20
2.179900
  0
VERTEX
  8
gg1
 10
-0.150000
 20
2.650000
  0
SEQEND
  8
gg1
  0
POLYLINE
  8
gg1
 62
1
 40
0.000000
 41
0.000000
 66
  1
  0
VERTEX
  8
gg1
 10
-0.150000
 20
1.350000
  0
VERTEX
  8
gg1
 10
-0.150000
 20
1.788100
  0
SEQEND
  8
gg1
  0
POLYLINE
  8
gg1
 62
1
 40
0.000000
 41
0.000000
 66
  1
  0
VERTEX
  8
gg1
 10
-0.170000
 20
2.590000
  0
VERTEX
  8
gg1
 10
-0.150000
 20
2.650000
  0
VERTEX
  8
gg1
 10
-0.130000
 20
2.590000
  0
SEQEND
  8
gg1
  0
POLYLINE
  8
gg1
 62
1
 40
0.000000
 41
0.000000
 66
  1
  0
VERTEX
  8
gg1
 10
-0.150000
 20
1.350000
  0
VERTEX
  8
gg1
 10
-0.130000
 20
1.410000
  0
SEQEND
  8
gg1
  0
POLYLINE
  8
gg1
 62
1
 40
0.000000
 41
0.000000
 66
  1
  0
VERTEX
  8
gg1
 10
-0.170000
 20
1.410000
  0
VERTEX
  8
gg1
 10
-0.150000
 20
1.350000
  0
SEQEND
  8
gg1
  0
POLYLINE
  8
gg1
 62
1
 40
0.000000
 41
0.000000
 66
  1
  0
VERTEX
  8
gg1
 10
0.280000
 20
1.300000
  0
VERTEX
  8
gg1
 10
0.280000
 20
1.505000
  0
SEQEND
  8
gg1
  0
POLYLINE
  8
gg1
 62
1
 40
0.000000
 41
0.000000
 66
  1
  0
VERTEX
  8
gg1
 10
0.550000
 20
1.364000
  0
VERTEX
  8
gg1
 10
0.550000
 20
1.505000
  0
SEQEND
  8
gg1
  0
POLYLINE
  8
gg1
 62
1
 40
0.000000
 41
0.000000
 66
  1
  0
VERTEX
  8
gg1
 10
0.280000
 20
1.495000
  0
VERTEX
  8
gg1
 10
0.415000
 20
1.495000
  0
VERTEX
  8
gg1
 10
0.550000
 20
1.495000
  0
SEQEND
  8
gg1
  0
POLYLINE
  8
gg1
 62
1
 40
0.000000
 41
0.000000
 66
  1
  0
VERTEX
  8
gg1
 10
0.280000
 20
1.495000
  0
VERTEX
  8
gg1
 10
0.340000
 20
1.475000
  0
SEQEND
  8
gg1
  0
POLYLINE
  8
gg1
 62
1
 40
0.000000
 41
0.000000
 66
  1
  0
VERTEX
  8
gg1
 10
0.280000
 20
1.495000
  0
VERTEX
  8
gg1
 10
0.340000
 20
1.515000
  0
SEQEND
  8
gg1
  0
POLYLINE
  8
gg1
 62
1
 40
0.000000
 41
0.000000
 66
  1
  0
VERTEX
  8
gg1
 10
0.490000
 20
1.515000
  0
VERTEX
  8
gg1
 10
0.550000
 20
1.495000
  0
SEQEND
  8
gg1
  0
POLYLINE
  8
gg1
 62
1
 40
0.000000
 41
0.000000
 66
  1
  0
VERTEX
  8
gg1
 10
0.490000
 20
1.475000
  0
VERTEX
  8
gg1
 10
0.550000
 20
1.495000
  0
SEQEND
  8
gg1
  0
POLYLINE
  8
gg1
 62
1
 40
0.000000
 41
0.000000
 66
  1
  0
VERTEX
  8
gg1
 10
0.284200
 20
-0.015000
  0
VERTEX
  8
gg1
 10
0.284200
 20
1.290200
  0
SEQEND
  8
gg1
  0
POLYLINE
  8
gg1
 62
1
 40
0.000000
 41
0.000000
 66
  1
  0
VERTEX
  8
gg1
 10
3.720000
 20
-0.015000
  0
VERTEX
  8
gg1
 10
3.720000
 20
1.300000
  0
SEQEND
  8
gg1
  0
POLYLINE
  8
gg1
 62
1
 40
0.000000
 41
0.000000
 66
  1
  0
VERTEX
  8
gg1
 10
0.284200
 20
-0.005000
  0
VERTEX
  8
gg1
 10
1.785100
 20
-0.005000
  0
SEQEND
  8
gg1
  0
POLYLINE
  8
gg1
 62
1
 40
0.000000
 41
0.000000
 66
  1
  0
VERTEX
  8
gg1
 10
2.187000
 20
-0.005000
  0
VERTEX
  8
gg1
 10
3.720000
 20
-0.005000
  0
SEQEND
  8
gg1
  0
POLYLINE
  8
gg1
 62
1
 40
0.000000
 41
0.000000
 66
  1
  0
VERTEX
  8
gg1
 10
0.284200
 20
-0.005000
  0
VERTEX
  8
gg1
 10
0.344200
 20
-0.025000
  0
SEQEND
  8
gg1
  0
POLYLINE
  8
gg1
 62
1
 40
0.000000
 41
0.000000
 66
  1
  0
VERTEX
  8
gg1
 10
0.284200
 20
-0.005000
  0
VERTEX
  8
gg1
 10
0.344200
 20
0.015000
  0
SEQEND
  8
gg1
  0
POLYLINE
  8
gg1
 62
1
 40
0.000000
 41
0.000000
 66
  1
  0
VERTEX
  8
gg1
 10
3.660000
 20
0.015000
  0
VERTEX
  8
gg1
 10
3.720000
 20
-0.005000
  0
SEQEND
  8
gg1
  0
POLYLINE
  8
gg1
 62
1
 40
0.000000
 41
0.000000
 66
  1
  0
VERTEX
  8
gg1
 10
3.660000
 20
-0.025000
  0
VERTEX
  8
gg1
 10
3.720000
 20
-0.005000
  0
SEQEND
  8
gg1
  0
POLYLINE
  8
gg1
 62
1
 40
0.000000
 41
0.000000
 66
  1
  0
VERTEX
  8
gg1
 10
-0.540000
 20
0.145000
  0
VERTEX
  8
gg1
 10
1.986000
 20
0.145000
  0
SEQEND
  8
gg1
  0
POLYLINE
  8
gg1
 62
1
 40
0.000000
 41
0.000000
 66
  1
  0
VERTEX
  8
gg1
 10
-0.540000
 20
3.855000
  0
VERTEX
  8
gg1
 10
1.986000
 20
3.855000
  0
SEQEND
  8
gg1
  0
POLYLINE
  8
gg1
 62
1
 40
0.000000
 41
0.000000
 66
  1
  0
VERTEX
  8
gg1
 10
-0.530000
 20
0.145000
  0
VERTEX
  8
gg1
 10
-0.530000
 20
1.788100
  0
SEQEND
  8
gg1
  0
POLYLINE
  8
gg1
 62
1
 40
0.000000
 41
0.000000
 66
  1
  0
VERTEX
  8
gg1
 10
-0.530000
 20
2.179900
  0
VERTEX
  8
gg1
 10
-0.530000
 20
3.855000
  0
SEQEND
  8
gg1
  0
POLYLINE
  8
gg1
 62
1
 40
0.000000
 41
0.000000
 66
  1
  0
VERTEX
  8
gg1
 10
-0.530000
 20
0.145000
  0
VERTEX
  8
gg1
 10
-0.510000
 20
0.205000
  0
SEQEND
  8
gg1
  0
POLYLINE
  8
gg1
 62
1
 40
0.000000
 41
0.000000
 66
  1
  0
VERTEX
  8
gg1
 10
-0.550000
 20
0.205000
  0
VERTEX
  8
gg1
 10
-0.530000
 20
0.145000
  0
SEQEND
  8
gg1
  0
POLYLINE
  8
gg1
 62
1
 40
0.000000
 41
0.000000
 66
  1
  0
VERTEX
  8
gg1
 10
-0.550000
 20
3.795000
  0
VERTEX
  8
gg1
 10
-0.530000
 20
3.855000
  0
VERTEX
  8
gg1
 10
-0.510000
 20
3.795000
  0
SEQEND
  8
gg1
  0
POLYLINE
  8
gg1
 62
1
 40
0.000000
 41
0.000000
 66
  1
  0
VERTEX
  8
gg1
 10
-0.114000
 20
1.804100
  0
VERTEX
  8
gg1
 10
-0.114000
 20
1.824100
  0
VERTEX
  8
gg1
 10
-0.114000
 20
1.814100
  0
VERTEX
  8
gg1
 10
-0.174000
 20
1.814100
  0
VERTEX
  8
gg1
 10
-0.164000
 20
1.804100
  0
SEQEND
  8
gg1
  0
POLYLINE
  8
gg1
 62
1
 40
0.000000
 41
0.000000
 66
  1
  0
VERTEX
  8
gg1
 10
-0.164000
 20
1.854000
  0
VERTEX
  8
gg1
 10
-0.174000
 20
1.864000
  0
VERTEX
  8
gg1
 10
-0.174000
 20
1.884000
  0
VERTEX
  8
gg1
 10
-0.164000
 20
1.894000
  0
VERTEX
  8
gg1
 10
-0.154000
 20
1.894000
  0
VERTEX
  8
gg1
 10
-0.144000
 20
1.884000
  0
VERTEX
  8
gg1
 10
-0.144000
 20
1.874000
  0
VERTEX
  8
gg1
 10
-0.144000
 20
1.884000
  0
VERTEX
  8
gg1
 10
-0.134000
 20
1.894000
  0
VERTEX
  8
gg1
 10
-0.124000
 20
1.894000
  0
VERTEX
  8
gg1
 10
-0.114000
 20
1.884000
  0
VERTEX
  8
gg1
 10
-0.114000
 20
1.864000
  0
VERTEX
  8
gg1
 10
-0.124000
 20
1.854000
  0
SEQEND
  8
gg1
  0
POLYLINE
  8
gg1
 62
1
 40
0.000000
 41
0.000000
 66
  1
  0
VERTEX
  8
gg1
 10
-0.164000
 20
1.914000
  0
VERTEX
  8
gg1
 10
-0.174000
 20
1.924000
  0
VERTEX
  8
gg1
 10
-0.174000
 20
1.944000
  0
VERTEX
  8
gg1
 10
-0.164000
 20
1.954000
  0
VERTEX
  8
gg1
 10
-0.124000
 20
1.954000
  0
VERTEX
  8
gg1
 10
-0.114000
 20
1.944000
  0
VERTEX
  8
gg1
 10
-0.114000
 20
1.924000
  0
VERTEX
  8
gg1
 10
-0.124000
 20
1.914000
  0
VERTEX
  8
gg1
 10
-0.164000
 20
1.914000
  0
SEQEND
  8
gg1
  0
POLYLINE
  8
gg1
 62
1
 40
0.000000
 41
0.000000
 66
  1
  0
VERTEX
  8
gg1
 10
-0.164000
 20
1.974000
  0
VERTEX
  8
gg1
 10
-0.174000
 20
1.984000
  0
VERTEX
  8
gg1
 10
-0.174000
 20
2.004000
  0
VERTEX
  8
gg1
 10
-0.164000
 20
2.014000
  0
VERTEX
  8
gg1
 10
-0.124000
 20
2.014000
  0
VERTEX
  8
gg1
 10
-0.114000
 20
2.004000
  0
VERTEX
  8
gg1
 10
-0.114000
 20
1.984000
  0
VERTEX
  8
gg1
 10
-0.124000
 20
1.974000
  0
VERTEX
  8
gg1
 10
-0.164000
 20
1.974000
  0
SEQEND
  8
gg1
  0
POLYLINE
  8
gg1
 62
1
 40
0.000000
 41
0.000000
 66
  1
  0
VERTEX
  8
gg1
 10
-0.114000
 20
2.034000
  0
VERTEX
  8
gg1
 10
-0.154000
 20
2.034000
  0
VERTEX
  8
gg1
 10
-0.154000
 20
2.044000
  0
VERTEX
  8
gg1
 10
-0.144000
 20
2.054000
  0
VERTEX
  8
gg1
 10
-0.114000
 20
2.054000
  0
VERTEX
  8
gg1
 10
-0.144000
 20
2.054000
  0
VERTEX
  8
gg1
 10
-0.154000
 20
2.064000
  0
VERTEX
  8
gg1
 10
-0.144000
 20
2.074000
  0
VERTEX
  8
gg1
 10
-0.114000
 20
2.074000
  0
SEQEND
  8
gg1
  0
POLYLINE
  8
gg1
 62
1
 40
0.000000
 41
0.000000
 66
  1
  0
VERTEX
  8
gg1
 10
-0.114000
 20
2.094000
  0
VERTEX
  8
gg1
 10
-0.114000
 20
2.114000
  0
VERTEX
  8
gg1
 10
-0.114000
 20
2.104000
  0
VERTEX
  8
gg1
 10
-0.154000
 20
2.104000
  0
VERTEX
  8
gg1
 10
-0.154000
 20
2.094000
  0
SEQEND
  8
gg1
  0
POLYLINE
  8
gg1
 62
1
 40
0.000000
 41
0.000000
 66
  1
  0
VERTEX
  8
gg1
 10
-0.114000
 20
2.143900
  0
VERTEX
  8
gg1
 10
-0.114000
 20
2.163900
  0
VERTEX
  8
gg1
 10
-0.114000
 20
2.153900
  0
VERTEX
  8
gg1
 10
-0.174000
 20
2.153900
  0
VERTEX
  8
gg1
 10
-0.174000
 20
2.143900
  0
SEQEND
  8
gg1
  0
POLYLINE
  8
gg1
 62
1
 40
0.000000
 41
0.000000
 66
  1
  0
VERTEX
  8
gg1
 10
-0.011900
 20
1.459000
  0
VERTEX
  8
gg1
 10
-0.051900
 20
1.459000
  0
VERTEX
  8
gg1
 10
-0.011900
 20
1.499000
  0
VERTEX
  8
gg1
 10
-0.011900
 20
1.509000
  0
VERTEX
  8
gg1
 10
-0.021900
 20
1.519000
  0
VERTEX
  8
gg1
 10
-0.041900
 20
1.519000
  0
VERTEX
  8
gg1
 10
-0.051900
 20
1.509000
  0
SEQEND
  8
gg1
  0
POLYLINE
  8
gg1
 62
1
 40
0.000000
 41
0.000000
 66
  1
  0
VERTEX
  8
gg1
 10
0.008100
 20
1.519000
  0
VERTEX
  8
gg1
 10
0.048100
 20
1.519000
  0
VERTEX
  8
gg1
 10
0.048100
 20
1.509000
  0
VERTEX
  8
gg1
 10
0.008100
 20
1.469000
  0
VERTEX
  8
gg1
 10
0.008100
 20
1.459000
  0
SEQEND
  8
gg1
  0
POLYLINE
  8
gg1
 62
1
 40
0.000000
 41
0.000000
 66
  1
  0
VERTEX
  8
gg1
 10
0.068100
 20
1.509000
  0
VERTEX
  8
gg1
 10
0.078100
 20
1.519000
  0
VERTEX
  8
gg1
 10
0.098100
 20
1.519000
  0
VERTEX
  8
gg1
 10
0.108000
 20
1.509000
  0
VERTEX
  8
gg1
 10
0.108000
 20
1.469000
  0
VERTEX
  8
gg1
 10
0.098100
 20
1.459000
  0
VERTEX
  8
gg1
 10
0.078100
 20
1.459000
  0
VERTEX
  8
gg1
 10
0.068100
 20
1.469000
  0
VERTEX
  8
gg1
 10
0.068100
 20
1.509000
  0
SEQEND
  8
gg1
  0
POLYLINE
  8
gg1
 62
1
 40
0.000000
 41
0.000000
 66
  1
  0
VERTEX
  8
gg1
 10
0.128000
 20
1.459000
  0
VERTEX
  8
gg1
 10
0.128000
 20
1.499000
  0
VERTEX
  8
gg1
 10
0.138000
 20
1.499000
  0
VERTEX
  8
gg1
 10
0.148000
 20
1.489000
  0
VERTEX
  8
gg1
 10
0.148000
 20
1.459000
  0
VERTEX
  8
gg1
 10
0.148000
 20
1.489000
  0
VERTEX
  8
gg1
 10
0.158000
 20
1.499000
  0
VERTEX
  8
gg1
 10
0.168000
 20
1.489000
  0
VERTEX
  8
gg1
 10
0.168000
 20
1.459000
  0
SEQEND
  8
gg1
  0
POLYLINE
  8
gg1
 62
1
 40
0.000000
 41
0.000000
 66
  1
  0
VERTEX
  8
gg1
 10
0.188000
 20
1.459000
  0
VERTEX
  8
gg1
 10
0.208000
 20
1.459000
  0
VERTEX
  8
gg1
 10
0.198000
 20
1.459000
  0
VERTEX
  8
gg1
 10
0.198000
 20
1.499000
  0
VERTEX
  8
gg1
 10
0.188000
 20
1.499000
  0
SEQEND
  8
gg1
  0
POLYLINE
  8
gg1
 62
1
 40
0.000000
 41
0.000000
 66
  1
  0
VERTEX
  8
gg1
 10
0.238000
 20
1.459000
  0
VERTEX
  8
gg1
 10
0.258000
 20
1.459000
  0
VERTEX
  8
gg1
 10
0.248000
 20
1.459000
  0
VERTEX
  8
gg1
 10
0.248000
 20
1.519000
  0
VERTEX
  8
gg1
 10
0.238000
 20
1.519000
  0
SEQEND
  8
gg1
  0
POLYLINE
  8
gg1
 62
1
 40
0.000000
 41
0.000000
 66
  1
  0
VERTEX
  8
gg1
 10
1.801100
 20
0.009000
  0
VERTEX
  8
gg1
 10
1.811100
 20
0.019000
  0
VERTEX
  8
gg1
 10
1.831100
 20
0.019000
  0
VERTEX
  8
gg1
 10
1.841100
 20
0.009000
  0
VERTEX
  8
gg1
 10
1.841100
 20
-0.001000
  0
VERTEX
  8
gg1
 10
1.831100
 20
-0.011000
  0
VERTEX
  8
gg1
 10
1.821100
 20
-0.011000
  0
VERTEX
  8
gg1
 10
1.831100
 20
-0.011000
  0
VERTEX
  8
gg1
 10
1.841100
 20
-0.021000
  0
VERTEX
  8
gg1
 10
1.841100
 20
-0.031000
  0
VERTEX
  8
gg1
 10
1.831100
 20
-0.041000
  0
VERTEX
  8
gg1
 10
1.811100
 20
-0.041000
  0
VERTEX
  8
gg1
 10
1.801100
 20
-0.031000
  0
SEQEND
  8
gg1
  0
POLYLINE
  8
gg1
 62
1
 40
0.000000
 41
0.000000
 66
  1
  0
VERTEX
  8
gg1
 10
1.891100
 20
-0.041000
  0
VERTEX
  8
gg1
 10
1.891100
 20
0.019000
  0
VERTEX
  8
gg1
 10
1.861100
 20
-0.011000
  0
VERTEX
  8
gg1
 10
1.901100
 20
-0.011000
  0
SEQEND
  8
gg1
  0
POLYLINE
  8
gg1
 62
1
 40
0.000000
 41
0.000000
 66
  1
  0
VERTEX
  8
gg1
 10
1.921100
 20
0.009000
  0
VERTEX
  8
gg1
 10
1.931100
 20
0.019000
  0
VERTEX
  8
gg1
 10
1.951100
 20
0.019000
  0
VERTEX
  8
gg1
 10
1.961100
 20
0.009000
  0
VERTEX
  8
gg1
 10
1.961100
 20
-0.001000
  0
VERTEX
  8
gg1
 10
1.951100
 20
-0.011000
  0
VERTEX
  8
gg1
 10
1.941100
 20
-0.011000
  0
VERTEX
  8
gg1
 10
1.951100
 20
-0.011000
  0
VERTEX
  8
gg1
 10
1.961100
 20
-0.021000
  0
VERTEX
  8
gg1
 10
1.961100
 20
-0.031000
  0
VERTEX
  8
gg1
 10
1.951100
 20
-0.041000
  0
VERTEX
  8
gg1
 10
1.931100
 20
-0.041000
  0
VERTEX
  8
gg1
 10
1.921100
 20
-0.031000
  0
SEQEND
  8
gg1
  0
POLYLINE
  8
gg1
 62
1
 40
0.000000
 41
0.000000
 66
  1
  0
VERTEX
  8
gg1
 10
2.021100
 20
0.019000
  0
VERTEX
  8
gg1
 10
2.001100
 20
0.009000
  0
VERTEX
  8
gg1
 10
1.981100
 20
-0.011000
  0
VERTEX
  8
gg1
 10
1.981100
 20
-0.031000
  0
VERTEX
  8
gg1
 10
1.991100
 20
-0.041000
  0
VERTEX
  8
gg1
 10
2.011100
 20
-0.041000
  0
VERTEX
  8
gg1
 10
2.021100
 20
-0.031000
  0
VERTEX
  8
gg1
 10
2.021100
 20
-0.021000
  0
VERTEX
  8
gg1
 10
2.011100
 20
-0.011000
  0
VERTEX
  8
gg1
 10
1.981100
 20
-0.011000
  0
SEQEND
  8
gg1
  0
POLYLINE
  8
gg1
 62
1
 40
0.000000
 41
0.000000
 66
  1
  0
VERTEX
  8
gg1
 10
2.041100
 20
-0.041000
  0
VERTEX
  8
gg1
 10
2.041100
 20
-0.001000
  0
VERTEX
  8
gg1
 10
2.051100
 20
-0.001000
  0
VERTEX
  8
gg1
 10
2.061100
 20
-0.011000
  0
VERTEX
  8
gg1
 10
2.061100
 20
-0.041000
  0
VERTEX
  8
gg1
 10
2.061100
 20
-0.011000
  0
VERTEX
  8
gg1
 10
2.071100
 20
-0.001000
  0
VERTEX
  8
gg1
 10
2.081000
 20
-0.011000
  0
VERTEX
  8
gg1
 10
2.081000
 20
-0.041000
  0
SEQEND
  8
gg1
  0
POLYLINE
  8
gg1
 62
1
 40
0.000000
 41
0.000000
 66
  1
  0
VERTEX
  8
gg1
 10
2.101000
 20
-0.041000
  0
VERTEX
  8
gg1
 10
2.121000
 20
-0.041000
  0
VERTEX
  8
gg1
 10
2.111000
 20
-0.041000
  0
VERTEX
  8
gg1
 10
2.111000
 20
-0.001000
  0
VERTEX
  8
gg1
 10
2.101000
 20
-0.001000
  0
SEQEND
  8
gg1
  0
POLYLINE
  8
gg1
 62
1
 40
0.000000
 41
0.000000
 66
  1
  0
VERTEX
  8
gg1
 10
2.151000
 20
-0.041000
  0
VERTEX
  8
gg1
 10
2.171000
 20
-0.041000
  0
VERTEX
  8
gg1
 10
2.161000
 20
-0.041000
  0
VERTEX
  8
gg1
 10
2.161000
 20
0.019000
  0
VERTEX
  8
gg1
 10
2.151000
 20
0.019000
  0
SEQEND
  8
gg1
  0
POLYLINE
  8
gg1
 62
1
 40
0.000000
 41
0.000000
 66
  1
  0
VERTEX
  8
gg1
 10
-0.544000
 20
1.804100
  0
VERTEX
  8
gg1
 10
-0.554000
 20
1.814100
  0
VERTEX
  8
gg1
 10
-0.554000
 20
1.834000
  0
VERTEX
  8
gg1
 10
-0.544000
 20
1.844000
  0
VERTEX
  8
gg1
 10
-0.534000
 20
1.844000
  0
VERTEX
  8
gg1
 10
-0.524000
 20
1.834000
  0
VERTEX
  8
gg1
 10
-0.524000
 20
1.824100
  0
VERTEX
  8
gg1
 10
-0.524000
 20
1.834000
  0
VERTEX
  8
gg1
 10
-0.514000
 20
1.844000
  0
VERTEX
  8
gg1
 10
-0.504000
 20
1.844000
  0
VERTEX
  8
gg1
 10
-0.494000
 20
1.834000
  0
VERTEX
  8
gg1
 10
-0.494000
 20
1.814100
  0
VERTEX
  8
gg1
 10
-0.504000
 20
1.804100
  0
SEQEND
  8
gg1
  0
POLYLINE
  8
gg1
 62
1
 40
0.000000
 41
0.000000
 66
  1
  0
VERTEX
  8
gg1
 10
-0.554000
 20
1.864000
  0
VERTEX
  8
gg1
 10
-0.554000
 20
1.904000
  0
VERTEX
  8
gg1
 10
-0.544000
 20
1.904000
  0
VERTEX
  8
gg1
 10
-0.504000
 20
1.864000
  0
VERTEX
  8
gg1
 10
-0.494000
 20
1.864000
  0
SEQEND
  8
gg1
  0
POLYLINE
  8
gg1
 62
1
 40
0.000000
 41
0.000000
 66
  1
  0
VERTEX
  8
gg1
 10
-0.494000
 20
1.924000
  0
VERTEX
  8
gg1
 10
-0.494000
 20
1.944000
  0
VERTEX
  8
gg1
 10
-0.494000
 20
1.934000
  0
VERTEX
  8
gg1
 10
-0.554000
 20
1.934000
  0
VERTEX
  8
gg1
 10
-0.544000
 20
1.924000
  0
SEQEND
  8
gg1
  0
POLYLINE
  8
gg1
 62
1
 40
0.000000
 41
0.000000
 66
  1
  0
VERTEX
  8
gg1
 10
-0.544000
 20
1.974000
  0
VERTEX
  8
gg1
 10
-0.554000
 20
1.984000
  0
VERTEX
  8
gg1
 10
-0.554000
 20
2.004000
  0
VERTEX
  8
gg1
 10
-0.544000
 20
2.014000
  0
VERTEX
  8
gg1
 10
-0.504000
 20
2.014000
  0
VERTEX
  8
gg1
 10
-0.494000
 20
2.004000
  0
VERTEX
  8
gg1
 10
-0.494000
 20
1.984000
  0
VERTEX
  8
gg1
 10
-0.504000
 20
1.974000
  0
VERTEX
  8
gg1
 10
-0.544000
 20
1.974000
  0
SEQEND
  8
gg1
  0
POLYLINE
  8
gg1
 62
1
 40
0.000000
 41
0.000000
 66
  1
  0
VERTEX
  8
gg1
 10
-0.494000
 20
2.034000
  0
VERTEX
  8
gg1
 10
-0.534000
 20
2.034000
  0
VERTEX
  8
gg1
 10
-0.534000
 20
2.044000
  0
VERTEX
  8
gg1
 10
-0.524000
 20
2.054000
  0
VERTEX
  8
gg1
 10
-0.494000
 20
2.054000
  0
VERTEX
  8
gg1
 10
-0.524000
 20
2.054000
  0
VERTEX
  8
gg1
 10
-0.534000
 20
2.064000
  0
VERTEX
  8
gg1
 10
-0.524000
 20
2.074000
  0
VERTEX
  8
gg1
 10
-0.494000
 20
2.074000
  0
SEQEND
  8
gg1
  0
POLYLINE
  8
gg1
 62
1
 40
0.000000
 41
0.000000
 66
  1
  0
VERTEX
  8
gg1
 10
-0.494000
 20
2.094000
  0
VERTEX
  8
gg1
 10
-0.494000
 20
2.114000
  0
VERTEX
  8
gg1
 10
-0.494000
 20
2.104000
  0
VERTEX
  8
gg1
 10
-0.534000
 20
2.104000
  0
VERTEX
  8
gg1
 10
-0.534000
 20
2.094000
  0
SEQEND
  8
gg1
  0
POLYLINE
  8
gg1
 62
1
 40
0.000000
 41
0.000000
 66
  1
  0
VERTEX
  8
gg1
 10
-0.494000
 20
2.143900
  0
VERTEX
  8
gg1
 10
-0.494000
 20
2.163900
  0
VERTEX
  8
gg1
 10
-0.494000
 20
2.153900
  0
VERTEX
  8
gg1
 10
-0.554000
 20
2.153900
  0
VERTEX
  8
gg1
 10
-0.554000
 20
2.143900
  0
SEQEND
  8
gg1
  0
POLYLINE
  8
gg1
 62
1
 40
0.000000
 41
0.000000
 66
  1
  0
VERTEX
  8
gg1
 10
3.498300
 20
2.943300
  0
VERTEX
  8
gg1
 10
3.538300
 20
2.943300
  0
SEQEND
  8
gg1
  0
POLYLINE
  8
gg1
 62
1
 40
0.000000
 41
0.000000
 66
  1
  0
VERTEX
  8
gg1
 10
3.518300
 20
2.923300
  0
VERTEX
  8
gg1
 10
3.518300
 20
2.963300
  0
SEQEND
  8
gg1
  0
POLYLINE
  8
gg1
 62
1
 40
0.000000
 41
0.000000
 66
  1
  0
VERTEX
  8
gg1
 10
3.548300
 20
2.856700
  0
VERTEX
  8
gg1
 10
3.588300
 20
2.856700
  0
SEQEND
  8
gg1
  0
POLYLINE
  8
gg1
 62
1
 40
0.000000
 41
0.000000
 66
  1
  0
VERTEX
  8
gg1
 10
3.568300
 20
2.836700
  0
VERTEX
  8
gg1
 10
3.568300
 20
2.876700
  0
SEQEND
  8
gg1
  0
POLYLINE
  8
gg1
 62
1
 40
0.000000
 41
0.000000
 66
  1
  0
VERTEX
  8
gg1
 10
3.598300
 20
2.770100
  0
VERTEX
  8
gg1
 10
3.638300
 20
2.770100
  0
SEQEND
  8
gg1
  0
POLYLINE
  8
gg1
 62
1
 40
0.000000
 41
0.000000
 66
  1
  0
VERTEX
  8
gg1
 10
3.618300
 20
2.750100
  0
VERTEX
  8
gg1
 10
3.618300
 20
2.790100
  0
SEQEND
  8
gg1
  0
POLYLINE
  8
gg1
 62
1
 40
0.000000
 41
0.000000
 66
  1
  0
VERTEX
  8
gg1
 10
3.448300
 20
3.029900
  0
VERTEX
  8
gg1
 10
3.488300
 20
3.029900
  0
SEQEND
  8
gg1
  0
POLYLINE
  8
gg1
 62
1
 40
0.000000
 41
0.000000
 66
  1
  0
VERTEX
  8
gg1
 10
3.468300
 20
3.009900
  0
VERTEX
  8
gg1
 10
3.468300
 20
3.049900
  0
SEQEND
  8
gg1
  0
POLYLINE
  8
gg1
 62
1
 40
0.000000
 41
0.000000
 66
  1
  0
VERTEX
  8
gg1
 10
3.240000
 20
2.930000
  0
VERTEX
  8
gg1
 10
3.280000
 20
2.930000
  0
SEQEND
  8
gg1
  0
POLYLINE
  8
gg1
 62
1
 40
0.000000
 41
0.000000
 66
  1
  0
VERTEX
  8
gg1
 10
3.260000
 20
2.910000
  0
VERTEX
  8
gg1
 10
3.260000
 20
2.950000
  0
SEQEND
  8
gg1
  0
POLYLINE
  8
gg1
 62
1
 40
0.000000
 41
0.000000
 66
  1
  0
VERTEX
  8
gg1
 10
3.409000
 20
2.937000
  0
VERTEX
  8
gg1
 10
3.449000
 20
2.937000
  0
SEQEND
  8
gg1
  0
POLYLINE
  8
gg1
 62
1
 40
0.000000
 41
0.000000
 66
  1
  0
VERTEX
  8
gg1
 10
3.429000
 20
2.917000
  0
VERTEX
  8
gg1
 10
3.429000
 20
2.957000
  0
SEQEND
  8
gg1
  0
POLYLINE
  8
gg1
 62
1
 40
0.000000
 41
0.000000
 66
  1
  0
VERTEX
  8
gg1
 10
3.440000
 20
2.725000
  0
VERTEX
  8
gg1
 10
3.480000
 20
2.725000
  0
SEQEND
  8
gg1
  0
POLYLINE
  8
gg1
 62
1
 40
0.000000
 41
0.000000
 66
  1
  0
VERTEX
  8
gg1
 10
3.460000
 20
2.705000
  0
VERTEX
  8
gg1
 10
3.460000
 20
2.745000
  0
SEQEND
  8
gg1
  0
POLYLINE
  8
gg1
 62
1
 40
0.000000
 41
0.000000
 66
  1
  0
VERTEX
  8
gg1
 10
3.535000
 20
2.705000
  0
VERTEX
  8
gg1
 10
3.575000
 20
2.705000
  0
SEQEND
  8
gg1
  0
POLYLINE
  8
gg1
 62
1
 40
0.000000
 41
0.000000
 66
  1
  0
VERTEX
  8
gg1
 10
3.555000
 20
2.685000
  0
VERTEX
  8
gg1
 10
3.555000
 20
2.725000
  0
SEQEND
  8
gg1
  0
POLYLINE
  8
gg1
 62
1
 40
0.000000
 41
0.000000
 66
  1
  0
VERTEX
  8
gg1
 10
0.411700
 20
2.856700
  0
VERTEX
  8
gg1
 10
0.451700
 20
2.856700
  0
SEQEND
  8
gg1
  0
POLYLINE
  8
gg1
 62
1
 40
0.000000
 41
0.000000
 66
  1
  0
VERTEX
  8
gg1
 10
0.431700
 20
2.836700
  0
VERTEX
  8
gg1
 10
0.431700
 20
2.876700
  0
SEQEND
  8
gg1
  0
POLYLINE
  8
gg1
 62
1
 40
0.000000
 41
0.000000
 66
  1
  0
VERTEX
  8
gg1
 10
0.461700
 20
2.943300
  0
VERTEX
  8
gg1
 10
0.501700
 20
2.943300
  0
SEQEND
  8
gg1
  0
POLYLINE
  8
gg1
 62
1
 40
0.000000
 41
0.000000
 66
  1
  0
VERTEX
  8
gg1
 10
0.481700
 20
2.923300
  0
VERTEX
  8
gg1
 10
0.481700
 20
2.963300
  0
SEQEND
  8
gg1
  0
POLYLINE
  8
gg1
 62
1
 40
0.000000
 41
0.000000
 66
  1
  0
VERTEX
  8
gg1
 10
0.511700
 20
3.029900
  0
VERTEX
  8
gg1
 10
0.551700
 20
3.029900
  0
SEQEND
  8
gg1
  0
POLYLINE
  8
gg1
 62
1
 40
0.000000
 41
0.000000
 66
  1
  0
VERTEX
  8
gg1
 10
0.531700
 20
3.009900
  0
VERTEX
  8
gg1
 10
0.531700
 20
3.049900
  0
SEQEND
  8
gg1
  0
POLYLINE
  8
gg1
 62
1
 40
0.000000
 41
0.000000
 66
  1
  0
VERTEX
  8
gg1
 10
0.361700
 20
2.770100
  0
VERTEX
  8
gg1
 10
0.401700
 20
2.770100
  0
SEQEND
  8
gg1
  0
POLYLINE
  8
gg1
 62
1
 40
0.000000
 41
0.000000
 66
  1
  0
VERTEX
  8
gg1
 10
0.381700
 20
2.750100
  0
VERTEX
  8
gg1
 10
0.381700
 20
2.790100
  0
SEQEND
  8
gg1
  0
POLYLINE
  8
gg1
 62
1
 40
0.000000
 41
0.000000
 66
  1
  0
VERTEX
  8
gg1
 10
0.448300
 20
2.720100
  0
VERTEX
  8
gg1
 10
0.488300
 20
2.720100
  0
SEQEND
  8
gg1
  0
POLYLINE
  8
gg1
 62
1
 40
0.000000
 41
0.000000
 66
  1
  0
VERTEX
  8
gg1
 10
0.468300
 20
2.700100
  0
VERTEX
  8
gg1
 10
0.468300
 20
2.740100
  0
SEQEND
  8
gg1
  0
POLYLINE
  8
gg1
 62
1
 40
0.000000
 41
0.000000
 66
  1
  0
VERTEX
  8
gg1
 10
0.498300
 20
2.806700
  0
VERTEX
  8
gg1
 10
0.538300
 20
2.806700
  0
SEQEND
  8
gg1
  0
POLYLINE
  8
gg1
 62
1
 40
0.000000
 41
0.000000
 66
  1
  0
VERTEX
  8
gg1
 10
0.518300
 20
2.786700
  0
VERTEX
  8
gg1
 10
0.518300
 20
2.826700
  0
SEQEND
  8
gg1
  0
POLYLINE
  8
gg1
 62
1
 40
0.000000
 41
0.000000
 66
  1
  0
VERTEX
  8
gg1
 10
0.548300
 20
2.893300
  0
VERTEX
  8
gg1
 10
0.588300
 20
2.893300
  0
SEQEND
  8
gg1
  0
POLYLINE
  8
gg1
 62
1
 40
0.000000
 41
0.000000
 66
  1
  0
VERTEX
  8
gg1
 10
0.568300
 20
2.873300
  0
VERTEX
  8
gg1
 10
0.568300
 20
2.913300
  0
SEQEND
  8
gg1
  0
POLYLINE
  8
gg1
 62
1
 40
0.000000
 41
0.000000
 66
  1
  0
VERTEX
  8
gg1
 10
0.601800
 20
2.969000
  0
VERTEX
  8
gg1
 10
0.641800
 20
2.969000
  0
SEQEND
  8
gg1
  0
POLYLINE
  8
gg1
 62
1
 40
0.000000
 41
0.000000
 66
  1
  0
VERTEX
  8
gg1
 10
0.621800
 20
2.949000
  0
VERTEX
  8
gg1
 10
0.621800
 20
2.989000
  0
SEQEND
  8
gg1
  0
POLYLINE
  8
gg1
 62
1
 40
0.000000
 41
0.000000
 66
  1
  0
VERTEX
  8
gg1
 10
0.684300
 20
3.225000
  0
VERTEX
  8
gg1
 10
0.724300
 20
3.225000
  0
SEQEND
  8
gg1
  0
POLYLINE
  8
gg1
 62
1
 40
0.000000
 41
0.000000
 66
  1
  0
VERTEX
  8
gg1
 10
0.704300
 20
3.205000
  0
VERTEX
  8
gg1
 10
0.704300
 20
3.245000
  0
SEQEND
  8
gg1
  0
POLYLINE
  8
gg1
 62
1
 40
0.000000
 41
0.000000
 66
  1
  0
VERTEX
  8
gg1
 10
0.755000
 20
3.295700
  0
VERTEX
  8
gg1
 10
0.795000
 20
3.295700
  0
SEQEND
  8
gg1
  0
POLYLINE
  8
gg1
 62
1
 40
0.000000
 41
0.000000
 66
  1
  0
VERTEX
  8
gg1
 10
0.775000
 20
3.275700
  0
VERTEX
  8
gg1
 10
0.775000
 20
3.315700
  0
SEQEND
  8
gg1
  0
POLYLINE
  8
gg1
 62
1
 40
0.000000
 41
0.000000
 66
  1
  0
VERTEX
  8
gg1
 10
0.825700
 20
3.366400
  0
VERTEX
  8
gg1
 10
0.865700
 20
3.366400
  0
SEQEND
  8
gg1
  0
POLYLINE
  8
gg1
 62
1
 40
0.000000
 41
0.000000
 66
  1
  0
VERTEX
  8
gg1
 10
0.845700
 20
3.346400
  0
VERTEX
  8
gg1
 10
0.845700
 20
3.386400
  0
SEQEND
  8
gg1
  0
POLYLINE
  8
gg1
 62
1
 40
0.000000
 41
0.000000
 66
  1
  0
VERTEX
  8
gg1
 10
0.613600
 20
3.154300
  0
VERTEX
  8
gg1
 10
0.653600
 20
3.154300
  0
SEQEND
  8
gg1
  0
POLYLINE
  8
gg1
 62
1
 40
0.000000
 41
0.000000
 66
  1
  0
VERTEX
  8
gg1
 10
0.633600
 20
3.134300
  0
VERTEX
  8
gg1
 10
0.633600
 20
3.174300
  0
SEQEND
  8
gg1
  0
POLYLINE
  8
gg1
 62
1
 40
0.000000
 41
0.000000
 66
  1
  0
VERTEX
  8
gg1
 10
0.605000
 20
3.050000
  0
VERTEX
  8
gg1
 10
0.645000
 20
3.050000
  0
SEQEND
  8
gg1
  0
POLYLINE
  8
gg1
 62
1
 40
0.000000
 41
0.000000
 66
  1
  0
VERTEX
  8
gg1
 10
0.625000
 20
3.030000
  0
VERTEX
  8
gg1
 10
0.625000
 20
3.070000
  0
SEQEND
  8
gg1
  0
POLYLINE
  8
gg1
 62
1
 40
0.000000
 41
0.000000
 66
  1
  0
VERTEX
  8
gg1
 10
0.675000
 20
3.100000
  0
VERTEX
  8
gg1
 10
0.715000
 20
3.100000
  0
SEQEND
  8
gg1
  0
POLYLINE
  8
gg1
 62
1
 40
0.000000
 41
0.000000
 66
  1
  0
VERTEX
  8
gg1
 10
0.695000
 20
3.080000
  0
VERTEX
  8
gg1
 10
0.695000
 20
3.120000
  0
SEQEND
  8
gg1
  0
POLYLINE
  8
gg1
 62
1
 40
0.000000
 41
0.000000
 66
  1
  0
VERTEX
  8
gg1
 10
0.780000
 20
3.200000
  0
VERTEX
  8
gg1
 10
0.820000
 20
3.200000
  0
SEQEND
  8
gg1
  0
POLYLINE
  8
gg1
 62
1
 40
0.000000
 41
0.000000
 66
  1
  0
VERTEX
  8
gg1
 10
0.800000
 20
3.180000
  0
VERTEX
  8
gg1
 10
0.800000
 20
3.220000
  0
SEQEND
  8
gg1
  0
POLYLINE
  8
gg1
 62
1
 40
0.000000
 41
0.000000
 66
  1
  0
VERTEX
  8
gg1
 10
0.855000
 20
3.275000
  0
VERTEX
  8
gg1
 10
0.895000
 20
3.275000
  0
SEQEND
  8
gg1
  0
POLYLINE
  8
gg1
 62
1
 40
0.000000
 41
0.000000
 66
  1
  0
VERTEX
  8
gg1
 10
0.875000
 20
3.255000
  0
VERTEX
  8
gg1
 10
0.875000
 20
3.295000
  0
SEQEND
  8
gg1
  0
POLYLINE
  8
gg1
 62
1
 40
0.000000
 41
0.000000
 66
  1
  0
VERTEX
  8
gg1
 10
3.205000
 20
3.295700
  0
VERTEX
  8
gg1
 10
3.245000
 20
3.295700
  0
SEQEND
  8
gg1
  0
POLYLINE
  8
gg1
 62
1
 40
0.000000
 41
0.000000
 66
  1
  0
VERTEX
  8
gg1
 10
3.225000
 20
3.275700
  0
VERTEX
  8
gg1
 10
3.225000
 20
3.315700
  0
SEQEND
  8
gg1
  0
POLYLINE
  8
gg1
 62
1
 40
0.000000
 41
0.000000
 66
  1
  0
VERTEX
  8
gg1
 10
3.275700
 20
3.225000
  0
VERTEX
  8
gg1
 10
3.315700
 20
3.225000
  0
SEQEND
  8
gg1
  0
POLYLINE
  8
gg1
 62
1
 40
0.000000
 41
0.000000
 66
  1
  0
VERTEX
  8
gg1
 10
3.295700
 20
3.205000
  0
VERTEX
  8
gg1
 10
3.295700
 20
3.245000
  0
SEQEND
  8
gg1
  0
POLYLINE
  8
gg1
 62
1
 40
0.000000
 41
0.000000
 66
  1
  0
VERTEX
  8
gg1
 10
3.346400
 20
3.154300
  0
VERTEX
  8
gg1
 10
3.386400
 20
3.154300
  0
SEQEND
  8
gg1
  0
POLYLINE
  8
gg1
 62
1
 40
0.000000
 41
0.000000
 66
  1
  0
VERTEX
  8
gg1
 10
3.366400
 20
3.134300
  0
VERTEX
  8
gg1
 10
3.366400
 20
3.174300
  0
SEQEND
  8
gg1
  0
POLYLINE
  8
gg1
 62
1
 40
0.000000
 41
0.000000
 66
  1
  0
VERTEX
  8
gg1
 10
3.134300
 20
3.366400
  0
VERTEX
  8
gg1
 10
3.174300
 20
3.366400
  0
SEQEND
  8
gg1
  0
POLYLINE
  8
gg1
 62
1
 40
0.000000
 41
0.000000
 66
  1
  0
VERTEX
  8
gg1
 10
3.154300
 20
3.346400
  0
VERTEX
  8
gg1
 10
3.154300
 20
3.386400
  0
SEQEND
  8
gg1
  0
POLYLINE
  8
gg1
 62
1
 40
0.000000
 41
0.000000
 66
  1
  0
VERTEX
  8
gg1
 10
3.105000
 20
3.275000
  0
VERTEX
  8
gg1
 10
3.145000
 20
3.275000
  0
SEQEND
  8
gg1
  0
POLYLINE
  8
gg1
 62
1
 40
0.000000
 41
0.000000
 66
  1
  0
VERTEX
  8
gg1
 10
3.125000
 20
3.255000
  0
VERTEX
  8
gg1
 10
3.125000
 20
3.295000
  0
SEQEND
  8
gg1
  0
POLYLINE
  8
gg1
 62
1
 40
0.000000
 41
0.000000
 66
  1
  0
VERTEX
  8
gg1
 10
3.180000
 20
3.200000
  0
VERTEX
  8
gg1
 10
3.220000
 20
3.200000
  0
SEQEND
  8
gg1
  0
POLYLINE
  8
gg1
 62
1
 40
0.000000
 41
0.000000
 66
  1
  0
VERTEX
  8
gg1
 10
3.200000
 20
3.180000
  0
VERTEX
  8
gg1
 10
3.200000
 20
3.220000
  0
SEQEND
  8
gg1
  0
POLYLINE
  8
gg1
 62
1
 40
0.000000
 41
0.000000
 66
  1
  0
VERTEX
  8
gg1
 10
3.256000
 20
3.147000
  0
VERTEX
  8
gg1
 10
3.296000
 20
3.147000
  0
SEQEND
  8
gg1
  0
POLYLINE
  8
gg1
 62
1
 40
0.000000
 41
0.000000
 66
  1
  0
VERTEX
  8
gg1
 10
3.276000
 20
3.127000
  0
VERTEX
  8
gg1
 10
3.276000
 20
3.167000
  0
SEQEND
  8
gg1
  0
POLYLINE
  8
gg1
 62
1
 40
0.000000
 41
0.000000
 66
  1
  0
VERTEX
  8
gg1
 10
3.308000
 20
3.047000
  0
VERTEX
  8
gg1
 10
3.348000
 20
3.047000
  0
SEQEND
  8
gg1
  0
POLYLINE
  8
gg1
 62
1
 40
0.000000
 41
0.000000
 66
  1
  0
VERTEX
  8
gg1
 10
3.328000
 20
3.027000
  0
VERTEX
  8
gg1
 10
3.328000
 20
3.067000
  0
SEQEND
  8
gg1
  0
POLYLINE
  8
gg1
 62
1
 40
0.000000
 41
0.000000
 66
  1
  0
VERTEX
  8
gg1
 10
2.654300
 20
3.650900
  0
VERTEX
  8
gg1
 10
2.694300
 20
3.650900
  0
SEQEND
  8
gg1
  0
POLYLINE
  8
gg1
 62
1
 40
0.000000
 41
0.000000
 66
  1
  0
VERTEX
  8
gg1
 10
2.674300
 20
3.630900
  0
VERTEX
  8
gg1
 10
2.674300
 20
3.670900
  0
SEQEND
  8
gg1
  0
POLYLINE
  8
gg1
 62
1
 40
0.000000
 41
0.000000
 66
  1
  0
VERTEX
  8
gg1
 10
2.745900
 20
3.610700
  0
VERTEX
  8
gg1
 10
2.785900
 20
3.610700
  0
SEQEND
  8
gg1
  0
POLYLINE
  8
gg1
 62
1
 40
0.000000
 41
0.000000
 66
  1
  0
VERTEX
  8
gg1
 10
2.765900
 20
3.590700
  0
VERTEX
  8
gg1
 10
2.765900
 20
3.630700
  0
SEQEND
  8
gg1
  0
POLYLINE
  8
gg1
 62
1
 40
0.000000
 41
0.000000
 66
  1
  0
VERTEX
  8
gg1
 10
2.837400
 20
3.570500
  0
VERTEX
  8
gg1
 10
2.877400
 20
3.570500
  0
SEQEND
  8
gg1
  0
POLYLINE
  8
gg1
 62
1
 40
0.000000
 41
0.000000
 66
  1
  0
VERTEX
  8
gg1
 10
2.857400
 20
3.550500
  0
VERTEX
  8
gg1
 10
2.857400
 20
3.590500
  0
SEQEND
  8
gg1
  0
POLYLINE
  8
gg1
 62
1
 40
0.000000
 41
0.000000
 66
  1
  0
VERTEX
  8
gg1
 10
2.562700
 20
3.691100
  0
VERTEX
  8
gg1
 10
2.602700
 20
3.691100
  0
SEQEND
  8
gg1
  0
POLYLINE
  8
gg1
 62
1
 40
0.000000
 41
0.000000
 66
  1
  0
VERTEX
  8
gg1
 10
2.582700
 20
3.671100
  0
VERTEX
  8
gg1
 10
2.582700
 20
3.711100
  0
SEQEND
  8
gg1
  0
POLYLINE
  8
gg1
 62
1
 40
0.000000
 41
0.000000
 66
  1
  0
VERTEX
  8
gg1
 10
2.522600
 20
3.599500
  0
VERTEX
  8
gg1
 10
2.562600
 20
3.599500
  0
SEQEND
  8
gg1
  0
POLYLINE
  8
gg1
 62
1
 40
0.000000
 41
0.000000
 66
  1
  0
VERTEX
  8
gg1
 10
2.542600
 20
3.579500
  0
VERTEX
  8
gg1
 10
2.542600
 20
3.619500
  0
SEQEND
  8
gg1
  0
POLYLINE
  8
gg1
 62
1
 40
0.000000
 41
0.000000
 66
  1
  0
VERTEX
  8
gg1
 10
2.614100
 20
3.559300
  0
VERTEX
  8
gg1
 10
2.654100
 20
3.559300
  0
SEQEND
  8
gg1
  0
POLYLINE
  8
gg1
 62
1
 40
0.000000
 41
0.000000
 66
  1
  0
VERTEX
  8
gg1
 10
2.634100
 20
3.539300
  0
VERTEX
  8
gg1
 10
2.634100
 20
3.579300
  0
SEQEND
  8
gg1
  0
POLYLINE
  8
gg1
 62
1
 40
0.000000
 41
0.000000
 66
  1
  0
VERTEX
  8
gg1
 10
2.705700
 20
3.519100
  0
VERTEX
  8
gg1
 10
2.745700
 20
3.519100
  0
SEQEND
  8
gg1
  0
POLYLINE
  8
gg1
 62
1
 40
0.000000
 41
0.000000
 66
  1
  0
VERTEX
  8
gg1
 10
2.725700
 20
3.499100
  0
VERTEX
  8
gg1
 10
2.725700
 20
3.539100
  0
SEQEND
  8
gg1
  0
POLYLINE
  8
gg1
 62
1
 40
0.000000
 41
0.000000
 66
  1
  0
VERTEX
  8
gg1
 10
2.797300
 20
3.478900
  0
VERTEX
  8
gg1
 10
2.837300
 20
3.478900
  0
SEQEND
  8
gg1
  0
POLYLINE
  8
gg1
 62
1
 40
0.000000
 41
0.000000
 66
  1
  0
VERTEX
  8
gg1
 10
2.817300
 20
3.458900
  0
VERTEX
  8
gg1
 10
2.817300
 20
3.498900
  0
SEQEND
  8
gg1
  0
POLYLINE
  8
gg1
 62
1
 40
0.000000
 41
0.000000
 66
  1
  0
VERTEX
  8
gg1
 10
1.437400
 20
3.599500
  0
VERTEX
  8
gg1
 10
1.477400
 20
3.599500
  0
SEQEND
  8
gg1
  0
POLYLINE
  8
gg1
 62
1
 40
0.000000
 41
0.000000
 66
  1
  0
VERTEX
  8
gg1
 10
1.457400
 20
3.579500
  0
VERTEX
  8
gg1
 10
1.457400
 20
3.619500
  0
SEQEND
  8
gg1
  0
POLYLINE
  8
gg1
 62
1
 40
0.000000
 41
0.000000
 66
  1
  0
VERTEX
  8
gg1
 10
1.345900
 20
3.559300
  0
VERTEX
  8
gg1
 10
1.385900
 20
3.559300
  0
SEQEND
  8
gg1
  0
POLYLINE
  8
gg1
 62
1
 40
0.000000
 41
0.000000
 66
  1
  0
VERTEX
  8
gg1
 10
1.365900
 20
3.539300
  0
VERTEX
  8
gg1
 10
1.365900
 20
3.579300
  0
SEQEND
  8
gg1
  0
POLYLINE
  8
gg1
 62
1
 40
0.000000
 41
0.000000
 66
  1
  0
VERTEX
  8
gg1
 10
1.254300
 20
3.519100
  0
VERTEX
  8
gg1
 10
1.294300
 20
3.519100
  0
SEQEND
  8
gg1
  0
POLYLINE
  8
gg1
 62
1
 40
0.000000
 41
0.000000
 66
  1
  0
VERTEX
  8
gg1
 10
1.274300
 20
3.499100
  0
VERTEX
  8
gg1
 10
1.274300
 20
3.539100
  0
SEQEND
  8
gg1
  0
POLYLINE
  8
gg1
 62
1
 40
0.000000
 41
0.000000
 66
  1
  0
VERTEX
  8
gg1
 10
1.162700
 20
3.478900
  0
VERTEX
  8
gg1
 10
1.202700
 20
3.478900
  0
SEQEND
  8
gg1
  0
POLYLINE
  8
gg1
 62
1
 40
0.000000
 41
0.000000
 66
  1
  0
VERTEX
  8
gg1
 10
1.182700
 20
3.458900
  0
VERTEX
  8
gg1
 10
1.182700
 20
3.498900
  0
SEQEND
  8
gg1
  0
POLYLINE
  8
gg1
 62
1
 40
0.000000
 41
0.000000
 66
  1
  0
VERTEX
  8
gg1
 10
1.122600
 20
3.570500
  0
VERTEX
  8
gg1
 10
1.162600
 20
3.570500
  0
SEQEND
  8
gg1
  0
POLYLINE
  8
gg1
 62
1
 40
0.000000
 41
0.000000
 66
  1
  0
VERTEX
  8
gg1
 10
1.142600
 20
3.550500
  0
VERTEX
  8
gg1
 10
1.142600
 20
3.590500
  0
SEQEND
  8
gg1
  0
POLYLINE
  8
gg1
 62
1
 40
0.000000
 41
0.000000
 66
  1
  0
VERTEX
  8
gg1
 10
1.397300
 20
3.691100
  0
VERTEX
  8
gg1
 10
1.437300
 20
3.691100
  0
SEQEND
  8
gg1
  0
POLYLINE
  8
gg1
 62
1
 40
0.000000
 41
0.000000
 66
  1
  0
VERTEX
  8
gg1
 10
1.417300
 20
3.671100
  0
VERTEX
  8
gg1
 10
1.417300
 20
3.711100
  0
SEQEND
  8
gg1
  0
POLYLINE
  8
gg1
 62
1
 40
0.000000
 41
0.000000
 66
  1
  0
VERTEX
  8
gg1
 10
1.305700
 20
3.650900
  0
VERTEX
  8
gg1
 10
1.345700
 20
3.650900
  0
SEQEND
  8
gg1
  0
POLYLINE
  8
gg1
 62
1
 40
0.000000
 41
0.000000
 66
  1
  0
VERTEX
  8
gg1
 10
1.325700
 20
3.630900
  0
VERTEX
  8
gg1
 10
1.325700
 20
3.670900
  0
SEQEND
  8
gg1
  0
POLYLINE
  8
gg1
 62
1
 40
0.000000
 41
0.000000
 66
  1
  0
VERTEX
  8
gg1
 10
1.214100
 20
3.610700
  0
VERTEX
  8
gg1
 10
1.254100
 20
3.610700
  0
SEQEND
  8
gg1
  0
POLYLINE
  8
gg1
 62
1
 40
0.000000
 41
0.000000
 66
  1
  0
VERTEX
  8
gg1
 10
1.234100
 20
3.590700
  0
VERTEX
  8
gg1
 10
1.234100
 20
3.630700
  0
SEQEND
  8
gg1
  0
POLYLINE
  8
gg1
 62
1
 40
0.000000
 41
0.000000
 66
  1
  0
VERTEX
  8
gg1
 10
1.530000
 20
3.375000
  0
VERTEX
  8
gg1
 10
1.570000
 20
3.375000
  0
SEQEND
  8
gg1
  0
POLYLINE
  8
gg1
 62
1
 40
0.000000
 41
0.000000
 66
  1
  0
VERTEX
  8
gg1
 10
1.550000
 20
3.355000
  0
VERTEX
  8
gg1
 10
1.550000
 20
3.395000
  0
SEQEND
  8
gg1
  0
POLYLINE
  8
gg1
 62
1
 40
0.000000
 41
0.000000
 66
  1
  0
VERTEX
  8
gg1
 10
1.630000
 20
3.575000
  0
VERTEX
  8
gg1
 10
1.670000
 20
3.575000
  0
SEQEND
  8
gg1
  0
POLYLINE
  8
gg1
 62
1
 40
0.000000
 41
0.000000
 66
  1
  0
VERTEX
  8
gg1
 10
1.650000
 20
3.555000
  0
VERTEX
  8
gg1
 10
1.650000
 20
3.595000
  0
SEQEND
  8
gg1
  0
POLYLINE
  8
gg1
 62
1
 40
0.000000
 41
0.000000
 66
  1
  0
VERTEX
  8
gg1
 10
1.730000
 20
3.375000
  0
VERTEX
  8
gg1
 10
1.770000
 20
3.375000
  0
SEQEND
  8
gg1
  0
POLYLINE
  8
gg1
 62
1
 40
0.000000
 41
0.000000
 66
  1
  0
VERTEX
  8
gg1
 10
1.750000
 20
3.355000
  0
VERTEX
  8
gg1
 10
1.750000
 20
3.395000
  0
SEQEND
  8
gg1
  0
POLYLINE
  8
gg1
 62
1
 40
0.000000
 41
0.000000
 66
  1
  0
VERTEX
  8
gg1
 10
1.830000
 20
3.375000
  0
VERTEX
  8
gg1
 10
1.870000
 20
3.375000
  0
SEQEND
  8
gg1
  0
POLYLINE
  8
gg1
 62
1
 40
0.000000
 41
0.000000
 66
  1
  0
VERTEX
  8
gg1
 10
1.850000
 20
3.355000
  0
VERTEX
  8
gg1
 10
1.850000
 20
3.395000
  0
SEQEND
  8
gg1
  0
POLYLINE
  8
gg1
 62
1
 40
0.000000
 41
0.000000
 66
  1
  0
VERTEX
  8
gg1
 10
1.930000
 20
3.375000
  0
VERTEX
  8
gg1
 10
1.970000
 20
3.375000
  0
SEQEND
  8
gg1
  0
POLYLINE
  8
gg1
 62
1
 40
0.000000
 41
0.000000
 66
  1
  0
VERTEX
  8
gg1
 10
1.950000
 20
3.355000
  0
VERTEX
  8
gg1
 10
1.950000
 20
3.395000
  0
SEQEND
  8
gg1
  0
POLYLINE
  8
gg1
 62
1
 40
0.000000
 41
0.000000
 66
  1
  0
VERTEX
  8
gg1
 10
2.030000
 20
3.375000
  0
VERTEX
  8
gg1
 10
2.070000
 20
3.375000
  0
SEQEND
  8
gg1
  0
POLYLINE
  8
gg1
 62
1
 40
0.000000
 41
0.000000
 66
  1
  0
VERTEX
  8
gg1
 10
2.050000
 20
3.355000
  0
VERTEX
  8
gg1
 10
2.050000
 20
3.395000
  0
SEQEND
  8
gg1
  0
POLYLINE
  8
gg1
 62
1
 40
0.000000
 41
0.000000
 66
  1
  0
VERTEX
  8
gg1
 10
2.130000
 20
3.375000
  0
VERTEX
  8
gg1
 10
2.170000
 20
3.375000
  0
SEQEND
  8
gg1
  0
POLYLINE
  8
gg1
 62
1
 40
0.000000
 41
0.000000
 66
  1
  0
VERTEX
  8
gg1
 10
2.150000
 20
3.355000
  0
VERTEX
  8
gg1
 10
2.150000
 20
3.395000
  0
SEQEND
  8
gg1
  0
POLYLINE
  8
gg1
 62
1
 40
0.000000
 41
0.000000
 66
  1
  0
VERTEX
  8
gg1
 10
2.230000
 20
3.375000
  0
VERTEX
  8
gg1
 10
2.270000
 20
3.375000
  0
SEQEND
  8
gg1
  0
POLYLINE
  8
gg1
 62
1
 40
0.000000
 41
0.000000
 66
  1
  0
VERTEX
  8
gg1
 10
2.250000
 20
3.355000
  0
VERTEX
  8
gg1
 10
2.250000
 20
3.395000
  0
SEQEND
  8
gg1
  0
POLYLINE
  8
gg1
 62
1
 40
0.000000
 41
0.000000
 66
  1
  0
VERTEX
  8
gg1
 10
2.330000
 20
3.375000
  0
VERTEX
  8
gg1
 10
2.370000
 20
3.375000
  0
SEQEND
  8
gg1
  0
POLYLINE
  8
gg1
 62
1
 40
0.000000
 41
0.000000
 66
  1
  0
VERTEX
  8
gg1
 10
2.350000
 20
3.355000
  0
VERTEX
  8
gg1
 10
2.350000
 20
3.395000
  0
SEQEND
  8
gg1
  0
POLYLINE
  8
gg1
 62
1
 40
0.000000
 41
0.000000
 66
  1
  0
VERTEX
  8
gg1
 10
2.430000
 20
3.375000
  0
VERTEX
  8
gg1
 10
2.470000
 20
3.375000
  0
SEQEND
  8
gg1
  0
POLYLINE
  8
gg1
 62
1
 40
0.000000
 41
0.000000
 66
  1
  0
VERTEX
  8
gg1
 10
2.450000
 20
3.355000
  0
VERTEX
  8
gg1
 10
2.450000
 20
3.395000
  0
SEQEND
  8
gg1
  0
POLYLINE
  8
gg1
 62
1
 40
0.000000
 41
0.000000
 66
  1
  0
VERTEX
  8
gg1
 10
2.430000
 20
3.475000
  0
VERTEX
  8
gg1
 10
2.470000
 20
3.475000
  0
SEQEND
  8
gg1
  0
POLYLINE
  8
gg1
 62
1
 40
0.000000
 41
0.000000
 66
  1
  0
VERTEX
  8
gg1
 10
2.450000
 20
3.455000
  0
VERTEX
  8
gg1
 10
2.450000
 20
3.495000
  0
SEQEND
  8
gg1
  0
POLYLINE
  8
gg1
 62
1
 40
0.000000
 41
0.000000
 66
  1
  0
VERTEX
  8
gg1
 10
2.330000
 20
3.475000
  0
VERTEX
  8
gg1
 10
2.370000
 20
3.475000
  0
SEQEND
  8
gg1
  0
POLYLINE
  8
gg1
 62
1
 40
0.000000
 41
0.000000
 66
  1
  0
VERTEX
  8
gg1
 10
2.350000
 20
3.455000
  0
VERTEX
  8
gg1
 10
2.350000
 20
3.495000
  0
SEQEND
  8
gg1
  0
POLYLINE
  8
gg1
 62
1
 40
0.000000
 41
0.000000
 66
  1
  0
VERTEX
  8
gg1
 10
2.230000
 20
3.475000
  0
VERTEX
  8
gg1
 10
2.270000
 20
3.475000
  0
SEQEND
  8
gg1
  0
POLYLINE
  8
gg1
 62
1
 40
0.000000
 41
0.000000
 66
  1
  0
VERTEX
  8
gg1
 10
2.250000
 20
3.455000
  0
VERTEX
  8
gg1
 10
2.250000
 20
3.495000
  0
SEQEND
  8
gg1
  0
POLYLINE
  8
gg1
 62
1
 40
0.000000
 41
0.000000
 66
  1
  0
VERTEX
  8
gg1
 10
2.130000
 20
3.475000
  0
VERTEX
  8
gg1
 10
2.170000
 20
3.475000
  0
SEQEND
  8
gg1
  0
POLYLINE
  8
gg1
 62
1
 40
0.000000
 41
0.000000
 66
  1
  0
VERTEX
  8
gg1
 10
2.150000
 20
3.455000
  0
VERTEX
  8
gg1
 10
2.150000
 20
3.495000
  0
SEQEND
  8
gg1
  0
POLYLINE
  8
gg1
 62
1
 40
0.000000
 41
0.000000
 66
  1
  0
VERTEX
  8
gg1
 10
1.530000
 20
3.475000
  0
VERTEX
  8
gg1
 10
1.570000
 20
3.475000
  0
SEQEND
  8
gg1
  0
POLYLINE
  8
gg1
 62
1
 40
0.000000
 41
0.000000
 66
  1
  0
VERTEX
  8
gg1
 10
1.550000
 20
3.455000
  0
VERTEX
  8
gg1
 10
1.550000
 20
3.495000
  0
SEQEND
  8
gg1
  0
POLYLINE
  8
gg1
 62
1
 40
0.000000
 41
0.000000
 66
  1
  0
VERTEX
  8
gg1
 10
1.630000
 20
3.475000
  0
VERTEX
  8
gg1
 10
1.670000
 20
3.475000
  0
SEQEND
  8
gg1
  0
POLYLINE
  8
gg1
 62
1
 40
0.000000
 41
0.000000
 66
  1
  0
VERTEX
  8
gg1
 10
1.650000
 20
3.455000
  0
VERTEX
  8
gg1
 10
1.650000
 20
3.495000
  0
SEQEND
  8
gg1
  0
POLYLINE
  8
gg1
 62
1
 40
0.000000
 41
0.000000
 66
  1
  0
VERTEX
  8
gg1
 10
1.730000
 20
3.475000
  0
VERTEX
  8
gg1
 10
1.770000
 20
3.475000
  0
SEQEND
  8
gg1
  0
POLYLINE
  8
gg1
 62
1
 40
0.000000
 41
0.000000
 66
  1
  0
VERTEX
  8
gg1
 10
1.750000
 20
3.455000
  0
VERTEX
  8
gg1
 10
1.750000
 20
3.495000
  0
SEQEND
  8
gg1
  0
POLYLINE
  8
gg1
 62
1
 40
0.000000
 41
0.000000
 66
  1
  0
VERTEX
  8
gg1
 10
1.830000
 20
3.475000
  0
VERTEX
  8
gg1
 10
1.870000
 20
3.475000
  0
SEQEND
  8
gg1
  0
POLYLINE
  8
gg1
 62
1
 40
0.000000
 41
0.000000
 66
  1
  0
VERTEX
  8
gg1
 10
1.850000
 20
3.455000
  0
VERTEX
  8
gg1
 10
1.850000
 20
3.495000
  0
SEQEND
  8
gg1
  0
POLYLINE
  8
gg1
 62
1
 40
0.000000
 41
0.000000
 66
  1
  0
VERTEX
  8
gg1
 10
1.930000
 20
3.475000
  0
VERTEX
  8
gg1
 10
1.970000
 20
3.475000
  0
SEQEND
  8
gg1
  0
POLYLINE
  8
gg1
 62
1
 40
0.000000
 41
0.000000
 66
  1
  0
VERTEX
  8
gg1
 10
1.950000
 20
3.455000
  0
VERTEX
  8
gg1
 10
1.950000
 20
3.495000
  0
SEQEND
  8
gg1
  0
POLYLINE
  8
gg1
 62
1
 40
0.000000
 41
0.000000
 66
  1
  0
VERTEX
  8
gg1
 10
2.030000
 20
3.475000
  0
VERTEX
  8
gg1
 10
2.070000
 20
3.475000
  0
SEQEND
  8
gg1
  0
POLYLINE
  8
gg1
 62
1
 40
0.000000
 41
0.000000
 66
  1
  0
VERTEX
  8
gg1
 10
2.050000
 20
3.455000
  0
VERTEX
  8
gg1
 10
2.050000
 20
3.495000
  0
SEQEND
  8
gg1
  0
POLYLINE
  8
gg1
 62
1
 40
0.000000
 41
0.000000
 66
  1
  0
VERTEX
  8
gg1
 10
2.430000
 20
3.575000
  0
VERTEX
  8
gg1
 10
2.470000
 20
3.575000
  0
SEQEND
  8
gg1
  0
POLYLINE
  8
gg1
 62
1
 40
0.000000
 41
0.000000
 66
  1
  0
VERTEX
  8
gg1
 10
2.450000
 20
3.555000
  0
VERTEX
  8
gg1
 10
2.450000
 20
3.595000
  0
SEQEND
  8
gg1
  0
POLYLINE
  8
gg1
 62
1
 40
0.000000
 41
0.000000
 66
  1
  0
VERTEX
  8
gg1
 10
1.530000
 20
3.575000
  0
VERTEX
  8
gg1
 10
1.570000
 20
3.575000
  0
SEQEND
  8
gg1
  0
POLYLINE
  8
gg1
 62
1
 40
0.000000
 41
0.000000
 66
  1
  0
VERTEX
  8
gg1
 10
1.550000
 20
3.555000
  0
VERTEX
  8
gg1
 10
1.550000
 20
3.595000
  0
SEQEND
  8
gg1
  0
POLYLINE
  8
gg1
 62
1
 40
0.000000
 41
0.000000
 66
  1
  0
VERTEX
  8
gg1
 10
2.330000
 20
3.575000
  0
VERTEX
  8
gg1
 10
2.370000
 20
3.575000
  0
SEQEND
  8
gg1
  0
POLYLINE
  8
gg1
 62
1
 40
0.000000
 41
0.000000
 66
  1
  0
VERTEX
  8
gg1
 10
2.350000
 20
3.555000
  0
VERTEX
  8
gg1
 10
2.350000
 20
3.595000
  0
SEQEND
  8
gg1
  0
POLYLINE
  8
gg1
 62
1
 40
0.000000
 41
0.000000
 66
  1
  0
VERTEX
  8
gg1
 10
2.230000
 20
3.575000
  0
VERTEX
  8
gg1
 10
2.270000
 20
3.575000
  0
SEQEND
  8
gg1
  0
POLYLINE
  8
gg1
 62
1
 40
0.000000
 41
0.000000
 66
  1
  0
VERTEX
  8
gg1
 10
2.250000
 20
3.555000
  0
VERTEX
  8
gg1
 10
2.250000
 20
3.595000
  0
SEQEND
  8
gg1
  0
POLYLINE
  8
gg1
 62
1
 40
0.000000
 41
0.000000
 66
  1
  0
VERTEX
  8
gg1
 10
2.130000
 20
3.575000
  0
VERTEX
  8
gg1
 10
2.170000
 20
3.575000
  0
SEQEND
  8
gg1
  0
POLYLINE
  8
gg1
 62
1
 40
0.000000
 41
0.000000
 66
  1
  0
VERTEX
  8
gg1
 10
2.150000
 20
3.555000
  0
VERTEX
  8
gg1
 10
2.150000
 20
3.595000
  0
SEQEND
  8
gg1
  0
POLYLINE
  8
gg1
 62
1
 40
0.000000
 41
0.000000
 66
  1
  0
VERTEX
  8
gg1
 10
1.630000
 20
3.375000
  0
VERTEX
  8
gg1
 10
1.670000
 20
3.375000
  0
SEQEND
  8
gg1
  0
POLYLINE
  8
gg1
 62
1
 40
0.000000
 41
0.000000
 66
  1
  0
VERTEX
  8
gg1
 10
1.650000
 20
3.355000
  0
VERTEX
  8
gg1
 10
1.650000
 20
3.395000
  0
SEQEND
  8
gg1
  0
POLYLINE
  8
gg1
 62
1
 40
0.000000
 41
0.000000
 66
  1
  0
VERTEX
  8
gg1
 10
1.730000
 20
3.575000
  0
VERTEX
  8
gg1
 10
1.770000
 20
3.575000
  0
SEQEND
  8
gg1
  0
POLYLINE
  8
gg1
 62
1
 40
0.000000
 41
0.000000
 66
  1
  0
VERTEX
  8
gg1
 10
1.750000
 20
3.555000
  0
VERTEX
  8
gg1
 10
1.750000
 20
3.595000
  0
SEQEND
  8
gg1
  0
POLYLINE
  8
gg1
 62
1
 40
0.000000
 41
0.000000
 66
  1
  0
VERTEX
  8
gg1
 10
1.830000
 20
3.575000
  0
VERTEX
  8
gg1
 10
1.870000
 20
3.575000
  0
SEQEND
  8
gg1
  0
POLYLINE
  8
gg1
 62
1
 40
0.000000
 41
0.000000
 66
  1
  0
VERTEX
  8
gg1
 10
1.850000
 20
3.555000
  0
VERTEX
  8
gg1
 10
1.850000
 20
3.595000
  0
SEQEND
  8
gg1
  0
POLYLINE
  8
gg1
 62
1
 40
0.000000
 41
0.000000
 66
  1
  0
VERTEX
  8
gg1
 10
1.930000
 20
3.575000
  0
VERTEX
  8
gg1
 10
1.970000
 20
3.575000
  0
SEQEND
  8
gg1
  0
POLYLINE
  8
gg1
 62
1
 40
0.000000
 41
0.000000
 66
  1
  0
VERTEX
  8
gg1
 10
1.950000
 20
3.555000
  0
VERTEX
  8
gg1
 10
1.950000
 20
3.595000
  0
SEQEND
  8
gg1
  0
POLYLINE
  8
gg1
 62
1
 40
0.000000
 41
0.000000
 66
  1
  0
VERTEX
  8
gg1
 10
2.030000
 20
3.575000
  0
VERTEX
  8
gg1
 10
2.070000
 20
3.575000
  0
SEQEND
  8
gg1
  0
POLYLINE
  8
gg1
 62
1
 40
0.000000
 41
0.000000
 66
  1
  0
VERTEX
  8
gg1
 10
2.050000
 20
3.555000
  0
VERTEX
  8
gg1
 10
2.050000
 20
3.595000
  0
SEQEND
  8
gg1
  0
POLYLINE
  8
gg1
 62
1
 40
0.000000
 41
0.000000
 66
  1
  0
VERTEX
  8
gg1
 10
0.782000
 20
0.725000
  0
VERTEX
  8
gg1
 10
0.868000
 20
0.725000
  0
SEQEND
  8
gg1
  0
POLYLINE
  8
gg1
 62
1
 40
0.000000
 41
0.000000
 66
  1
  0
VERTEX
  8
gg1
 10
0.825000
 20
0.682000
  0
VERTEX
  8
gg1
 10
0.825000
 20
0.768000
  0
SEQEND
  8
gg1
  0
POLYLINE
  8
gg1
 62
1
 40
0.000000
 41
0.000000
 66
  1
  0
VERTEX
  8
gg1
 10
0.635000
 20
2.843400
  0
VERTEX
  8
gg1
 10
0.675000
 20
2.843400
  0
SEQEND
  8
gg1
  0
POLYLINE
  8
gg1
 62
1
 40
0.000000
 41
0.000000
 66
  1
  0
VERTEX
  8
gg1
 10
0.655000
 20
2.823400
  0
VERTEX
  8
gg1
 10
0.655000
 20
2.863400
  0
SEQEND
  8
gg1
  0
POLYLINE
  8
gg1
 62
1
 40
0.000000
 41
0.000000
 66
  1
  0
VERTEX
  8
gg1
 10
0.685000
 20
2.930000
  0
VERTEX
  8
gg1
 10
0.725000
 20
2.930000
  0
SEQEND
  8
gg1
  0
POLYLINE
  8
gg1
 62
1
 40
0.000000
 41
0.000000
 66
  1
  0
VERTEX
  8
gg1
 10
0.705000
 20
2.910000
  0
VERTEX
  8
gg1
 10
0.705000
 20
2.950000
  0
SEQEND
  8
gg1
  0
POLYLINE
  8
gg1
 62
1
 40
0.000000
 41
0.000000
 66
  1
  0
VERTEX
  8
gg1
 10
1.780000
 20
2.100000
  0
VERTEX
  8
gg1
 10
1.820000
 20
2.100000
  0
SEQEND
  8
gg1
  0
POLYLINE
  8
gg1
 62
1
 40
0.000000
 41
0.000000
 66
  1
  0
VERTEX
  8
gg1
 10
1.800000
 20
2.080000
  0
VERTEX
  8
gg1
 10
1.800000
 20
2.120000
  0
SEQEND
  8
gg1
  0
POLYLINE
  8
gg1
 62
1
 40
0.000000
 41
0.000000
 66
  1
  0
VERTEX
  8
gg1
 10
1.880000
 20
2.100000
  0
VERTEX
  8
gg1
 10
1.920000
 20
2.100000
  0
SEQEND
  8
gg1
  0
POLYLINE
  8
gg1
 62
1
 40
0.000000
 41
0.000000
 66
  1
  0
VERTEX
  8
gg1
 10
1.900000
 20
2.080000
  0
VERTEX
  8
gg1
 10
1.900000
 20
2.120000
  0
SEQEND
  8
gg1
  0
POLYLINE
  8
gg1
 62
1
 40
0.000000
 41
0.000000
 66
  1
  0
VERTEX
  8
gg1
 10
1.980000
 20
2.100000
  0
VERTEX
  8
gg1
 10
2.020000
 20
2.100000
  0
SEQEND
  8
gg1
  0
POLYLINE
  8
gg1
 62
1
 40
0.000000
 41
0.000000
 66
  1
  0
VERTEX
  8
gg1
 10
2.000000
 20
2.080000
  0
VERTEX
  8
gg1
 10
2.000000
 20
2.120000
  0
SEQEND
  8
gg1
  0
POLYLINE
  8
gg1
 62
1
 40
0.000000
 41
0.000000
 66
  1
  0
VERTEX
  8
gg1
 10
2.080000
 20
2.100000
  0
VERTEX
  8
gg1
 10
2.120000
 20
2.100000
  0
SEQEND
  8
gg1
  0
POLYLINE
  8
gg1
 62
1
 40
0.000000
 41
0.000000
 66
  1
  0
VERTEX
  8
gg1
 10
2.100000
 20
2.080000
  0
VERTEX
  8
gg1
 10
2.100000
 20
2.120000
  0
SEQEND
  8
gg1
  0
POLYLINE
  8
gg1
 62
1
 40
0.000000
 41
0.000000
 66
  1
  0
VERTEX
  8
gg1
 10
2.180000
 20
2.100000
  0
VERTEX
  8
gg1
 10
2.220000
 20
2.100000
  0
SEQEND
  8
gg1
  0
POLYLINE
  8
gg1
 62
1
 40
0.000000
 41
0.000000
 66
  1
  0
VERTEX
  8
gg1
 10
2.200000
 20
2.080000
  0
VERTEX
  8
gg1
 10
2.200000
 20
2.120000
  0
SEQEND
  8
gg1
  0
POLYLINE
  8
gg1
 62
1
 40
0.000000
 41
0.000000
 66
  1
  0
VERTEX
  8
gg1
 10
1.160000
 20
3.360000
  0
VERTEX
  8
gg1
 10
1.200000
 20
3.360000
  0
SEQEND
  8
gg1
  0
POLYLINE
  8
gg1
 62
1
 40
0.000000
 41
0.000000
 66
  1
  0
VERTEX
  8
gg1
 10
1.180000
 20
3.340000
  0
VERTEX
  8
gg1
 10
1.180000
 20
3.380000
  0
SEQEND
  8
gg1
  0
POLYLINE
  8
gg1
 62
1
 40
0.000000
 41
0.000000
 66
  1
  0
VERTEX
  8
gg1
 10
1.260000
 20
3.360000
  0
VERTEX
  8
gg1
 10
1.300000
 20
3.360000
  0
SEQEND
  8
gg1
  0
POLYLINE
  8
gg1
 62
1
 40
0.000000
 41
0.000000
 66
  1
  0
VERTEX
  8
gg1
 10
1.280000
 20
3.340000
  0
VERTEX
  8
gg1
 10
1.280000
 20
3.380000
  0
SEQEND
  8
gg1
  0
POLYLINE
  8
gg1
 62
1
 40
0.000000
 41
0.000000
 66
  1
  0
VERTEX
  8
gg1
 10
1.390300
 20
0.346200
  0
VERTEX
  8
gg1
 10
1.435300
 20
0.346200
  0
SEQEND
  8
gg1
  0
POLYLINE
  8
gg1
 62
1
 40
0.000000
 41
0.000000
 66
  1
  0
VERTEX
  8
gg1
 10
1.412800
 20
0.323700
  0
VERTEX
  8
gg1
 10
1.412800
 20
0.368700
  0
SEQEND
  8
gg1
  0
POLYLINE
  8
gg1
 62
1
 40
0.000000
 41
0.000000
 66
  1
  0
VERTEX
  8
gg1
 10
1.637500
 20
0.280000
  0
VERTEX
  8
gg1
 10
1.682500
 20
0.280000
  0
SEQEND
  8
gg1
  0
POLYLINE
  8
gg1
 62
1
 40
0.000000
 41
0.000000
 66
  1
  0
VERTEX
  8
gg1
 10
1.660000
 20
0.257500
  0
VERTEX
  8
gg1
 10
1.660000
 20
0.302500
  0
SEQEND
  8
gg1
  0
POLYLINE
  8
gg1
 62
1
 40
0.000000
 41
0.000000
 66
  1
  0
VERTEX
  8
gg1
 10
1.849600
 20
0.250000
  0
VERTEX
  8
gg1
 10
1.894600
 20
0.250000
  0
SEQEND
  8
gg1
  0
POLYLINE
  8
gg1
 62
1
 40
0.000000
 41
0.000000
 66
  1
  0
VERTEX
  8
gg1
 10
1.872100
 20
0.227500
  0
VERTEX
  8
gg1
 10
1.872100
 20
0.272500
  0
SEQEND
  8
gg1
  0
POLYLINE
  8
gg1
 62
1
 40
0.000000
 41
0.000000
 66
  1
  0
VERTEX
  8
gg1
 10
2.105500
 20
0.250000
  0
VERTEX
  8
gg1
 10
2.150500
 20
0.250000
  0
SEQEND
  8
gg1
  0
POLYLINE
  8
gg1
 62
1
 40
0.000000
 41
0.000000
 66
  1
  0
VERTEX
  8
gg1
 10
2.128000
 20
0.227500
  0
VERTEX
  8
gg1
 10
2.128000
 20
0.272500
  0
SEQEND
  8
gg1
  0
POLYLINE
  8
gg1
 62
1
 40
0.000000
 41
0.000000
 66
  1
  0
VERTEX
  8
gg1
 10
2.564800
 20
0.346200
  0
VERTEX
  8
gg1
 10
2.609800
 20
0.346200
  0
SEQEND
  8
gg1
  0
POLYLINE
  8
gg1
 62
1
 40
0.000000
 41
0.000000
 66
  1
  0
VERTEX
  8
gg1
 10
2.587300
 20
0.323700
  0
VERTEX
  8
gg1
 10
2.587300
 20
0.368700
  0
SEQEND
  8
gg1
  0
POLYLINE
  8
gg1
 62
1
 40
0.000000
 41
0.000000
 66
  1
  0
VERTEX
  8
gg1
 10
2.317600
 20
0.280000
  0
VERTEX
  8
gg1
 10
2.362600
 20
0.280000
  0
SEQEND
  8
gg1
  0
POLYLINE
  8
gg1
 62
1
 40
0.000000
 41
0.000000
 66
  1
  0
VERTEX
  8
gg1
 10
2.340100
 20
0.257500
  0
VERTEX
  8
gg1
 10
2.340100
 20
0.302500
  0
SEQEND
  8
gg1
  0
POLYLINE
  8
gg1
 62
1
 40
0.000000
 41
0.000000
 66
  1
  0
VERTEX
  8
gg1
 10
2.800000
 20
3.360000
  0
VERTEX
  8
gg1
 10
2.840000
 20
3.360000
  0
SEQEND
  8
gg1
  0
POLYLINE
  8
gg1
 62
1
 40
0.000000
 41
0.000000
 66
  1
  0
VERTEX
  8
gg1
 10
2.820000
 20
3.340000
  0
VERTEX
  8
gg1
 10
2.820000
 20
3.380000
  0
SEQEND
  8
gg1
  0
POLYLINE
  8
gg1
 62
1
 40
0.000000
 41
0.000000
 66
  1
  0
VERTEX
  8
gg1
 10
2.700000
 20
3.360000
  0
VERTEX
  8
gg1
 10
2.740000
 20
3.360000
  0
SEQEND
  8
gg1
  0
POLYLINE
  8
gg1
 62
1
 40
0.000000
 41
0.000000
 66
  1
  0
VERTEX
  8
gg1
 10
2.720000
 20
3.340000
  0
VERTEX
  8
gg1
 10
2.720000
 20
3.380000
  0
SEQEND
  8
gg1
  0
POLYLINE
  8
gg1
 62
1
 40
0.000000
 41
0.000000
 66
  1
  0
VERTEX
  8
gg1
 10
0.621600
 20
0.950000
  0
VERTEX
  8
gg1
 10
0.666600
 20
0.950000
  0
SEQEND
  8
gg1
  0
POLYLINE
  8
gg1
 62
1
 40
0.000000
 41
0.000000
 66
  1
  0
VERTEX
  8
gg1
 10
0.644100
 20
0.927500
  0
VERTEX
  8
gg1
 10
0.644100
 20
0.972500
  0
SEQEND
  8
gg1
  0
POLYLINE
  8
gg1
 62
1
 40
0.000000
 41
0.000000
 66
  1
  0
VERTEX
  8
gg1
 10
0.877500
 20
0.950000
  0
VERTEX
  8
gg1
 10
0.922500
 20
0.950000
  0
SEQEND
  8
gg1
  0
POLYLINE
  8
gg1
 62
1
 40
0.000000
 41
0.000000
 66
  1
  0
VERTEX
  8
gg1
 10
0.900000
 20
0.927500
  0
VERTEX
  8
gg1
 10
0.900000
 20
0.972500
  0
SEQEND
  8
gg1
  0
POLYLINE
  8
gg1
 62
1
 40
0.000000
 41
0.000000
 66
  1
  0
VERTEX
  8
gg1
 10
2.105000
 20
2.230000
  0
VERTEX
  8
gg1
 10
2.145000
 20
2.230000
  0
SEQEND
  8
gg1
  0
POLYLINE
  8
gg1
 62
1
 40
0.000000
 41
0.000000
 66
  1
  0
VERTEX
  8
gg1
 10
2.125000
 20
2.210000
  0
VERTEX
  8
gg1
 10
2.125000
 20
2.250000
  0
SEQEND
  8
gg1
  0
POLYLINE
  8
gg1
 62
1
 40
0.000000
 41
0.000000
 66
  1
  0
VERTEX
  8
gg1
 10
2.005000
 20
2.230000
  0
VERTEX
  8
gg1
 10
2.045000
 20
2.230000
  0
SEQEND
  8
gg1
  0
POLYLINE
  8
gg1
 62
1
 40
0.000000
 41
0.000000
 66
  1
  0
VERTEX
  8
gg1
 10
2.025000
 20
2.210000
  0
VERTEX
  8
gg1
 10
2.025000
 20
2.250000
  0
SEQEND
  8
gg1
  0
POLYLINE
  8
gg1
 62
1
 40
0.000000
 41
0.000000
 66
  1
  0
VERTEX
  8
gg1
 10
2.180000
 20
2.000000
  0
VERTEX
  8
gg1
 10
2.220000
 20
2.000000
  0
SEQEND
  8
gg1
  0
POLYLINE
  8
gg1
 62
1
 40
0.000000
 41
0.000000
 66
  1
  0
VERTEX
  8
gg1
 10
2.200000
 20
1.980000
  0
VERTEX
  8
gg1
 10
2.200000
 20
2.020000
  0
SEQEND
  8
gg1
  0
POLYLINE
  8
gg1
 62
1
 40
0.000000
 41
0.000000
 66
  1
  0
VERTEX
  8
gg1
 10
2.080000
 20
2.000000
  0
VERTEX
  8
gg1
 10
2.120000
 20
2.000000
  0
SEQEND
  8
gg1
  0
POLYLINE
  8
gg1
 62
1
 40
0.000000
 41
0.000000
 66
  1
  0
VERTEX
  8
gg1
 10
2.100000
 20
1.980000
  0
VERTEX
  8
gg1
 10
2.100000
 20
2.020000
  0
SEQEND
  8
gg1
  0
POLYLINE
  8
gg1
 62
1
 40
0.000000
 41
0.000000
 66
  1
  0
VERTEX
  8
gg1
 10
1.980000
 20
2.000000
  0
VERTEX
  8
gg1
 10
2.020000
 20
2.000000
  0
SEQEND
  8
gg1
  0
POLYLINE
  8
gg1
 62
1
 40
0.000000
 41
0.000000
 66
  1
  0
VERTEX
  8
gg1
 10
2.000000
 20
1.980000
  0
VERTEX
  8
gg1
 10
2.000000
 20
2.020000
  0
SEQEND
  8
gg1
  0
POLYLINE
  8
gg1
 62
1
 40
0.000000
 41
0.000000
 66
  1
  0
VERTEX
  8
gg1
 10
1.880000
 20
2.000000
  0
VERTEX
  8
gg1
 10
1.920000
 20
2.000000
  0
SEQEND
  8
gg1
  0
POLYLINE
  8
gg1
 62
1
 40
0.000000
 41
0.000000
 66
  1
  0
VERTEX
  8
gg1
 10
1.900000
 20
1.980000
  0
VERTEX
  8
gg1
 10
1.900000
 20
2.020000
  0
SEQEND
  8
gg1
  0
POLYLINE
  8
gg1
 62
1
 40
0.000000
 41
0.000000
 66
  1
  0
VERTEX
  8
gg1
 10
1.780000
 20
2.000000
  0
VERTEX
  8
gg1
 10
1.820000
 20
2.000000
  0
SEQEND
  8
gg1
  0
POLYLINE
  8
gg1
 62
1
 40
0.000000
 41
0.000000
 66
  1
  0
VERTEX
  8
gg1
 10
1.800000
 20
1.980000
  0
VERTEX
  8
gg1
 10
1.800000
 20
2.020000
  0
SEQEND
  8
gg1
  0
POLYLINE
  8
gg1
 62
1
 40
0.000000
 41
0.000000
 66
  1
  0
VERTEX
  8
gg1
 10
2.180000
 20
1.900000
  0
VERTEX
  8
gg1
 10
2.220000
 20
1.900000
  0
SEQEND
  8
gg1
  0
POLYLINE
  8
gg1
 62
1
 40
0.000000
 41
0.000000
 66
  1
  0
VERTEX
  8
gg1
 10
2.200000
 20
1.880000
  0
VERTEX
  8
gg1
 10
2.200000
 20
1.920000
  0
SEQEND
  8
gg1
  0
POLYLINE
  8
gg1
 62
1
 40
0.000000
 41
0.000000
 66
  1
  0
VERTEX
  8
gg1
 10
2.080000
 20
1.900000
  0
VERTEX
  8
gg1
 10
2.120000
 20
1.900000
  0
SEQEND
  8
gg1
  0
POLYLINE
  8
gg1
 62
1
 40
0.000000
 41
0.000000
 66
  1
  0
VERTEX
  8
gg1
 10
2.100000
 20
1.880000
  0
VERTEX
  8
gg1
 10
2.100000
 20
1.920000
  0
SEQEND
  8
gg1
  0
POLYLINE
  8
gg1
 62
1
 40
0.000000
 41
0.000000
 66
  1
  0
VERTEX
  8
gg1
 10
1.980000
 20
1.900000
  0
VERTEX
  8
gg1
 10
2.020000
 20
1.900000
  0
SEQEND
  8
gg1
  0
POLYLINE
  8
gg1
 62
1
 40
0.000000
 41
0.000000
 66
  1
  0
VERTEX
  8
gg1
 10
2.000000
 20
1.880000
  0
VERTEX
  8
gg1
 10
2.000000
 20
1.920000
  0
SEQEND
  8
gg1
  0
POLYLINE
  8
gg1
 62
1
 40
0.000000
 41
0.000000
 66
  1
  0
VERTEX
  8
gg1
 10
1.880000
 20
1.900000
  0
VERTEX
  8
gg1
 10
1.920000
 20
1.900000
  0
SEQEND
  8
gg1
  0
POLYLINE
  8
gg1
 62
1
 40
0.000000
 41
0.000000
 66
  1
  0
VERTEX
  8
gg1
 10
1.900000
 20
1.880000
  0
VERTEX
  8
gg1
 10
1.900000
 20
1.920000
  0
SEQEND
  8
gg1
  0
POLYLINE
  8
gg1
 62
1
 40
0.000000
 41
0.000000
 66
  1
  0
VERTEX
  8
gg1
 10
1.780000
 20
1.900000
  0
VERTEX
  8
gg1
 10
1.820000
 20
1.900000
  0
SEQEND
  8
gg1
  0
POLYLINE
  8
gg1
 62
1
 40
0.000000
 41
0.000000
 66
  1
  0
VERTEX
  8
gg1
 10
1.800000
 20
1.880000
  0
VERTEX
  8
gg1
 10
1.800000
 20
1.920000
  0
SEQEND
  8
gg1
  0
POLYLINE
  8
gg1
 62
1
 40
0.000000
 41
0.000000
 66
  1
  0
VERTEX
  8
gg1
 10
1.680000
 20
1.900000
  0
VERTEX
  8
gg1
 10
1.720000
 20
1.900000
  0
SEQEND
  8
gg1
  0
POLYLINE
  8
gg1
 62
1
 40
0.000000
 41
0.000000
 66
  1
  0
VERTEX
  8
gg1
 10
1.700000
 20
1.880000
  0
VERTEX
  8
gg1
 10
1.700000
 20
1.920000
  0
SEQEND
  8
gg1
  0
POLYLINE
  8
gg1
 62
1
 40
0.000000
 41
0.000000
 66
  1
  0
VERTEX
  8
gg1
 10
1.680000
 20
2.000000
  0
VERTEX
  8
gg1
 10
1.720000
 20
2.000000
  0
SEQEND
  8
gg1
  0
POLYLINE
  8
gg1
 62
1
 40
0.000000
 41
0.000000
 66
  1
  0
VERTEX
  8
gg1
 10
1.700000
 20
1.980000
  0
VERTEX
  8
gg1
 10
1.700000
 20
2.020000
  0
SEQEND
  8
gg1
  0
POLYLINE
  8
gg1
 62
1
 40
0.000000
 41
0.000000
 66
  1
  0
VERTEX
  8
gg1
 10
2.280000
 20
1.900000
  0
VERTEX
  8
gg1
 10
2.320000
 20
1.900000
  0
SEQEND
  8
gg1
  0
POLYLINE
  8
gg1
 62
1
 40
0.000000
 41
0.000000
 66
  1
  0
VERTEX
  8
gg1
 10
2.300000
 20
1.880000
  0
VERTEX
  8
gg1
 10
2.300000
 20
1.920000
  0
SEQEND
  8
gg1
  0
POLYLINE
  8
gg1
 62
1
 40
0.000000
 41
0.000000
 66
  1
  0
VERTEX
  8
gg1
 10
2.280000
 20
2.000000
  0
VERTEX
  8
gg1
 10
2.320000
 20
2.000000
  0
SEQEND
  8
gg1
  0
POLYLINE
  8
gg1
 62
1
 40
0.000000
 41
0.000000
 66
  1
  0
VERTEX
  8
gg1
 10
2.300000
 20
1.980000
  0
VERTEX
  8
gg1
 10
2.300000
 20
2.020000
  0
SEQEND
  8
gg1
  0
POLYLINE
  8
gg1
 62
1
 40
0.000000
 41
0.000000
 66
  1
  0
VERTEX
  8
gg1
 10
3.281400
 20
2.771400
  0
VERTEX
  8
gg1
 10
3.321400
 20
2.771400
  0
SEQEND
  8
gg1
  0
POLYLINE
  8
gg1
 62
1
 40
0.000000
 41
0.000000
 66
  1
  0
VERTEX
  8
gg1
 10
3.301400
 20
2.751400
  0
VERTEX
  8
gg1
 10
3.301400
 20
2.791400
  0
SEQEND
  8
gg1
  0
POLYLINE
  8
gg1
 62
1
 40
0.000000
 41
0.000000
 66
  1
  0
VERTEX
  8
gg1
 10
3.170000
 20
2.660000
  0
VERTEX
  8
gg1
 10
3.210000
 20
2.660000
  0
SEQEND
  8
gg1
  0
POLYLINE
  8
gg1
 62
1
 40
0.000000
 41
0.000000
 66
  1
  0
VERTEX
  8
gg1
 10
3.190000
 20
2.640000
  0
VERTEX
  8
gg1
 10
3.190000
 20
2.680000
  0
SEQEND
  8
gg1
  0
POLYLINE
  8
gg1
 62
1
 40
0.000000
 41
0.000000
 66
  1
  0
VERTEX
  8
gg1
 10
1.937500
 20
1.025000
  0
VERTEX
  8
gg1
 10
2.062500
 20
1.025000
  0
SEQEND
  8
gg1
  0
POLYLINE
  8
gg1
 62
1
 40
0.000000
 41
0.000000
 66
  1
  0
VERTEX
  8
gg1
 10
2.000000
 20
0.962500
  0
VERTEX
  8
gg1
 10
2.000000
 20
1.087500
  0
SEQEND
  8
gg1
  0
POLYLINE
  8
gg1
 62
1
 40
0.000000
 41
0.000000
 66
  1
  0
VERTEX
  8
gg1
 10
1.047400
 20
0.775000
  0
VERTEX
  8
gg1
 10
1.092400
 20
0.775000
  0
SEQEND
  8
gg1
  0
POLYLINE
  8
gg1
 62
1
 40
0.000000
 41
0.000000
 66
  1
  0
VERTEX
  8
gg1
 10
1.069900
 20
0.752500
  0
VERTEX
  8
gg1
 10
1.069900
 20
0.797500
  0
SEQEND
  8
gg1
  0
POLYLINE
  8
gg1
 62
1
 40
0.000000
 41
0.000000
 66
  1
  0
VERTEX
  8
gg1
 10
1.047400
 20
1.275000
  0
VERTEX
  8
gg1
 10
1.092400
 20
1.275000
  0
SEQEND
  8
gg1
  0
POLYLINE
  8
gg1
 62
1
 40
0.000000
 41
0.000000
 66
  1
  0
VERTEX
  8
gg1
 10
1.069900
 20
1.252500
  0
VERTEX
  8
gg1
 10
1.069900
 20
1.297500
  0
SEQEND
  8
gg1
  0
POLYLINE
  8
gg1
 62
1
 40
0.000000
 41
0.000000
 66
  1
  0
VERTEX
  8
gg1
 10
1.937500
 20
2.800000
  0
VERTEX
  8
gg1
 10
2.062500
 20
2.800000
  0
SEQEND
  8
gg1
  0
POLYLINE
  8
gg1
 62
1
 40
0.000000
 41
0.000000
 66
  1
  0
VERTEX
  8
gg1
 10
2.000000
 20
2.737500
  0
VERTEX
  8
gg1
 10
2.000000
 20
2.862500
  0
SEQEND
  8
gg1
  0
POLYLINE
  8
gg1
 62
1
 40
0.000000
 41
0.000000
 66
  1
  0
VERTEX
  8
gg1
 10
1.047400
 20
2.550000
  0
VERTEX
  8
gg1
 10
1.092400
 20
2.550000
  0
SEQEND
  8
gg1
  0
POLYLINE
  8
gg1
 62
1
 40
0.000000
 41
0.000000
 66
  1
  0
VERTEX
  8
gg1
 10
1.069900
 20
2.527500
  0
VERTEX
  8
gg1
 10
1.069900
 20
2.572500
  0
SEQEND
  8
gg1
  0
POLYLINE
  8
gg1
 62
1
 40
0.000000
 41
0.000000
 66
  1
  0
VERTEX
  8
gg1
 10
1.047400
 20
3.050000
  0
VERTEX
  8
gg1
 10
1.092400
 20
3.050000
  0
SEQEND
  8
gg1
  0
POLYLINE
  8
gg1
 62
1
 40
0.000000
 41
0.000000
 66
  1
  0
VERTEX
  8
gg1
 10
1.069900
 20
3.027500
  0
VERTEX
  8
gg1
 10
1.069900
 20
3.072500
  0
SEQEND
  8
gg1
  0
POLYLINE
  8
gg1
 62
1
 40
0.000000
 41
0.000000
 66
  1
  0
VERTEX
  8
gg1
 10
0.802500
 20
1.144100
  0
VERTEX
  8
gg1
 10
0.847500
 20
1.144100
  0
SEQEND
  8
gg1
  0
POLYLINE
  8
gg1
 62
1
 40
0.000000
 41
0.000000
 66
  1
  0
VERTEX
  8
gg1
 10
0.825000
 20
1.121600
  0
VERTEX
  8
gg1
 10
0.825000
 20
1.166600
  0
SEQEND
  8
gg1
  0
POLYLINE
  8
gg1
 62
1
 40
0.000000
 41
0.000000
 66
  1
  0
VERTEX
  8
gg1
 10
0.802500
 20
1.400000
  0
VERTEX
  8
gg1
 10
0.847500
 20
1.400000
  0
SEQEND
  8
gg1
  0
POLYLINE
  8
gg1
 62
1
 40
0.000000
 41
0.000000
 66
  1
  0
VERTEX
  8
gg1
 10
0.825000
 20
1.377500
  0
VERTEX
  8
gg1
 10
0.825000
 20
1.422500
  0
SEQEND
  8
gg1
  0
POLYLINE
  8
gg1
 62
1
 40
0.000000
 41
0.000000
 66
  1
  0
VERTEX
  8
gg1
 10
0.630000
 20
1.325000
  0
VERTEX
  8
gg1
 10
0.670000
 20
1.325000
  0
SEQEND
  8
gg1
  0
POLYLINE
  8
gg1
 62
1
 40
0.000000
 41
0.000000
 66
  1
  0
VERTEX
  8
gg1
 10
0.650000
 20
1.305000
  0
VERTEX
  8
gg1
 10
0.650000
 20
1.345000
  0
SEQEND
  8
gg1
  0
POLYLINE
  8
gg1
 62
1
 40
0.000000
 41
0.000000
 66
  1
  0
VERTEX
  8
gg1
 10
0.555000
 20
1.175000
  0
VERTEX
  8
gg1
 10
0.595000
 20
1.175000
  0
SEQEND
  8
gg1
  0
POLYLINE
  8
gg1
 62
1
 40
0.000000
 41
0.000000
 66
  1
  0
VERTEX
  8
gg1
 10
0.575000
 20
1.155000
  0
VERTEX
  8
gg1
 10
0.575000
 20
1.195000
  0
SEQEND
  8
gg1
  0
POLYLINE
  8
gg1
 62
1
 40
0.000000
 41
0.000000
 66
  1
  0
VERTEX
  8
gg1
 10
0.455000
 20
1.175000
  0
VERTEX
  8
gg1
 10
0.495000
 20
1.175000
  0
SEQEND
  8
gg1
  0
POLYLINE
  8
gg1
 62
1
 40
0.000000
 41
0.000000
 66
  1
  0
VERTEX
  8
gg1
 10
0.475000
 20
1.155000
  0
VERTEX
  8
gg1
 10
0.475000
 20
1.195000
  0
SEQEND
  8
gg1
  0
POLYLINE
  8
gg1
 62
1
 40
0.000000
 41
0.000000
 66
  1
  0
VERTEX
  8
gg1
 10
0.755000
 20
2.625000
  0
VERTEX
  8
gg1
 10
0.795000
 20
2.625000
  0
SEQEND
  8
gg1
  0
POLYLINE
  8
gg1
 62
1
 40
0.000000
 41
0.000000
 66
  1
  0
VERTEX
  8
gg1
 10
0.775000
 20
2.605000
  0
VERTEX
  8
gg1
 10
0.775000
 20
2.645000
  0
SEQEND
  8
gg1
  0
POLYLINE
  8
gg1
 62
1
 40
0.000000
 41
0.000000
 66
  1
  0
VERTEX
  8
gg1
 10
0.755000
 20
2.725000
  0
VERTEX
  8
gg1
 10
0.795000
 20
2.725000
  0
SEQEND
  8
gg1
  0
POLYLINE
  8
gg1
 62
1
 40
0.000000
 41
0.000000
 66
  1
  0
VERTEX
  8
gg1
 10
0.775000
 20
2.705000
  0
VERTEX
  8
gg1
 10
0.775000
 20
2.745000
  0
SEQEND
  8
gg1
  0
POLYLINE
  8
gg1
 62
1
 40
0.000000
 41
0.000000
 66
  1
  0
VERTEX
  8
gg1
 10
1.405000
 20
3.450000
  0
VERTEX
  8
gg1
 10
1.445000
 20
3.450000
  0
SEQEND
  8
gg1
  0
POLYLINE
  8
gg1
 62
1
 40
0.000000
 41
0.000000
 66
  1
  0
VERTEX
  8
gg1
 10
1.425000
 20
3.430000
  0
VERTEX
  8
gg1
 10
1.425000
 20
3.470000
  0
SEQEND
  8
gg1
  0
POLYLINE
  8
gg1
 62
1
 40
0.000000
 41
0.000000
 66
  1
  0
VERTEX
  8
gg1
 10
1.405000
 20
3.350000
  0
VERTEX
  8
gg1
 10
1.445000
 20
3.350000
  0
SEQEND
  8
gg1
  0
POLYLINE
  8
gg1
 62
1
 40
0.000000
 41
0.000000
 66
  1
  0
VERTEX
  8
gg1
 10
1.425000
 20
3.330000
  0
VERTEX
  8
gg1
 10
1.425000
 20
3.370000
  0
SEQEND
  8
gg1
  0
POLYLINE
  8
gg1
 62
1
 40
0.000000
 41
0.000000
 66
  1
  0
VERTEX
  8
gg1
 10
3.180000
 20
1.150000
  0
VERTEX
  8
gg1
 10
3.220000
 20
1.150000
  0
SEQEND
  8
gg1
  0
POLYLINE
  8
gg1
 62
1
 40
0.000000
 41
0.000000
 66
  1
  0
VERTEX
  8
gg1
 10
3.200000
 20
1.130000
  0
VERTEX
  8
gg1
 10
3.200000
 20
1.170000
  0
SEQEND
  8
gg1
  0
POLYLINE
  8
gg1
 62
1
 40
0.000000
 41
0.000000
 66
  1
  0
VERTEX
  8
gg1
 10
3.280000
 20
1.250000
  0
VERTEX
  8
gg1
 10
3.320000
 20
1.250000
  0
SEQEND
  8
gg1
  0
POLYLINE
  8
gg1
 62
1
 40
0.000000
 41
0.000000
 66
  1
  0
VERTEX
  8
gg1
 10
3.300000
 20
1.230000
  0
VERTEX
  8
gg1
 10
3.300000
 20
1.270000
  0
SEQEND
  8
gg1
  0
POLYLINE
  8
gg1
 62
1
 40
0.000000
 41
0.000000
 66
  1
  0
VERTEX
  8
gg1
 10
3.180000
 20
1.250000
  0
VERTEX
  8
gg1
 10
3.220000
 20
1.250000
  0
SEQEND
  8
gg1
  0
POLYLINE
  8
gg1
 62
1
 40
0.000000
 41
0.000000
 66
  1
  0
VERTEX
  8
gg1
 10
3.200000
 20
1.230000
  0
VERTEX
  8
gg1
 10
3.200000
 20
1.270000
  0
SEQEND
  8
gg1
  0
POLYLINE
  8
gg1
 62
1
 40
0.000000
 41
0.000000
 66
  1
  0
VERTEX
  8
gg1
 10
3.280000
 20
1.150000
  0
VERTEX
  8
gg1
 10
3.320000
 20
1.150000
  0
SEQEND
  8
gg1
  0
POLYLINE
  8
gg1
 62
1
 40
0.000000
 41
0.000000
 66
  1
  0
VERTEX
  8
gg1
 10
3.300000
 20
1.130000
  0
VERTEX
  8
gg1
 10
3.300000
 20
1.170000
  0
SEQEND
  8
gg1
  0
POLYLINE
  8
gg1
 62
1
 40
0.000000
 41
0.000000
 66
  1
  0
VERTEX
  8
gg1
 10
3.180000
 20
1.050000
  0
VERTEX
  8
gg1
 10
3.220000
 20
1.050000
  0
SEQEND
  8
gg1
  0
POLYLINE
  8
gg1
 62
1
 40
0.000000
 41
0.000000
 66
  1
  0
VERTEX
  8
gg1
 10
3.200000
 20
1.030000
  0
VERTEX
  8
gg1
 10
3.200000
 20
1.070000
  0
SEQEND
  8
gg1
  0
POLYLINE
  8
gg1
 62
1
 40
0.000000
 41
0.000000
 66
  1
  0
VERTEX
  8
gg1
 10
3.280000
 20
1.050000
  0
VERTEX
  8
gg1
 10
3.320000
 20
1.050000
  0
SEQEND
  8
gg1
  0
POLYLINE
  8
gg1
 62
1
 40
0.000000
 41
0.000000
 66
  1
  0
VERTEX
  8
gg1
 10
3.300000
 20
1.030000
  0
VERTEX
  8
gg1
 10
3.300000
 20
1.070000
  0
SEQEND
  8
gg1
  0
POLYLINE
  8
gg1
 62
1
 40
0.000000
 41
0.000000
 66
  1
  0
VERTEX
  8
gg1
 10
2.280000
 20
1.700000
  0
VERTEX
  8
gg1
 10
2.320000
 20
1.700000
  0
SEQEND
  8
gg1
  0
POLYLINE
  8
gg1
 62
1
 40
0.000000
 41
0.000000
 66
  1
  0
VERTEX
  8
gg1
 10
2.300000
 20
1.680000
  0
VERTEX
  8
gg1
 10
2.300000
 20
1.720000
  0
SEQEND
  8
gg1
  0
POLYLINE
  8
gg1
 62
1
 40
0.000000
 41
0.000000
 66
  1
  0
VERTEX
  8
gg1
 10
2.280000
 20
1.600000
  0
VERTEX
  8
gg1
 10
2.320000
 20
1.600000
  0
SEQEND
  8
gg1
  0
POLYLINE
  8
gg1
 62
1
 40
0.000000
 41
0.000000
 66
  1
  0
VERTEX
  8
gg1
 10
2.300000
 20
1.580000
  0
VERTEX
  8
gg1
 10
2.300000
 20
1.620000
  0
SEQEND
  8
gg1
  0
POLYLINE
  8
gg1
 62
1
 40
0.000000
 41
0.000000
 66
  1
  0
VERTEX
  8
gg1
 10
2.180000
 20
1.700000
  0
VERTEX
  8
gg1
 10
2.220000
 20
1.700000
  0
SEQEND
  8
gg1
  0
POLYLINE
  8
gg1
 62
1
 40
0.000000
 41
0.000000
 66
  1
  0
VERTEX
  8
gg1
 10
2.200000
 20
1.680000
  0
VERTEX
  8
gg1
 10
2.200000
 20
1.720000
  0
SEQEND
  8
gg1
  0
POLYLINE
  8
gg1
 62
1
 40
0.000000
 41
0.000000
 66
  1
  0
VERTEX
  8
gg1
 10
2.180000
 20
1.600000
  0
VERTEX
  8
gg1
 10
2.220000
 20
1.600000
  0
SEQEND
  8
gg1
  0
POLYLINE
  8
gg1
 62
1
 40
0.000000
 41
0.000000
 66
  1
  0
VERTEX
  8
gg1
 10
2.200000
 20
1.580000
  0
VERTEX
  8
gg1
 10
2.200000
 20
1.620000
  0
SEQEND
  8
gg1
  0
POLYLINE
  8
gg1
 62
1
 40
0.000000
 41
0.000000
 66
  1
  0
VERTEX
  8
gg1
 10
2.080000
 20
1.700000
  0
VERTEX
  8
gg1
 10
2.120000
 20
1.700000
  0
SEQEND
  8
gg1
  0
POLYLINE
  8
gg1
 62
1
 40
0.000000
 41
0.000000
 66
  1
  0
VERTEX
  8
gg1
 10
2.100000
 20
1.680000
  0
VERTEX
  8
gg1
 10
2.100000
 20
1.720000
  0
SEQEND
  8
gg1
  0
POLYLINE
  8
gg1
 62
1
 40
0.000000
 41
0.000000
 66
  1
  0
VERTEX
  8
gg1
 10
2.080000
 20
1.600000
  0
VERTEX
  8
gg1
 10
2.120000
 20
1.600000
  0
SEQEND
  8
gg1
  0
POLYLINE
  8
gg1
 62
1
 40
0.000000
 41
0.000000
 66
  1
  0
VERTEX
  8
gg1
 10
2.100000
 20
1.580000
  0
VERTEX
  8
gg1
 10
2.100000
 20
1.620000
  0
SEQEND
  8
gg1
  0
POLYLINE
  8
gg1
 62
1
 40
0.000000
 41
0.000000
 66
  1
  0
VERTEX
  8
gg1
 10
1.980000
 20
1.700000
  0
VERTEX
  8
gg1
 10
2.020000
 20
1.700000
  0
SEQEND
  8
gg1
  0
POLYLINE
  8
gg1
 62
1
 40
0.000000
 41
0.000000
 66
  1
  0
VERTEX
  8
gg1
 10
2.000000
 20
1.680000
  0
VERTEX
  8
gg1
 10
2.000000
 20
1.720000
  0
SEQEND
  8
gg1
  0
POLYLINE
  8
gg1
 62
1
 40
0.000000
 41
0.000000
 66
  1
  0
VERTEX
  8
gg1
 10
1.980000
 20
1.600000
  0
VERTEX
  8
gg1
 10
2.020000
 20
1.600000
  0
SEQEND
  8
gg1
  0
POLYLINE
  8
gg1
 62
1
 40
0.000000
 41
0.000000
 66
  1
  0
VERTEX
  8
gg1
 10
2.000000
 20
1.580000
  0
VERTEX
  8
gg1
 10
2.000000
 20
1.620000
  0
SEQEND
  8
gg1
  0
POLYLINE
  8
gg1
 62
1
 40
0.000000
 41
0.000000
 66
  1
  0
VERTEX
  8
gg1
 10
1.880000
 20
1.700000
  0
VERTEX
  8
gg1
 10
1.920000
 20
1.700000
  0
SEQEND
  8
gg1
  0
POLYLINE
  8
gg1
 62
1
 40
0.000000
 41
0.000000
 66
  1
  0
VERTEX
  8
gg1
 10
1.900000
 20
1.680000
  0
VERTEX
  8
gg1
 10
1.900000
 20
1.720000
  0
SEQEND
  8
gg1
  0
POLYLINE
  8
gg1
 62
1
 40
0.000000
 41
0.000000
 66
  1
  0
VERTEX
  8
gg1
 10
1.680000
 20
1.600000
  0
VERTEX
  8
gg1
 10
1.720000
 20
1.600000
  0
SEQEND
  8
gg1
  0
POLYLINE
  8
gg1
 62
1
 40
0.000000
 41
0.000000
 66
  1
  0
VERTEX
  8
gg1
 10
1.700000
 20
1.580000
  0
VERTEX
  8
gg1
 10
1.700000
 20
1.620000
  0
SEQEND
  8
gg1
  0
POLYLINE
  8
gg1
 62
1
 40
0.000000
 41
0.000000
 66
  1
  0
VERTEX
  8
gg1
 10
1.680000
 20
1.700000
  0
VERTEX
  8
gg1
 10
1.720000
 20
1.700000
  0
SEQEND
  8
gg1
  0
POLYLINE
  8
gg1
 62
1
 40
0.000000
 41
0.000000
 66
  1
  0
VERTEX
  8
gg1
 10
1.700000
 20
1.680000
  0
VERTEX
  8
gg1
 10
1.700000
 20
1.720000
  0
SEQEND
  8
gg1
  0
POLYLINE
  8
gg1
 62
1
 40
0.000000
 41
0.000000
 66
  1
  0
VERTEX
  8
gg1
 10
1.780000
 20
1.600000
  0
VERTEX
  8
gg1
 10
1.820000
 20
1.600000
  0
SEQEND
  8
gg1
  0
POLYLINE
  8
gg1
 62
1
 40
0.000000
 41
0.000000
 66
  1
  0
VERTEX
  8
gg1
 10
1.800000
 20
1.580000
  0
VERTEX
  8
gg1
 10
1.800000
 20
1.620000
  0
SEQEND
  8
gg1
  0
POLYLINE
  8
gg1
 62
1
 40
0.000000
 41
0.000000
 66
  1
  0
VERTEX
  8
gg1
 10
1.780000
 20
1.700000
  0
VERTEX
  8
gg1
 10
1.820000
 20
1.700000
  0
SEQEND
  8
gg1
  0
POLYLINE
  8
gg1
 62
1
 40
0.000000
 41
0.000000
 66
  1
  0
VERTEX
  8
gg1
 10
1.800000
 20
1.680000
  0
VERTEX
  8
gg1
 10
1.800000
 20
1.720000
  0
SEQEND
  8
gg1
  0
POLYLINE
  8
gg1
 62
1
 40
0.000000
 41
0.000000
 66
  1
  0
VERTEX
  8
gg1
 10
1.880000
 20
1.600000
  0
VERTEX
  8
gg1
 10
1.920000
 20
1.600000
  0
SEQEND
  8
gg1
  0
POLYLINE
  8
gg1
 62
1
 40
0.000000
 41
0.000000
 66
  1
  0
VERTEX
  8
gg1
 10
1.900000
 20
1.580000
  0
VERTEX
  8
gg1
 10
1.900000
 20
1.620000
  0
SEQEND
  8
gg1
  0
POLYLINE
  8
gg1
 62
1
 40
0.000000
 41
0.000000
 66
  1
  0
VERTEX
  8
gg1
 10
0.782000
 20
3.050000
  0
VERTEX
  8
gg1
 10
0.868000
 20
3.050000
  0
SEQEND
  8
gg1
  0
POLYLINE
  8
gg1
 62
1
 40
0.000000
 41
0.000000
 66
  1
  0
VERTEX
  8
gg1
 10
0.825000
 20
3.007000
  0
VERTEX
  8
gg1
 10
0.825000
 20
3.093000
  0
SEQEND
  8
gg1
  0
POLYLINE
  8
gg1
 62
1
 40
0.000000
 41
0.000000
 66
  1
  0
VERTEX
  8
gg1
 10
3.132000
 20
3.050000
  0
VERTEX
  8
gg1
 10
3.218000
 20
3.050000
  0
SEQEND
  8
gg1
  0
POLYLINE
  8
gg1
 62
1
 40
0.000000
 41
0.000000
 66
  1
  0
VERTEX
  8
gg1
 10
3.175000
 20
3.007000
  0
VERTEX
  8
gg1
 10
3.175000
 20
3.093000
  0
SEQEND
  8
gg1
  0
POLYLINE
  8
gg1
 62
1
 40
0.000000
 41
0.000000
 66
  1
  0
VERTEX
  8
gg1
 10
2.630000
 20
2.552800
  0
VERTEX
  8
gg1
 10
2.650000
 20
2.552800
  0
SEQEND
  8
gg1
  0
POLYLINE
  8
gg1
 62
1
 40
0.000000
 41
0.000000
 66
  1
  0
VERTEX
  8
gg1
 10
2.640000
 20
2.542800
  0
VERTEX
  8
gg1
 10
2.640000
 20
2.562800
  0
SEQEND
  8
gg1
  0
POLYLINE
  8
gg1
 62
1
 40
0.000000
 41
0.000000
 66
  1
  0
VERTEX
  8
gg1
 10
2.630000
 20
2.647200
  0
VERTEX
  8
gg1
 10
2.650000
 20
2.647200
  0
SEQEND
  8
gg1
  0
POLYLINE
  8
gg1
 62
1
 40
0.000000
 41
0.000000
 66
  1
  0
VERTEX
  8
gg1
 10
2.640000
 20
2.637200
  0
VERTEX
  8
gg1
 10
2.640000
 20
2.657200
  0
SEQEND
  8
gg1
  0
POLYLINE
  8
gg1
 62
1
 40
0.000000
 41
0.000000
 66
  1
  0
VERTEX
  8
gg1
 10
3.132000
 20
0.725000
  0
VERTEX
  8
gg1
 10
3.218000
 20
0.725000
  0
SEQEND
  8
gg1
  0
POLYLINE
  8
gg1
 62
1
 40
0.000000
 41
0.000000
 66
  1
  0
VERTEX
  8
gg1
 10
3.175000
 20
0.682000
  0
VERTEX
  8
gg1
 10
3.175000
 20
0.768000
  0
SEQEND
  8
gg1
  0
POLYLINE
  8
gg1
 62
1
 40
0.000000
 41
0.000000
 66
  1
  0
VERTEX
  8
gg1
 10
0.630000
 20
1.425000
  0
VERTEX
  8
gg1
 10
0.670000
 20
1.425000
  0
SEQEND
  8
gg1
  0
POLYLINE
  8
gg1
 62
1
 40
0.000000
 41
0.000000
 66
  1
  0
VERTEX
  8
gg1
 10
0.650000
 20
1.405000
  0
VERTEX
  8
gg1
 10
0.650000
 20
1.445000
  0
SEQEND
  8
gg1
  0
POLYLINE
  8
gg1
 62
1
 40
0.000000
 41
0.000000
 66
  1
  0
VERTEX
  8
gg1
 10
0.855000
 20
2.725000
  0
VERTEX
  8
gg1
 10
0.895000
 20
2.725000
  0
SEQEND
  8
gg1
  0
POLYLINE
  8
gg1
 62
1
 40
0.000000
 41
0.000000
 66
  1
  0
VERTEX
  8
gg1
 10
0.875000
 20
2.705000
  0
VERTEX
  8
gg1
 10
0.875000
 20
2.745000
  0
SEQEND
  8
gg1
  0
POLYLINE
  8
gg1
 62
1
 40
0.000000
 41
0.000000
 66
  1
  0
VERTEX
  8
gg1
 10
0.855000
 20
2.625000
  0
VERTEX
  8
gg1
 10
0.895000
 20
2.625000
  0
SEQEND
  8
gg1
  0
POLYLINE
  8
gg1
 62
1
 40
0.000000
 41
0.000000
 66
  1
  0
VERTEX
  8
gg1
 10
0.875000
 20
2.605000
  0
VERTEX
  8
gg1
 10
0.875000
 20
2.645000
  0
SEQEND
  8
gg1
  0
POLYLINE
  8
gg1
 62
1
 40
0.000000
 41
0.000000
 66
  1
  0
VERTEX
  8
gg1
 10
0.455000
 20
1.075000
  0
VERTEX
  8
gg1
 10
0.495000
 20
1.075000
  0
SEQEND
  8
gg1
  0
POLYLINE
  8
gg1
 62
1
 40
0.000000
 41
0.000000
 66
  1
  0
VERTEX
  8
gg1
 10
0.475000
 20
1.055000
  0
VERTEX
  8
gg1
 10
0.475000
 20
1.095000
  0
SEQEND
  8
gg1
  0
POLYLINE
  8
gg1
 62
1
 40
0.000000
 41
0.000000
 66
  1
  0
VERTEX
  8
gg1
 10
0.555000
 20
1.075000
  0
VERTEX
  8
gg1
 10
0.595000
 20
1.075000
  0
SEQEND
  8
gg1
  0
POLYLINE
  8
gg1
 62
1
 40
0.000000
 41
0.000000
 66
  1
  0
VERTEX
  8
gg1
 10
0.575000
 20
1.055000
  0
VERTEX
  8
gg1
 10
0.575000
 20
1.095000
  0
SEQEND
  8
gg1
  0
POLYLINE
  8
gg1
 62
1
 40
0.000000
 41
0.000000
 66
  1
  0
VERTEX
  8
gg1
 10
2.555000
 20
3.350000
  0
VERTEX
  8
gg1
 10
2.595000
 20
3.350000
  0
SEQEND
  8
gg1
  0
POLYLINE
  8
gg1
 62
1
 40
0.000000
 41
0.000000
 66
  1
  0
VERTEX
  8
gg1
 10
2.575000
 20
3.330000
  0
VERTEX
  8
gg1
 10
2.575000
 20
3.370000
  0
SEQEND
  8
gg1
  0
POLYLINE
  8
gg1
 62
1
 40
0.000000
 41
0.000000
 66
  1
  0
VERTEX
  8
gg1
 10
2.555000
 20
3.450000
  0
VERTEX
  8
gg1
 10
2.595000
 20
3.450000
  0
SEQEND
  8
gg1
  0
POLYLINE
  8
gg1
 62
1
 40
0.000000
 41
0.000000
 66
  1
  0
VERTEX
  8
gg1
 10
2.575000
 20
3.430000
  0
VERTEX
  8
gg1
 10
2.575000
 20
3.470000
  0
SEQEND
  8
gg1
  0
POLYLINE
  8
gg1
 62
1
 40
0.000000
 41
0.000000
 66
  1
  0
VERTEX
  8
gg1
 10
1.780000
 20
2.200000
  0
VERTEX
  8
gg1
 10
1.820000
 20
2.200000
  0
SEQEND
  8
gg1
  0
POLYLINE
  8
gg1
 62
1
 40
0.000000
 41
0.000000
 66
  1
  0
VERTEX
  8
gg1
 10
1.800000
 20
2.180000
  0
VERTEX
  8
gg1
 10
1.800000
 20
2.220000
  0
SEQEND
  8
gg1
  0
POLYLINE
  8
gg1
 62
1
 40
0.000000
 41
0.000000
 66
  1
  0
VERTEX
  8
gg1
 10
1.880000
 20
2.200000
  0
VERTEX
  8
gg1
 10
1.920000
 20
2.200000
  0
SEQEND
  8
gg1
  0
POLYLINE
  8
gg1
 62
1
 40
0.000000
 41
0.000000
 66
  1
  0
VERTEX
  8
gg1
 10
1.900000
 20
2.180000
  0
VERTEX
  8
gg1
 10
1.900000
 20
2.220000
  0
SEQEND
  8
gg1
  0
POLYLINE
  8
gg1
 62
1
 40
0.000000
 41
0.000000
 66
  1
  0
VERTEX
  8
gg1
 10
1.556500
 20
2.147600
  0
VERTEX
  8
gg1
 10
1.596500
 20
2.147600
  0
SEQEND
  8
gg1
  0
POLYLINE
  8
gg1
 62
1
 40
0.000000
 41
0.000000
 66
  1
  0
VERTEX
  8
gg1
 10
1.576500
 20
2.127600
  0
VERTEX
  8
gg1
 10
1.576500
 20
2.167600
  0
SEQEND
  8
gg1
  0
POLYLINE
  8
gg1
 62
1
 40
0.000000
 41
0.000000
 66
  1
  0
VERTEX
  8
gg1
 10
1.556500
 20
1.852400
  0
VERTEX
  8
gg1
 10
1.596500
 20
1.852400
  0
SEQEND
  8
gg1
  0
POLYLINE
  8
gg1
 62
1
 40
0.000000
 41
0.000000
 66
  1
  0
VERTEX
  8
gg1
 10
1.576500
 20
1.832400
  0
VERTEX
  8
gg1
 10
1.576500
 20
1.872400
  0
SEQEND
  8
gg1
  0
POLYLINE
  8
gg1
 62
1
 40
0.000000
 41
0.000000
 66
  1
  0
VERTEX
  8
gg1
 10
0.689000
 20
2.354300
  0
VERTEX
  8
gg1
 10
0.775000
 20
2.354300
  0
SEQEND
  8
gg1
  0
POLYLINE
  8
gg1
 62
1
 40
0.000000
 41
0.000000
 66
  1
  0
VERTEX
  8
gg1
 10
0.732000
 20
2.311300
  0
VERTEX
  8
gg1
 10
0.732000
 20
2.397300
  0
SEQEND
  8
gg1
  0
POLYLINE
  8
gg1
 62
1
 40
0.000000
 41
0.000000
 66
  1
  0
VERTEX
  8
gg1
 10
0.689000
 20
1.645700
  0
VERTEX
  8
gg1
 10
0.775000
 20
1.645700
  0
SEQEND
  8
gg1
  0
POLYLINE
  8
gg1
 62
1
 40
0.000000
 41
0.000000
 66
  1
  0
VERTEX
  8
gg1
 10
0.732000
 20
1.602700
  0
VERTEX
  8
gg1
 10
0.732000
 20
1.688700
  0
SEQEND
  8
gg1
  0
POLYLINE
  8
gg1
 62
1
 40
0.000000
 41
0.000000
 66
  1
  0
VERTEX
  8
gg1
 10
3.225000
 20
2.354300
  0
VERTEX
  8
gg1
 10
3.311000
 20
2.354300
  0
SEQEND
  8
gg1
  0
POLYLINE
  8
gg1
 62
1
 40
0.000000
 41
0.000000
 66
  1
  0
VERTEX
  8
gg1
 10
3.268000
 20
2.311300
  0
VERTEX
  8
gg1
 10
3.268000
 20
2.397300
  0
SEQEND
  8
gg1
  0
POLYLINE
  8
gg1
 62
1
 40
0.000000
 41
0.000000
 66
  1
  0
VERTEX
  8
gg1
 10
3.225000
 20
1.645700
  0
VERTEX
  8
gg1
 10
3.311000
 20
1.645700
  0
SEQEND
  8
gg1
  0
POLYLINE
  8
gg1
 62
1
 40
0.000000
 41
0.000000
 66
  1
  0
VERTEX
  8
gg1
 10
3.268000
 20
1.602700
  0
VERTEX
  8
gg1
 10
3.268000
 20
1.688700
  0
SEQEND
  8
gg1
  0
POLYLINE
  8
gg1
 62
1
 40
0.000000
 41
0.000000
 66
  1
  0
VERTEX
  8
gg1
 10
2.403500
 20
2.147600
  0
VERTEX
  8
gg1
 10
2.443500
 20
2.147600
  0
SEQEND
  8
gg1
  0
POLYLINE
  8
gg1
 62
1
 40
0.000000
 41
0.000000
 66
  1
  0
VERTEX
  8
gg1
 10
2.423500
 20
2.127600
  0
VERTEX
  8
gg1
 10
2.423500
 20
2.167600
  0
SEQEND
  8
gg1
  0
POLYLINE
  8
gg1
 62
1
 40
0.000000
 41
0.000000
 66
  1
  0
VERTEX
  8
gg1
 10
2.403500
 20
1.852400
  0
VERTEX
  8
gg1
 10
2.443500
 20
1.852400
  0
SEQEND
  8
gg1
  0
POLYLINE
  8
gg1
 62
1
 40
0.000000
 41
0.000000
 66
  1
  0
VERTEX
  8
gg1
 10
2.423500
 20
1.832400
  0
VERTEX
  8
gg1
 10
2.423500
 20
1.872400
  0
SEQEND
  8
gg1
  0
POLYLINE
  8
gg1
 62
1
 40
0.000000
 41
0.000000
 66
  1
  0
VERTEX
  8
gg1
 10
1.070000
 20
1.590000
  0
VERTEX
  8
gg1
 10
1.110000
 20
1.590000
  0
SEQEND
  8
gg1
  0
POLYLINE
  8
gg1
 62
1
 40
0.000000
 41
0.000000
 66
  1
  0
VERTEX
  8
gg1
 10
1.090000
 20
1.570000
  0
VERTEX
  8
gg1
 10
1.090000
 20
1.610000
  0
SEQEND
  8
gg1
  0
POLYLINE
  8
gg1
 62
1
 40
0.000000
 41
0.000000
 66
  1
  0
VERTEX
  8
gg1
 10
1.070000
 20
1.690000
  0
VERTEX
  8
gg1
 10
1.110000
 20
1.690000
  0
SEQEND
  8
gg1
  0
POLYLINE
  8
gg1
 62
1
 40
0.000000
 41
0.000000
 66
  1
  0
VERTEX
  8
gg1
 10
1.090000
 20
1.670000
  0
VERTEX
  8
gg1
 10
1.090000
 20
1.710000
  0
SEQEND
  8
gg1
  0
POLYLINE
  8
gg1
 62
1
 40
0.000000
 41
0.000000
 66
  1
  0
VERTEX
  8
gg1
 10
1.205000
 20
1.535000
  0
VERTEX
  8
gg1
 10
1.225000
 20
1.535000
  0
SEQEND
  8
gg1
  0
POLYLINE
  8
gg1
 62
1
 40
0.000000
 41
0.000000
 66
  1
  0
VERTEX
  8
gg1
 10
1.215000
 20
1.525000
  0
VERTEX
  8
gg1
 10
1.215000
 20
1.545000
  0
SEQEND
  8
gg1
  0
POLYLINE
  8
gg1
 62
1
 40
0.000000
 41
0.000000
 66
  1
  0
VERTEX
  8
gg1
 10
3.112500
 20
3.170000
  0
VERTEX
  8
gg1
 10
3.127500
 20
3.170000
  0
SEQEND
  8
gg1
  0
POLYLINE
  8
gg1
 62
1
 40
0.000000
 41
0.000000
 66
  1
  0
VERTEX
  8
gg1
 10
3.120000
 20
3.162500
  0
VERTEX
  8
gg1
 10
3.120000
 20
3.177500
  0
SEQEND
  8
gg1
  0
POLYLINE
  8
gg1
 62
1
 40
0.000000
 41
0.000000
 66
  1
  0
VERTEX
  8
gg1
 10
3.052500
 20
2.820000
  0
VERTEX
  8
gg1
 10
3.067500
 20
2.820000
  0
SEQEND
  8
gg1
  0
POLYLINE
  8
gg1
 62
1
 40
0.000000
 41
0.000000
 66
  1
  0
VERTEX
  8
gg1
 10
3.060000
 20
2.812500
  0
VERTEX
  8
gg1
 10
3.060000
 20
2.827500
  0
SEQEND
  8
gg1
  0
POLYLINE
  8
gg1
 62
1
 40
0.000000
 41
0.000000
 66
  1
  0
VERTEX
  8
gg1
 10
3.072500
 20
2.960000
  0
VERTEX
  8
gg1
 10
3.087500
 20
2.960000
  0
SEQEND
  8
gg1
  0
POLYLINE
  8
gg1
 62
1
 40
0.000000
 41
0.000000
 66
  1
  0
VERTEX
  8
gg1
 10
3.080000
 20
2.952500
  0
VERTEX
  8
gg1
 10
3.080000
 20
2.967500
  0
SEQEND
  8
gg1
  0
POLYLINE
  8
gg1
 62
1
 40
0.000000
 41
0.000000
 66
  1
  0
VERTEX
  8
gg1
 10
2.782500
 20
2.960000
  0
VERTEX
  8
gg1
 10
2.797500
 20
2.960000
  0
SEQEND
  8
gg1
  0
POLYLINE
  8
gg1
 62
1
 40
0.000000
 41
0.000000
 66
  1
  0
VERTEX
  8
gg1
 10
2.790000
 20
2.952500
  0
VERTEX
  8
gg1
 10
2.790000
 20
2.967500
  0
SEQEND
  8
gg1
  0
POLYLINE
  8
gg1
 62
1
 40
0.000000
 41
0.000000
 66
  1
  0
VERTEX
  8
gg1
 10
2.742500
 20
2.880000
  0
VERTEX
  8
gg1
 10
2.757500
 20
2.880000
  0
SEQEND
  8
gg1
  0
POLYLINE
  8
gg1
 62
1
 40
0.000000
 41
0.000000
 66
  1
  0
VERTEX
  8
gg1
 10
2.750000
 20
2.872500
  0
VERTEX
  8
gg1
 10
2.750000
 20
2.887500
  0
SEQEND
  8
gg1
  0
POLYLINE
  8
gg1
 62
1
 40
0.000000
 41
0.000000
 66
  1
  0
VERTEX
  8
gg1
 10
2.842500
 20
2.840000
  0
VERTEX
  8
gg1
 10
2.857500
 20
2.840000
  0
SEQEND
  8
gg1
  0
POLYLINE
  8
gg1
 62
1
 40
0.000000
 41
0.000000
 66
  1
  0
VERTEX
  8
gg1
 10
2.850000
 20
2.832500
  0
VERTEX
  8
gg1
 10
2.850000
 20
2.847500
  0
SEQEND
  8
gg1
  0
POLYLINE
  8
gg1
 62
1
 40
0.000000
 41
0.000000
 66
  1
  0
VERTEX
  8
gg1
 10
2.865000
 20
2.647500
  0
VERTEX
  8
gg1
 10
2.880000
 20
2.647500
  0
SEQEND
  8
gg1
  0
POLYLINE
  8
gg1
 62
1
 40
0.000000
 41
0.000000
 66
  1
  0
VERTEX
  8
gg1
 10
2.872500
 20
2.640000
  0
VERTEX
  8
gg1
 10
2.872500
 20
2.655000
  0
SEQEND
  8
gg1
  0
POLYLINE
  8
gg1
 62
1
 40
0.000000
 41
0.000000
 66
  1
  0
VERTEX
  8
gg1
 10
1.165500
 20
2.982000
  0
VERTEX
  8
gg1
 10
1.180500
 20
2.982000
  0
SEQEND
  8
gg1
  0
POLYLINE
  8
gg1
 62
1
 40
0.000000
 41
0.000000
 66
  1
  0
VERTEX
  8
gg1
 10
1.173000
 20
2.974500
  0
VERTEX
  8
gg1
 10
1.173000
 20
2.989500
  0
SEQEND
  8
gg1
  0
POLYLINE
  8
gg1
 62
1
 40
0.000000
 41
0.000000
 66
  1
  0
VERTEX
  8
gg1
 10
1.151500
 20
3.109000
  0
VERTEX
  8
gg1
 10
1.166500
 20
3.109000
  0
SEQEND
  8
gg1
  0
POLYLINE
  8
gg1
 62
1
 40
0.000000
 41
0.000000
 66
  1
  0
VERTEX
  8
gg1
 10
1.159000
 20
3.101500
  0
VERTEX
  8
gg1
 10
1.159000
 20
3.116500
  0
SEQEND
  8
gg1
  0
POLYLINE
  8
gg1
 62
1
 40
0.000000
 41
0.000000
 66
  1
  0
VERTEX
  8
gg1
 10
1.276500
 20
3.042000
  0
VERTEX
  8
gg1
 10
1.291500
 20
3.042000
  0
SEQEND
  8
gg1
  0
POLYLINE
  8
gg1
 62
1
 40
0.000000
 41
0.000000
 66
  1
  0
VERTEX
  8
gg1
 10
1.284000
 20
3.034500
  0
VERTEX
  8
gg1
 10
1.284000
 20
3.049500
  0
SEQEND
  8
gg1
  0
POLYLINE
  8
gg1
 62
1
 40
0.000000
 41
0.000000
 66
  1
  0
VERTEX
  8
gg1
 10
1.300500
 20
2.949000
  0
VERTEX
  8
gg1
 10
1.315500
 20
2.949000
  0
SEQEND
  8
gg1
  0
POLYLINE
  8
gg1
 62
1
 40
0.000000
 41
0.000000
 66
  1
  0
VERTEX
  8
gg1
 10
1.308000
 20
2.941500
  0
VERTEX
  8
gg1
 10
1.308000
 20
2.956500
  0
SEQEND
  8
gg1
  0
POLYLINE
  8
gg1
 62
1
 40
0.000000
 41
0.000000
 66
  1
  0
VERTEX
  8
gg1
 10
1.238500
 20
2.919000
  0
VERTEX
  8
gg1
 10
1.253500
 20
2.919000
  0
SEQEND
  8
gg1
  0
POLYLINE
  8
gg1
 62
1
 40
0.000000
 41
0.000000
 66
  1
  0
VERTEX
  8
gg1
 10
1.246000
 20
2.911500
  0
VERTEX
  8
gg1
 10
1.246000
 20
2.926500
  0
SEQEND
  8
gg1
  0
POLYLINE
  8
gg1
 62
1
 40
0.000000
 41
0.000000
 66
  1
  0
VERTEX
  8
gg1
 10
1.216500
 20
3.028000
  0
VERTEX
  8
gg1
 10
1.231500
 20
3.028000
  0
SEQEND
  8
gg1
  0
POLYLINE
  8
gg1
 62
1
 40
0.000000
 41
0.000000
 66
  1
  0
VERTEX
  8
gg1
 10
1.224000
 20
3.020500
  0
VERTEX
  8
gg1
 10
1.224000
 20
3.035500
  0
SEQEND
  8
gg1
  0
POLYLINE
  8
gg1
 62
1
 40
0.000000
 41
0.000000
 66
  1
  0
VERTEX
  8
gg1
 10
1.700500
 20
3.224000
  0
VERTEX
  8
gg1
 10
1.715500
 20
3.224000
  0
SEQEND
  8
gg1
  0
POLYLINE
  8
gg1
 62
1
 40
0.000000
 41
0.000000
 66
  1
  0
VERTEX
  8
gg1
 10
1.708000
 20
3.216500
  0
VERTEX
  8
gg1
 10
1.708000
 20
3.231500
  0
SEQEND
  8
gg1
  0
POLYLINE
  8
gg1
 62
1
 40
0.000000
 41
0.000000
 66
  1
  0
VERTEX
  8
gg1
 10
1.762500
 20
3.246000
  0
VERTEX
  8
gg1
 10
1.777500
 20
3.246000
  0
SEQEND
  8
gg1
  0
POLYLINE
  8
gg1
 62
1
 40
0.000000
 41
0.000000
 66
  1
  0
VERTEX
  8
gg1
 10
1.770000
 20
3.238500
  0
VERTEX
  8
gg1
 10
1.770000
 20
3.253500
  0
SEQEND
  8
gg1
  0
POLYLINE
  8
gg1
 62
1
 40
0.000000
 41
0.000000
 66
  1
  0
VERTEX
  8
gg1
 10
1.784500
 20
3.189000
  0
VERTEX
  8
gg1
 10
1.799500
 20
3.189000
  0
SEQEND
  8
gg1
  0
POLYLINE
  8
gg1
 62
1
 40
0.000000
 41
0.000000
 66
  1
  0
VERTEX
  8
gg1
 10
1.792000
 20
3.181500
  0
VERTEX
  8
gg1
 10
1.792000
 20
3.196500
  0
SEQEND
  8
gg1
  0
POLYLINE
  8
gg1
 62
1
 40
0.000000
 41
0.000000
 66
  1
  0
VERTEX
  8
gg1
 10
1.857500
 20
3.242000
  0
VERTEX
  8
gg1
 10
1.872500
 20
3.242000
  0
SEQEND
  8
gg1
  0
POLYLINE
  8
gg1
 62
1
 40
0.000000
 41
0.000000
 66
  1
  0
VERTEX
  8
gg1
 10
1.865000
 20
3.234500
  0
VERTEX
  8
gg1
 10
1.865000
 20
3.249500
  0
SEQEND
  8
gg1
  0
POLYLINE
  8
gg1
 62
1
 40
0.000000
 41
0.000000
 66
  1
  0
VERTEX
  8
gg1
 10
1.934500
 20
3.181000
  0
VERTEX
  8
gg1
 10
1.949500
 20
3.181000
  0
SEQEND
  8
gg1
  0
POLYLINE
  8
gg1
 62
1
 40
0.000000
 41
0.000000
 66
  1
  0
VERTEX
  8
gg1
 10
1.942000
 20
3.173500
  0
VERTEX
  8
gg1
 10
1.942000
 20
3.188500
  0
SEQEND
  8
gg1
  0
POLYLINE
  8
gg1
 62
1
 40
0.000000
 41
0.000000
 66
  1
  0
VERTEX
  8
gg1
 10
2.055500
 20
3.189000
  0
VERTEX
  8
gg1
 10
2.070500
 20
3.189000
  0
SEQEND
  8
gg1
  0
POLYLINE
  8
gg1
 62
1
 40
0.000000
 41
0.000000
 66
  1
  0
VERTEX
  8
gg1
 10
2.063000
 20
3.181500
  0
VERTEX
  8
gg1
 10
2.063000
 20
3.196500
  0
SEQEND
  8
gg1
  0
POLYLINE
  8
gg1
 62
1
 40
0.000000
 41
0.000000
 66
  1
  0
VERTEX
  8
gg1
 10
2.111500
 20
3.018000
  0
VERTEX
  8
gg1
 10
2.126500
 20
3.018000
  0
SEQEND
  8
gg1
  0
POLYLINE
  8
gg1
 62
1
 40
0.000000
 41
0.000000
 66
  1
  0
VERTEX
  8
gg1
 10
2.119000
 20
3.010500
  0
VERTEX
  8
gg1
 10
2.119000
 20
3.025500
  0
SEQEND
  8
gg1
  0
POLYLINE
  8
gg1
 62
1
 40
0.000000
 41
0.000000
 66
  1
  0
VERTEX
  8
gg1
 10
2.186500
 20
3.020000
  0
VERTEX
  8
gg1
 10
2.201500
 20
3.020000
  0
SEQEND
  8
gg1
  0
POLYLINE
  8
gg1
 62
1
 40
0.000000
 41
0.000000
 66
  1
  0
VERTEX
  8
gg1
 10
2.194000
 20
3.012500
  0
VERTEX
  8
gg1
 10
2.194000
 20
3.027500
  0
SEQEND
  8
gg1
  0
POLYLINE
  8
gg1
 62
1
 40
0.000000
 41
0.000000
 66
  1
  0
VERTEX
  8
gg1
 10
2.244500
 20
2.951000
  0
VERTEX
  8
gg1
 10
2.259500
 20
2.951000
  0
SEQEND
  8
gg1
  0
POLYLINE
  8
gg1
 62
1
 40
0.000000
 41
0.000000
 66
  1
  0
VERTEX
  8
gg1
 10
2.252000
 20
2.943500
  0
VERTEX
  8
gg1
 10
2.252000
 20
2.958500
  0
SEQEND
  8
gg1
  0
POLYLINE
  8
gg1
 62
1
 40
0.000000
 41
0.000000
 66
  1
  0
VERTEX
  8
gg1
 10
2.287500
 20
2.869000
  0
VERTEX
  8
gg1
 10
2.302500
 20
2.869000
  0
SEQEND
  8
gg1
  0
POLYLINE
  8
gg1
 62
1
 40
0.000000
 41
0.000000
 66
  1
  0
VERTEX
  8
gg1
 10
2.295000
 20
2.861500
  0
VERTEX
  8
gg1
 10
2.295000
 20
2.876500
  0
SEQEND
  8
gg1
  0
POLYLINE
  8
gg1
 62
1
 40
0.000000
 41
0.000000
 66
  1
  0
VERTEX
  8
gg1
 10
2.164500
 20
2.782000
  0
VERTEX
  8
gg1
 10
2.179500
 20
2.782000
  0
SEQEND
  8
gg1
  0
POLYLINE
  8
gg1
 62
1
 40
0.000000
 41
0.000000
 66
  1
  0
VERTEX
  8
gg1
 10
2.172000
 20
2.774500
  0
VERTEX
  8
gg1
 10
2.172000
 20
2.789500
  0
SEQEND
  8
gg1
  0
POLYLINE
  8
gg1
 62
1
 40
0.000000
 41
0.000000
 66
  1
  0
VERTEX
  8
gg1
 10
1.859500
 20
2.667000
  0
VERTEX
  8
gg1
 10
1.874500
 20
2.667000
  0
SEQEND
  8
gg1
  0
POLYLINE
  8
gg1
 62
1
 40
0.000000
 41
0.000000
 66
  1
  0
VERTEX
  8
gg1
 10
1.867000
 20
2.659500
  0
VERTEX
  8
gg1
 10
1.867000
 20
2.674500
  0
SEQEND
  8
gg1
  0
POLYLINE
  8
gg1
 62
1
 40
0.000000
 41
0.000000
 66
  1
  0
VERTEX
  8
gg1
 10
1.797500
 20
2.734000
  0
VERTEX
  8
gg1
 10
1.812500
 20
2.734000
  0
SEQEND
  8
gg1
  0
POLYLINE
  8
gg1
 62
1
 40
0.000000
 41
0.000000
 66
  1
  0
VERTEX
  8
gg1
 10
1.805000
 20
2.726500
  0
VERTEX
  8
gg1
 10
1.805000
 20
2.741500
  0
SEQEND
  8
gg1
  0
POLYLINE
  8
gg1
 62
1
 40
0.000000
 41
0.000000
 66
  1
  0
VERTEX
  8
gg1
 10
1.760500
 20
2.816000
  0
VERTEX
  8
gg1
 10
1.775500
 20
2.816000
  0
SEQEND
  8
gg1
  0
POLYLINE
  8
gg1
 62
1
 40
0.000000
 41
0.000000
 66
  1
  0
VERTEX
  8
gg1
 10
1.768000
 20
2.808500
  0
VERTEX
  8
gg1
 10
1.768000
 20
2.823500
  0
SEQEND
  8
gg1
  0
POLYLINE
  8
gg1
 62
1
 40
0.000000
 41
0.000000
 66
  1
  0
VERTEX
  8
gg1
 10
1.742500
 20
2.889000
  0
VERTEX
  8
gg1
 10
1.757500
 20
2.889000
  0
SEQEND
  8
gg1
  0
POLYLINE
  8
gg1
 62
1
 40
0.000000
 41
0.000000
 66
  1
  0
VERTEX
  8
gg1
 10
1.750000
 20
2.881500
  0
VERTEX
  8
gg1
 10
1.750000
 20
2.896500
  0
SEQEND
  8
gg1
  0
POLYLINE
  8
gg1
 62
1
 40
0.000000
 41
0.000000
 66
  1
  0
VERTEX
  8
gg1
 10
1.841500
 20
2.957000
  0
VERTEX
  8
gg1
 10
1.856500
 20
2.957000
  0
SEQEND
  8
gg1
  0
POLYLINE
  8
gg1
 62
1
 40
0.000000
 41
0.000000
 66
  1
  0
VERTEX
  8
gg1
 10
1.849000
 20
2.949500
  0
VERTEX
  8
gg1
 10
1.849000
 20
2.964500
  0
SEQEND
  8
gg1
  0
POLYLINE
  8
gg1
 62
1
 40
0.000000
 41
0.000000
 66
  1
  0
VERTEX
  8
gg1
 10
2.978500
 20
0.608000
  0
VERTEX
  8
gg1
 10
2.993500
 20
0.608000
  0
SEQEND
  8
gg1
  0
POLYLINE
  8
gg1
 62
1
 40
0.000000
 41
0.000000
 66
  1
  0
VERTEX
  8
gg1
 10
2.986000
 20
0.600500
  0
VERTEX
  8
gg1
 10
2.986000
 20
0.615500
  0
SEQEND
  8
gg1
  0
POLYLINE
  8
gg1
 62
1
 40
0.000000
 41
0.000000
 66
  1
  0
VERTEX
  8
gg1
 10
3.310500
 20
0.815000
  0
VERTEX
  8
gg1
 10
3.325500
 20
0.815000
  0
SEQEND
  8
gg1
  0
POLYLINE
  8
gg1
 62
1
 40
0.000000
 41
0.000000
 66
  1
  0
VERTEX
  8
gg1
 10
3.318000
 20
0.807500
  0
VERTEX
  8
gg1
 10
3.318000
 20
0.822500
  0
SEQEND
  8
gg1
  0
POLYLINE
  8
gg1
 62
1
 40
0.000000
 41
0.000000
 66
  1
  0
VERTEX
  8
gg1
 10
3.364500
 20
1.412000
  0
VERTEX
  8
gg1
 10
3.379500
 20
1.412000
  0
SEQEND
  8
gg1
  0
POLYLINE
  8
gg1
 62
1
 40
0.000000
 41
0.000000
 66
  1
  0
VERTEX
  8
gg1
 10
3.372000
 20
1.404500
  0
VERTEX
  8
gg1
 10
3.372000
 20
1.419500
  0
SEQEND
  8
gg1
  0
POLYLINE
  8
gg1
 62
1
 40
0.000000
 41
0.000000
 66
  1
  0
VERTEX
  8
gg1
 10
3.336500
 20
1.467000
  0
VERTEX
  8
gg1
 10
3.351500
 20
1.467000
  0
SEQEND
  8
gg1
  0
POLYLINE
  8
gg1
 62
1
 40
0.000000
 41
0.000000
 66
  1
  0
VERTEX
  8
gg1
 10
3.344000
 20
1.459500
  0
VERTEX
  8
gg1
 10
3.344000
 20
1.474500
  0
SEQEND
  8
gg1
  0
POLYLINE
  8
gg1
 62
1
 40
0.000000
 41
0.000000
 66
  1
  0
VERTEX
  8
gg1
 10
3.382500
 20
1.470000
  0
VERTEX
  8
gg1
 10
3.397500
 20
1.470000
  0
SEQEND
  8
gg1
  0
POLYLINE
  8
gg1
 62
1
 40
0.000000
 41
0.000000
 66
  1
  0
VERTEX
  8
gg1
 10
3.390000
 20
1.462500
  0
VERTEX
  8
gg1
 10
3.390000
 20
1.477500
  0
SEQEND
  8
gg1
  0
POLYLINE
  8
gg1
 62
1
 40
0.000000
 41
0.000000
 66
  1
  0
VERTEX
  8
gg1
 10
3.381500
 20
0.961000
  0
VERTEX
  8
gg1
 10
3.396500
 20
0.961000
  0
SEQEND
  8
gg1
  0
POLYLINE
  8
gg1
 62
1
 40
0.000000
 41
0.000000
 66
  1
  0
VERTEX
  8
gg1
 10
3.389000
 20
0.953500
  0
VERTEX
  8
gg1
 10
3.389000
 20
0.968500
  0
SEQEND
  8
gg1
  0
POLYLINE
  8
gg1
 62
1
 40
0.000000
 41
0.000000
 66
  1
  0
VERTEX
  8
gg1
 10
3.467500
 20
1.024000
  0
VERTEX
  8
gg1
 10
3.482500
 20
1.024000
  0
SEQEND
  8
gg1
  0
POLYLINE
  8
gg1
 62
1
 40
0.000000
 41
0.000000
 66
  1
  0
VERTEX
  8
gg1
 10
3.475000
 20
1.016500
  0
VERTEX
  8
gg1
 10
3.475000
 20
1.031500
  0
SEQEND
  8
gg1
  0
POLYLINE
  8
gg1
 62
1
 40
0.000000
 41
0.000000
 66
  1
  0
VERTEX
  8
gg1
 10
3.381500
 20
1.038000
  0
VERTEX
  8
gg1
 10
3.396500
 20
1.038000
  0
SEQEND
  8
gg1
  0
POLYLINE
  8
gg1
 62
1
 40
0.000000
 41
0.000000
 66
  1
  0
VERTEX
  8
gg1
 10
3.389000
 20
1.030500
  0
VERTEX
  8
gg1
 10
3.389000
 20
1.045500
  0
SEQEND
  8
gg1
  0
POLYLINE
  8
gg1
 62
1
 40
0.000000
 41
0.000000
 66
  1
  0
VERTEX
  8
gg1
 10
1.612500
 20
0.470000
  0
VERTEX
  8
gg1
 10
1.627500
 20
0.470000
  0
SEQEND
  8
gg1
  0
POLYLINE
  8
gg1
 62
1
 40
0.000000
 41
0.000000
 66
  1
  0
VERTEX
  8
gg1
 10
1.620000
 20
0.462500
  0
VERTEX
  8
gg1
 10
1.620000
 20
0.477500
  0
SEQEND
  8
gg1
  0
POLYLINE
  8
gg1
 62
1
 40
0.000000
 41
0.000000
 66
  1
  0
VERTEX
  8
gg1
 10
1.747500
 20
0.360000
  0
VERTEX
  8
gg1
 10
1.762500
 20
0.360000
  0
SEQEND
  8
gg1
  0
POLYLINE
  8
gg1
 62
1
 40
0.000000
 41
0.000000
 66
  1
  0
VERTEX
  8
gg1
 10
1.755000
 20
0.352500
  0
VERTEX
  8
gg1
 10
1.755000
 20
0.367500
  0
SEQEND
  8
gg1
  0
POLYLINE
  8
gg1
 62
1
 40
0.000000
 41
0.000000
 66
  1
  0
VERTEX
  8
gg1
 10
1.697500
 20
0.355000
  0
VERTEX
  8
gg1
 10
1.712500
 20
0.355000
  0
SEQEND
  8
gg1
  0
POLYLINE
  8
gg1
 62
1
 40
0.000000
 41
0.000000
 66
  1
  0
VERTEX
  8
gg1
 10
1.705000
 20
0.347500
  0
VERTEX
  8
gg1
 10
1.705000
 20
0.362500
  0
SEQEND
  8
gg1
  0
POLYLINE
  8
gg1
 62
1
 40
0.000000
 41
0.000000
 66
  1
  0
VERTEX
  8
gg1
 10
1.627500
 20
0.365000
  0
VERTEX
  8
gg1
 10
1.642500
 20
0.365000
  0
SEQEND
  8
gg1
  0
POLYLINE
  8
gg1
 62
1
 40
0.000000
 41
0.000000
 66
  1
  0
VERTEX
  8
gg1
 10
1.635000
 20
0.357500
  0
VERTEX
  8
gg1
 10
1.635000
 20
0.372500
  0
SEQEND
  8
gg1
  0
POLYLINE
  8
gg1
 62
1
 40
0.000000
 41
0.000000
 66
  1
  0
VERTEX
  8
gg1
 10
1.567500
 20
0.375000
  0
VERTEX
  8
gg1
 10
1.582500
 20
0.375000
  0
SEQEND
  8
gg1
  0
POLYLINE
  8
gg1
 62
1
 40
0.000000
 41
0.000000
 66
  1
  0
VERTEX
  8
gg1
 10
1.575000
 20
0.367500
  0
VERTEX
  8
gg1
 10
1.575000
 20
0.382500
  0
SEQEND
  8
gg1
  0
POLYLINE
  8
gg1
 62
1
 40
0.000000
 41
0.000000
 66
  1
  0
VERTEX
  8
gg1
 10
1.502500
 20
0.375000
  0
VERTEX
  8
gg1
 10
1.517500
 20
0.375000
  0
SEQEND
  8
gg1
  0
POLYLINE
  8
gg1
 62
1
 40
0.000000
 41
0.000000
 66
  1
  0
VERTEX
  8
gg1
 10
1.510000
 20
0.367500
  0
VERTEX
  8
gg1
 10
1.510000
 20
0.382500
  0
SEQEND
  8
gg1
  0
POLYLINE
  8
gg1
 62
1
 40
0.000000
 41
0.000000
 66
  1
  0
VERTEX
  8
gg1
 10
1.447500
 20
0.455000
  0
VERTEX
  8
gg1
 10
1.462500
 20
0.455000
  0
SEQEND
  8
gg1
  0
POLYLINE
  8
gg1
 62
1
 40
0.000000
 41
0.000000
 66
  1
  0
VERTEX
  8
gg1
 10
1.455000
 20
0.447500
  0
VERTEX
  8
gg1
 10
1.455000
 20
0.462500
  0
SEQEND
  8
gg1
  0
POLYLINE
  8
gg1
 62
1
 40
0.000000
 41
0.000000
 66
  1
  0
VERTEX
  8
gg1
 10
1.407500
 20
0.415000
  0
VERTEX
  8
gg1
 10
1.422500
 20
0.415000
  0
SEQEND
  8
gg1
  0
POLYLINE
  8
gg1
 62
1
 40
0.000000
 41
0.000000
 66
  1
  0
VERTEX
  8
gg1
 10
1.415000
 20
0.407500
  0
VERTEX
  8
gg1
 10
1.415000
 20
0.422500
  0
SEQEND
  8
gg1
  0
POLYLINE
  8
gg1
 62
1
 40
0.000000
 41
0.000000
 66
  1
  0
VERTEX
  8
gg1
 10
1.222500
 20
0.465000
  0
VERTEX
  8
gg1
 10
1.237500
 20
0.465000
  0
SEQEND
  8
gg1
  0
POLYLINE
  8
gg1
 62
1
 40
0.000000
 41
0.000000
 66
  1
  0
VERTEX
  8
gg1
 10
1.230000
 20
0.457500
  0
VERTEX
  8
gg1
 10
1.230000
 20
0.472500
  0
SEQEND
  8
gg1
  0
POLYLINE
  8
gg1
 62
1
 40
0.000000
 41
0.000000
 66
  1
  0
VERTEX
  8
gg1
 10
1.347500
 20
0.500000
  0
VERTEX
  8
gg1
 10
1.362500
 20
0.500000
  0
SEQEND
  8
gg1
  0
POLYLINE
  8
gg1
 62
1
 40
0.000000
 41
0.000000
 66
  1
  0
VERTEX
  8
gg1
 10
1.355000
 20
0.492500
  0
VERTEX
  8
gg1
 10
1.355000
 20
0.507500
  0
SEQEND
  8
gg1
  0
POLYLINE
  8
gg1
 62
1
 40
0.000000
 41
0.000000
 66
  1
  0
VERTEX
  8
gg1
 10
1.157500
 20
0.495000
  0
VERTEX
  8
gg1
 10
1.172500
 20
0.495000
  0
SEQEND
  8
gg1
  0
POLYLINE
  8
gg1
 62
1
 40
0.000000
 41
0.000000
 66
  1
  0
VERTEX
  8
gg1
 10
1.165000
 20
0.487500
  0
VERTEX
  8
gg1
 10
1.165000
 20
0.502500
  0
SEQEND
  8
gg1
  0
POLYLINE
  8
gg1
 62
1
 40
0.000000
 41
0.000000
 66
  1
  0
VERTEX
  8
gg1
 10
1.282500
 20
0.440000
  0
VERTEX
  8
gg1
 10
1.297500
 20
0.440000
  0
SEQEND
  8
gg1
  0
POLYLINE
  8
gg1
 62
1
 40
0.000000
 41
0.000000
 66
  1
  0
VERTEX
  8
gg1
 10
1.290000
 20
0.432500
  0
VERTEX
  8
gg1
 10
1.290000
 20
0.447500
  0
SEQEND
  8
gg1
  0
POLYLINE
  8
gg1
 62
1
 40
0.000000
 41
0.000000
 66
  1
  0
VERTEX
  8
gg1
 10
1.347500
 20
0.415000
  0
VERTEX
  8
gg1
 10
1.362500
 20
0.415000
  0
SEQEND
  8
gg1
  0
POLYLINE
  8
gg1
 62
1
 40
0.000000
 41
0.000000
 66
  1
  0
VERTEX
  8
gg1
 10
1.355000
 20
0.407500
  0
VERTEX
  8
gg1
 10
1.355000
 20
0.422500
  0
SEQEND
  8
gg1
  0
POLYLINE
  8
gg1
 62
1
 40
0.000000
 41
0.000000
 66
  1
  0
VERTEX
  8
gg1
 10
1.667500
 20
0.420000
  0
VERTEX
  8
gg1
 10
1.682500
 20
0.420000
  0
SEQEND
  8
gg1
  0
POLYLINE
  8
gg1
 62
1
 40
0.000000
 41
0.000000
 66
  1
  0
VERTEX
  8
gg1
 10
1.675000
 20
0.412500
  0
VERTEX
  8
gg1
 10
1.675000
 20
0.427500
  0
SEQEND
  8
gg1
  0
POLYLINE
  8
gg1
 62
1
 40
0.000000
 41
0.000000
 66
  1
  0
VERTEX
  8
gg1
 10
1.617500
 20
0.420000
  0
VERTEX
  8
gg1
 10
1.632500
 20
0.420000
  0
SEQEND
  8
gg1
  0
POLYLINE
  8
gg1
 62
1
 40
0.000000
 41
0.000000
 66
  1
  0
VERTEX
  8
gg1
 10
1.625000
 20
0.412500
  0
VERTEX
  8
gg1
 10
1.625000
 20
0.427500
  0
SEQEND
  8
gg1
  0
POLYLINE
  8
gg1
 62
1
 40
0.000000
 41
0.000000
 66
  1
  0
VERTEX
  8
gg1
 10
1.637500
 20
0.515000
  0
VERTEX
  8
gg1
 10
1.652500
 20
0.515000
  0
SEQEND
  8
gg1
  0
POLYLINE
  8
gg1
 62
1
 40
0.000000
 41
0.000000
 66
  1
  0
VERTEX
  8
gg1
 10
1.645000
 20
0.507500
  0
VERTEX
  8
gg1
 10
1.645000
 20
0.522500
  0
SEQEND
  8
gg1
  0
POLYLINE
  8
gg1
 62
1
 40
0.000000
 41
0.000000
 66
  1
  0
VERTEX
  8
gg1
 10
1.482500
 20
0.500000
  0
VERTEX
  8
gg1
 10
1.497500
 20
0.500000
  0
SEQEND
  8
gg1
  0
POLYLINE
  8
gg1
 62
1
 40
0.000000
 41
0.000000
 66
  1
  0
VERTEX
  8
gg1
 10
1.490000
 20
0.492500
  0
VERTEX
  8
gg1
 10
1.490000
 20
0.507500
  0
SEQEND
  8
gg1
  0
POLYLINE
  8
gg1
 62
1
 40
0.000000
 41
0.000000
 66
  1
  0
VERTEX
  8
gg1
 10
1.412500
 20
0.495000
  0
VERTEX
  8
gg1
 10
1.427500
 20
0.495000
  0
SEQEND
  8
gg1
  0
POLYLINE
  8
gg1
 62
1
 40
0.000000
 41
0.000000
 66
  1
  0
VERTEX
  8
gg1
 10
1.420000
 20
0.487500
  0
VERTEX
  8
gg1
 10
1.420000
 20
0.502500
  0
SEQEND
  8
gg1
  0
POLYLINE
  8
gg1
 62
1
 40
0.000000
 41
0.000000
 66
  1
  0
VERTEX
  8
gg1
 10
1.547500
 20
0.560000
  0
VERTEX
  8
gg1
 10
1.562500
 20
0.560000
  0
SEQEND
  8
gg1
  0
POLYLINE
  8
gg1
 62
1
 40
0.000000
 41
0.000000
 66
  1
  0
VERTEX
  8
gg1
 10
1.555000
 20
0.552500
  0
VERTEX
  8
gg1
 10
1.555000
 20
0.567500
  0
SEQEND
  8
gg1
  0
POLYLINE
  8
gg1
 62
1
 40
0.000000
 41
0.000000
 66
  1
  0
VERTEX
  8
gg1
 10
1.482500
 20
0.560000
  0
VERTEX
  8
gg1
 10
1.497500
 20
0.560000
  0
SEQEND
  8
gg1
  0
POLYLINE
  8
gg1
 62
1
 40
0.000000
 41
0.000000
 66
  1
  0
VERTEX
  8
gg1
 10
1.490000
 20
0.552500
  0
VERTEX
  8
gg1
 10
1.490000
 20
0.567500
  0
SEQEND
  8
gg1
  0
POLYLINE
  8
gg1
 62
1
 40
0.000000
 41
0.000000
 66
  1
  0
VERTEX
  8
gg1
 10
1.417500
 20
0.560000
  0
VERTEX
  8
gg1
 10
1.432500
 20
0.560000
  0
SEQEND
  8
gg1
  0
POLYLINE
  8
gg1
 62
1
 40
0.000000
 41
0.000000
 66
  1
  0
VERTEX
  8
gg1
 10
1.425000
 20
0.552500
  0
VERTEX
  8
gg1
 10
1.425000
 20
0.567500
  0
SEQEND
  8
gg1
  0
POLYLINE
  8
gg1
 62
1
 40
0.000000
 41
0.000000
 66
  1
  0
VERTEX
  8
gg1
 10
1.272500
 20
0.505000
  0
VERTEX
  8
gg1
 10
1.287500
 20
0.505000
  0
SEQEND
  8
gg1
  0
POLYLINE
  8
gg1
 62
1
 40
0.000000
 41
0.000000
 66
  1
  0
VERTEX
  8
gg1
 10
1.280000
 20
0.497500
  0
VERTEX
  8
gg1
 10
1.280000
 20
0.512500
  0
SEQEND
  8
gg1
  0
POLYLINE
  8
gg1
 62
1
 40
0.000000
 41
0.000000
 66
  1
  0
VERTEX
  8
gg1
 10
1.207500
 20
0.520000
  0
VERTEX
  8
gg1
 10
1.222500
 20
0.520000
  0
SEQEND
  8
gg1
  0
POLYLINE
  8
gg1
 62
1
 40
0.000000
 41
0.000000
 66
  1
  0
VERTEX
  8
gg1
 10
1.215000
 20
0.512500
  0
VERTEX
  8
gg1
 10
1.215000
 20
0.527500
  0
SEQEND
  8
gg1
  0
POLYLINE
  8
gg1
 62
1
 40
0.000000
 41
0.000000
 66
  1
  0
VERTEX
  8
gg1
 10
1.322500
 20
0.570000
  0
VERTEX
  8
gg1
 10
1.337500
 20
0.570000
  0
SEQEND
  8
gg1
  0
POLYLINE
  8
gg1
 62
1
 40
0.000000
 41
0.000000
 66
  1
  0
VERTEX
  8
gg1
 10
1.330000
 20
0.562500
  0
VERTEX
  8
gg1
 10
1.330000
 20
0.577500
  0
SEQEND
  8
gg1
  0
POLYLINE
  8
gg1
 62
1
 40
0.000000
 41
0.000000
 66
  1
  0
VERTEX
  8
gg1
 10
1.247500
 20
0.570000
  0
VERTEX
  8
gg1
 10
1.262500
 20
0.570000
  0
SEQEND
  8
gg1
  0
POLYLINE
  8
gg1
 62
1
 40
0.000000
 41
0.000000
 66
  1
  0
VERTEX
  8
gg1
 10
1.255000
 20
0.562500
  0
VERTEX
  8
gg1
 10
1.255000
 20
0.577500
  0
SEQEND
  8
gg1
  0
POLYLINE
  8
gg1
 62
1
 40
0.000000
 41
0.000000
 66
  1
  0
VERTEX
  8
gg1
 10
1.172500
 20
0.570000
  0
VERTEX
  8
gg1
 10
1.187500
 20
0.570000
  0
SEQEND
  8
gg1
  0
POLYLINE
  8
gg1
 62
1
 40
0.000000
 41
0.000000
 66
  1
  0
VERTEX
  8
gg1
 10
1.180000
 20
0.562500
  0
VERTEX
  8
gg1
 10
1.180000
 20
0.577500
  0
SEQEND
  8
gg1
  0
POLYLINE
  8
gg1
 62
1
 40
0.000000
 41
0.000000
 66
  1
  0
VERTEX
  8
gg1
 10
1.892500
 20
1.285000
  0
VERTEX
  8
gg1
 10
1.907500
 20
1.285000
  0
SEQEND
  8
gg1
  0
POLYLINE
  8
gg1
 62
1
 40
0.000000
 41
0.000000
 66
  1
  0
VERTEX
  8
gg1
 10
1.900000
 20
1.277500
  0
VERTEX
  8
gg1
 10
1.900000
 20
1.292500
  0
SEQEND
  8
gg1
  0
POLYLINE
  8
gg1
 62
1
 40
0.000000
 41
0.000000
 66
  1
  0
VERTEX
  8
gg1
 10
1.847500
 20
1.255000
  0
VERTEX
  8
gg1
 10
1.862500
 20
1.255000
  0
SEQEND
  8
gg1
  0
POLYLINE
  8
gg1
 62
1
 40
0.000000
 41
0.000000
 66
  1
  0
VERTEX
  8
gg1
 10
1.855000
 20
1.247500
  0
VERTEX
  8
gg1
 10
1.855000
 20
1.262500
  0
SEQEND
  8
gg1
  0
POLYLINE
  8
gg1
 62
1
 40
0.000000
 41
0.000000
 66
  1
  0
VERTEX
  8
gg1
 10
1.797500
 20
1.285000
  0
VERTEX
  8
gg1
 10
1.812500
 20
1.285000
  0
SEQEND
  8
gg1
  0
POLYLINE
  8
gg1
 62
1
 40
0.000000
 41
0.000000
 66
  1
  0
VERTEX
  8
gg1
 10
1.805000
 20
1.277500
  0
VERTEX
  8
gg1
 10
1.805000
 20
1.292500
  0
SEQEND
  8
gg1
  0
POLYLINE
  8
gg1
 62
1
 40
0.000000
 41
0.000000
 66
  1
  0
VERTEX
  8
gg1
 10
1.752500
 20
1.255000
  0
VERTEX
  8
gg1
 10
1.767500
 20
1.255000
  0
SEQEND
  8
gg1
  0
POLYLINE
  8
gg1
 62
1
 40
0.000000
 41
0.000000
 66
  1
  0
VERTEX
  8
gg1
 10
1.760000
 20
1.247500
  0
VERTEX
  8
gg1
 10
1.760000
 20
1.262500
  0
SEQEND
  8
gg1
  0
POLYLINE
  8
gg1
 62
1
 40
0.000000
 41
0.000000
 66
  1
  0
VERTEX
  8
gg1
 10
1.707500
 20
1.285000
  0
VERTEX
  8
gg1
 10
1.722500
 20
1.285000
  0
SEQEND
  8
gg1
  0
POLYLINE
  8
gg1
 62
1
 40
0.000000
 41
0.000000
 66
  1
  0
VERTEX
  8
gg1
 10
1.715000
 20
1.277500
  0
VERTEX
  8
gg1
 10
1.715000
 20
1.292500
  0
SEQEND
  8
gg1
  0
POLYLINE
  8
gg1
 62
1
 40
0.000000
 41
0.000000
 66
  1
  0
VERTEX
  8
gg1
 10
1.667500
 20
1.255000
  0
VERTEX
  8
gg1
 10
1.682500
 20
1.255000
  0
SEQEND
  8
gg1
  0
POLYLINE
  8
gg1
 62
1
 40
0.000000
 41
0.000000
 66
  1
  0
VERTEX
  8
gg1
 10
1.675000
 20
1.247500
  0
VERTEX
  8
gg1
 10
1.675000
 20
1.262500
  0
SEQEND
  8
gg1
  0
POLYLINE
  8
gg1
 62
1
 40
0.000000
 41
0.000000
 66
  1
  0
VERTEX
  8
gg1
 10
1.617500
 20
1.355000
  0
VERTEX
  8
gg1
 10
1.632500
 20
1.355000
  0
SEQEND
  8
gg1
  0
POLYLINE
  8
gg1
 62
1
 40
0.000000
 41
0.000000
 66
  1
  0
VERTEX
  8
gg1
 10
1.625000
 20
1.347500
  0
VERTEX
  8
gg1
 10
1.625000
 20
1.362500
  0
SEQEND
  8
gg1
  0
POLYLINE
  8
gg1
 62
1
 40
0.000000
 41
0.000000
 66
  1
  0
VERTEX
  8
gg1
 10
1.632500
 20
0.770000
  0
VERTEX
  8
gg1
 10
1.647500
 20
0.770000
  0
SEQEND
  8
gg1
  0
POLYLINE
  8
gg1
 62
1
 40
0.000000
 41
0.000000
 66
  1
  0
VERTEX
  8
gg1
 10
1.640000
 20
0.762500
  0
VERTEX
  8
gg1
 10
1.640000
 20
0.777500
  0
SEQEND
  8
gg1
  0
POLYLINE
  8
gg1
 62
1
 40
0.000000
 41
0.000000
 66
  1
  0
VERTEX
  8
gg1
 10
1.632500
 20
0.700000
  0
VERTEX
  8
gg1
 10
1.647500
 20
0.700000
  0
SEQEND
  8
gg1
  0
POLYLINE
  8
gg1
 62
1
 40
0.000000
 41
0.000000
 66
  1
  0
VERTEX
  8
gg1
 10
1.640000
 20
0.692500
  0
VERTEX
  8
gg1
 10
1.640000
 20
0.707500
  0
SEQEND
  8
gg1
  0
POLYLINE
  8
gg1
 62
1
 40
0.000000
 41
0.000000
 66
  1
  0
VERTEX
  8
gg1
 10
1.632500
 20
0.635000
  0
VERTEX
  8
gg1
 10
1.647500
 20
0.635000
  0
SEQEND
  8
gg1
  0
POLYLINE
  8
gg1
 62
1
 40
0.000000
 41
0.000000
 66
  1
  0
VERTEX
  8
gg1
 10
1.640000
 20
0.627500
  0
VERTEX
  8
gg1
 10
1.640000
 20
0.642500
  0
SEQEND
  8
gg1
  0
POLYLINE
  8
gg1
 62
1
 40
0.000000
 41
0.000000
 66
  1
  0
VERTEX
  8
gg1
 10
1.192500
 20
0.715000
  0
VERTEX
  8
gg1
 10
1.207500
 20
0.715000
  0
SEQEND
  8
gg1
  0
POLYLINE
  8
gg1
 62
1
 40
0.000000
 41
0.000000
 66
  1
  0
VERTEX
  8
gg1
 10
1.200000
 20
0.707500
  0
VERTEX
  8
gg1
 10
1.200000
 20
0.722500
  0
SEQEND
  8
gg1
  0
POLYLINE
  8
gg1
 62
1
 40
0.000000
 41
0.000000
 66
  1
  0
VERTEX
  8
gg1
 10
1.192500
 20
0.775000
  0
VERTEX
  8
gg1
 10
1.207500
 20
0.775000
  0
SEQEND
  8
gg1
  0
POLYLINE
  8
gg1
 62
1
 40
0.000000
 41
0.000000
 66
  1
  0
VERTEX
  8
gg1
 10
1.200000
 20
0.767500
  0
VERTEX
  8
gg1
 10
1.200000
 20
0.782500
  0
SEQEND
  8
gg1
  0
POLYLINE
  8
gg1
 62
1
 40
0.000000
 41
0.000000
 66
  1
  0
VERTEX
  8
gg1
 10
1.537500
 20
0.625000
  0
VERTEX
  8
gg1
 10
1.552500
 20
0.625000
  0
SEQEND
  8
gg1
  0
POLYLINE
  8
gg1
 62
1
 40
0.000000
 41
0.000000
 66
  1
  0
VERTEX
  8
gg1
 10
1.545000
 20
0.617500
  0
VERTEX
  8
gg1
 10
1.545000
 20
0.632500
  0
SEQEND
  8
gg1
  0
POLYLINE
  8
gg1
 62
1
 40
0.000000
 41
0.000000
 66
  1
  0
VERTEX
  8
gg1
 10
1.537500
 20
0.680000
  0
VERTEX
  8
gg1
 10
1.552500
 20
0.680000
  0
SEQEND
  8
gg1
  0
POLYLINE
  8
gg1
 62
1
 40
0.000000
 41
0.000000
 66
  1
  0
VERTEX
  8
gg1
 10
1.545000
 20
0.672500
  0
VERTEX
  8
gg1
 10
1.545000
 20
0.687500
  0
SEQEND
  8
gg1
  0
POLYLINE
  8
gg1
 62
1
 40
0.000000
 41
0.000000
 66
  1
  0
VERTEX
  8
gg1
 10
1.537500
 20
0.730000
  0
VERTEX
  8
gg1
 10
1.552500
 20
0.730000
  0
SEQEND
  8
gg1
  0
POLYLINE
  8
gg1
 62
1
 40
0.000000
 41
0.000000
 66
  1
  0
VERTEX
  8
gg1
 10
1.545000
 20
0.722500
  0
VERTEX
  8
gg1
 10
1.545000
 20
0.737500
  0
SEQEND
  8
gg1
  0
POLYLINE
  8
gg1
 62
1
 40
0.000000
 41
0.000000
 66
  1
  0
VERTEX
  8
gg1
 10
1.537500
 20
0.785000
  0
VERTEX
  8
gg1
 10
1.552500
 20
0.785000
  0
SEQEND
  8
gg1
  0
POLYLINE
  8
gg1
 62
1
 40
0.000000
 41
0.000000
 66
  1
  0
VERTEX
  8
gg1
 10
1.545000
 20
0.777500
  0
VERTEX
  8
gg1
 10
1.545000
 20
0.792500
  0
SEQEND
  8
gg1
  0
POLYLINE
  8
gg1
 62
1
 40
0.000000
 41
0.000000
 66
  1
  0
VERTEX
  8
gg1
 10
1.537500
 20
0.840000
  0
VERTEX
  8
gg1
 10
1.552500
 20
0.840000
  0
SEQEND
  8
gg1
  0
POLYLINE
  8
gg1
 62
1
 40
0.000000
 41
0.000000
 66
  1
  0
VERTEX
  8
gg1
 10
1.545000
 20
0.832500
  0
VERTEX
  8
gg1
 10
1.545000
 20
0.847500
  0
SEQEND
  8
gg1
  0
POLYLINE
  8
gg1
 62
1
 40
0.000000
 41
0.000000
 66
  1
  0
VERTEX
  8
gg1
 10
1.157500
 20
0.815000
  0
VERTEX
  8
gg1
 10
1.172500
 20
0.815000
  0
SEQEND
  8
gg1
  0
POLYLINE
  8
gg1
 62
1
 40
0.000000
 41
0.000000
 66
  1
  0
VERTEX
  8
gg1
 10
1.165000
 20
0.807500
  0
VERTEX
  8
gg1
 10
1.165000
 20
0.822500
  0
SEQEND
  8
gg1
  0
POLYLINE
  8
gg1
 62
1
 40
0.000000
 41
0.000000
 66
  1
  0
VERTEX
  8
gg1
 10
1.157500
 20
0.745000
  0
VERTEX
  8
gg1
 10
1.172500
 20
0.745000
  0
SEQEND
  8
gg1
  0
POLYLINE
  8
gg1
 62
1
 40
0.000000
 41
0.000000
 66
  1
  0
VERTEX
  8
gg1
 10
1.165000
 20
0.737500
  0
VERTEX
  8
gg1
 10
1.165000
 20
0.752500
  0
SEQEND
  8
gg1
  0
POLYLINE
  8
gg1
 62
1
 40
0.000000
 41
0.000000
 66
  1
  0
VERTEX
  8
gg1
 10
1.157500
 20
0.685000
  0
VERTEX
  8
gg1
 10
1.172500
 20
0.685000
  0
SEQEND
  8
gg1
  0
POLYLINE
  8
gg1
 62
1
 40
0.000000
 41
0.000000
 66
  1
  0
VERTEX
  8
gg1
 10
1.165000
 20
0.677500
  0
VERTEX
  8
gg1
 10
1.165000
 20
0.692500
  0
SEQEND
  8
gg1
  0
POLYLINE
  8
gg1
 62
1
 40
0.000000
 41
0.000000
 66
  1
  0
VERTEX
  8
gg1
 10
1.232500
 20
0.635000
  0
VERTEX
  8
gg1
 10
1.247500
 20
0.635000
  0
SEQEND
  8
gg1
  0
POLYLINE
  8
gg1
 62
1
 40
0.000000
 41
0.000000
 66
  1
  0
VERTEX
  8
gg1
 10
1.240000
 20
0.627500
  0
VERTEX
  8
gg1
 10
1.240000
 20
0.642500
  0
SEQEND
  8
gg1
  0
POLYLINE
  8
gg1
 62
1
 40
0.000000
 41
0.000000
 66
  1
  0
VERTEX
  8
gg1
 10
1.232500
 20
0.685000
  0
VERTEX
  8
gg1
 10
1.247500
 20
0.685000
  0
SEQEND
  8
gg1
  0
POLYLINE
  8
gg1
 62
1
 40
0.000000
 41
0.000000
 66
  1
  0
VERTEX
  8
gg1
 10
1.240000
 20
0.677500
  0
VERTEX
  8
gg1
 10
1.240000
 20
0.692500
  0
SEQEND
  8
gg1
  0
POLYLINE
  8
gg1
 62
1
 40
0.000000
 41
0.000000
 66
  1
  0
VERTEX
  8
gg1
 10
1.232500
 20
0.740000
  0
VERTEX
  8
gg1
 10
1.247500
 20
0.740000
  0
SEQEND
  8
gg1
  0
POLYLINE
  8
gg1
 62
1
 40
0.000000
 41
0.000000
 66
  1
  0
VERTEX
  8
gg1
 10
1.240000
 20
0.732500
  0
VERTEX
  8
gg1
 10
1.240000
 20
0.747500
  0
SEQEND
  8
gg1
  0
POLYLINE
  8
gg1
 62
1
 40
0.000000
 41
0.000000
 66
  1
  0
VERTEX
  8
gg1
 10
1.232500
 20
0.795000
  0
VERTEX
  8
gg1
 10
1.247500
 20
0.795000
  0
SEQEND
  8
gg1
  0
POLYLINE
  8
gg1
 62
1
 40
0.000000
 41
0.000000
 66
  1
  0
VERTEX
  8
gg1
 10
1.240000
 20
0.787500
  0
VERTEX
  8
gg1
 10
1.240000
 20
0.802500
  0
SEQEND
  8
gg1
  0
POLYLINE
  8
gg1
 62
1
 40
0.000000
 41
0.000000
 66
  1
  0
VERTEX
  8
gg1
 10
1.232500
 20
0.850000
  0
VERTEX
  8
gg1
 10
1.247500
 20
0.850000
  0
SEQEND
  8
gg1
  0
POLYLINE
  8
gg1
 62
1
 40
0.000000
 41
0.000000
 66
  1
  0
VERTEX
  8
gg1
 10
1.240000
 20
0.842500
  0
VERTEX
  8
gg1
 10
1.240000
 20
0.857500
  0
SEQEND
  8
gg1
  0
POLYLINE
  8
gg1
 62
1
 40
0.000000
 41
0.000000
 66
  1
  0
VERTEX
  8
gg1
 10
1.347500
 20
0.865000
  0
VERTEX
  8
gg1
 10
1.362500
 20
0.865000
  0
SEQEND
  8
gg1
  0
POLYLINE
  8
gg1
 62
1
 40
0.000000
 41
0.000000
 66
  1
  0
VERTEX
  8
gg1
 10
1.355000
 20
0.857500
  0
VERTEX
  8
gg1
 10
1.355000
 20
0.872500
  0
SEQEND
  8
gg1
  0
POLYLINE
  8
gg1
 62
1
 40
0.000000
 41
0.000000
 66
  1
  0
VERTEX
  8
gg1
 10
1.347500
 20
0.820000
  0
VERTEX
  8
gg1
 10
1.362500
 20
0.820000
  0
SEQEND
  8
gg1
  0
POLYLINE
  8
gg1
 62
1
 40
0.000000
 41
0.000000
 66
  1
  0
VERTEX
  8
gg1
 10
1.355000
 20
0.812500
  0
VERTEX
  8
gg1
 10
1.355000
 20
0.827500
  0
SEQEND
  8
gg1
  0
POLYLINE
  8
gg1
 62
1
 40
0.000000
 41
0.000000
 66
  1
  0
VERTEX
  8
gg1
 10
1.347500
 20
0.775000
  0
VERTEX
  8
gg1
 10
1.362500
 20
0.775000
  0
SEQEND
  8
gg1
  0
POLYLINE
  8
gg1
 62
1
 40
0.000000
 41
0.000000
 66
  1
  0
VERTEX
  8
gg1
 10
1.355000
 20
0.767500
  0
VERTEX
  8
gg1
 10
1.355000
 20
0.782500
  0
SEQEND
  8
gg1
  0
POLYLINE
  8
gg1
 62
1
 40
0.000000
 41
0.000000
 66
  1
  0
VERTEX
  8
gg1
 10
1.347500
 20
0.725000
  0
VERTEX
  8
gg1
 10
1.362500
 20
0.725000
  0
SEQEND
  8
gg1
  0
POLYLINE
  8
gg1
 62
1
 40
0.000000
 41
0.000000
 66
  1
  0
VERTEX
  8
gg1
 10
1.355000
 20
0.717500
  0
VERTEX
  8
gg1
 10
1.355000
 20
0.732500
  0
SEQEND
  8
gg1
  0
POLYLINE
  8
gg1
 62
1
 40
0.000000
 41
0.000000
 66
  1
  0
VERTEX
  8
gg1
 10
1.347500
 20
0.670000
  0
VERTEX
  8
gg1
 10
1.362500
 20
0.670000
  0
SEQEND
  8
gg1
  0
POLYLINE
  8
gg1
 62
1
 40
0.000000
 41
0.000000
 66
  1
  0
VERTEX
  8
gg1
 10
1.355000
 20
0.662500
  0
VERTEX
  8
gg1
 10
1.355000
 20
0.677500
  0
SEQEND
  8
gg1
  0
POLYLINE
  8
gg1
 62
1
 40
0.000000
 41
0.000000
 66
  1
  0
VERTEX
  8
gg1
 10
1.347500
 20
0.625000
  0
VERTEX
  8
gg1
 10
1.362500
 20
0.625000
  0
SEQEND
  8
gg1
  0
POLYLINE
  8
gg1
 62
1
 40
0.000000
 41
0.000000
 66
  1
  0
VERTEX
  8
gg1
 10
1.355000
 20
0.617500
  0
VERTEX
  8
gg1
 10
1.355000
 20
0.632500
  0
SEQEND
  8
gg1
  0
POLYLINE
  8
gg1
 62
1
 40
0.000000
 41
0.000000
 66
  1
  0
VERTEX
  8
gg1
 10
1.417500
 20
0.625000
  0
VERTEX
  8
gg1
 10
1.432500
 20
0.625000
  0
SEQEND
  8
gg1
  0
POLYLINE
  8
gg1
 62
1
 40
0.000000
 41
0.000000
 66
  1
  0
VERTEX
  8
gg1
 10
1.425000
 20
0.617500
  0
VERTEX
  8
gg1
 10
1.425000
 20
0.632500
  0
SEQEND
  8
gg1
  0
POLYLINE
  8
gg1
 62
1
 40
0.000000
 41
0.000000
 66
  1
  0
VERTEX
  8
gg1
 10
1.417500
 20
0.670000
  0
VERTEX
  8
gg1
 10
1.432500
 20
0.670000
  0
SEQEND
  8
gg1
  0
POLYLINE
  8
gg1
 62
1
 40
0.000000
 41
0.000000
 66
  1
  0
VERTEX
  8
gg1
 10
1.425000
 20
0.662500
  0
VERTEX
  8
gg1
 10
1.425000
 20
0.677500
  0
SEQEND
  8
gg1
  0
POLYLINE
  8
gg1
 62
1
 40
0.000000
 41
0.000000
 66
  1
  0
VERTEX
  8
gg1
 10
1.417500
 20
0.720000
  0
VERTEX
  8
gg1
 10
1.432500
 20
0.720000
  0
SEQEND
  8
gg1
  0
POLYLINE
  8
gg1
 62
1
 40
0.000000
 41
0.000000
 66
  1
  0
VERTEX
  8
gg1
 10
1.425000
 20
0.712500
  0
VERTEX
  8
gg1
 10
1.425000
 20
0.727500
  0
SEQEND
  8
gg1
  0
POLYLINE
  8
gg1
 62
1
 40
0.000000
 41
0.000000
 66
  1
  0
VERTEX
  8
gg1
 10
1.417500
 20
0.770000
  0
VERTEX
  8
gg1
 10
1.432500
 20
0.770000
  0
SEQEND
  8
gg1
  0
POLYLINE
  8
gg1
 62
1
 40
0.000000
 41
0.000000
 66
  1
  0
VERTEX
  8
gg1
 10
1.425000
 20
0.762500
  0
VERTEX
  8
gg1
 10
1.425000
 20
0.777500
  0
SEQEND
  8
gg1
  0
POLYLINE
  8
gg1
 62
1
 40
0.000000
 41
0.000000
 66
  1
  0
VERTEX
  8
gg1
 10
1.417500
 20
0.825000
  0
VERTEX
  8
gg1
 10
1.432500
 20
0.825000
  0
SEQEND
  8
gg1
  0
POLYLINE
  8
gg1
 62
1
 40
0.000000
 41
0.000000
 66
  1
  0
VERTEX
  8
gg1
 10
1.425000
 20
0.817500
  0
VERTEX
  8
gg1
 10
1.425000
 20
0.832500
  0
SEQEND
  8
gg1
  0
POLYLINE
  8
gg1
 62
1
 40
0.000000
 41
0.000000
 66
  1
  0
VERTEX
  8
gg1
 10
2.425000
 20
1.770000
  0
VERTEX
  8
gg1
 10
2.445000
 20
1.770000
  0
SEQEND
  8
gg1
  0
POLYLINE
  8
gg1
 62
1
 40
0.000000
 41
0.000000
 66
  1
  0
VERTEX
  8
gg1
 10
2.435000
 20
1.760000
  0
VERTEX
  8
gg1
 10
2.435000
 20
1.780000
  0
SEQEND
  8
gg1
  0
POLYLINE
  8
gg1
 62
1
 40
0.000000
 41
0.000000
 66
  1
  0
VERTEX
  8
gg1
 10
2.460000
 20
2.035000
  0
VERTEX
  8
gg1
 10
2.480000
 20
2.035000
  0
SEQEND
  8
gg1
  0
POLYLINE
  8
gg1
 62
1
 40
0.000000
 41
0.000000
 66
  1
  0
VERTEX
  8
gg1
 10
2.470000
 20
2.025000
  0
VERTEX
  8
gg1
 10
2.470000
 20
2.045000
  0
SEQEND
  8
gg1
  0
POLYLINE
  8
gg1
 62
1
 40
0.000000
 41
0.000000
 66
  1
  0
VERTEX
  8
gg1
 10
2.460000
 20
1.935000
  0
VERTEX
  8
gg1
 10
2.480000
 20
1.935000
  0
SEQEND
  8
gg1
  0
POLYLINE
  8
gg1
 62
1
 40
0.000000
 41
0.000000
 66
  1
  0
VERTEX
  8
gg1
 10
2.470000
 20
1.925000
  0
VERTEX
  8
gg1
 10
2.470000
 20
1.945000
  0
SEQEND
  8
gg1
  0
POLYLINE
  8
gg1
 62
1
 40
0.000000
 41
0.000000
 66
  1
  0
VERTEX
  8
gg1
 10
2.345000
 20
1.440000
  0
VERTEX
  8
gg1
 10
2.365000
 20
1.440000
  0
SEQEND
  8
gg1
  0
POLYLINE
  8
gg1
 62
1
 40
0.000000
 41
0.000000
 66
  1
  0
VERTEX
  8
gg1
 10
2.355000
 20
1.430000
  0
VERTEX
  8
gg1
 10
2.355000
 20
1.450000
  0
SEQEND
  8
gg1
  0
POLYLINE
  8
gg1
 62
1
 40
0.000000
 41
0.000000
 66
  1
  0
VERTEX
  8
gg1
 10
2.300000
 20
1.435000
  0
VERTEX
  8
gg1
 10
2.320000
 20
1.435000
  0
SEQEND
  8
gg1
  0
POLYLINE
  8
gg1
 62
1
 40
0.000000
 41
0.000000
 66
  1
  0
VERTEX
  8
gg1
 10
2.310000
 20
1.425000
  0
VERTEX
  8
gg1
 10
2.310000
 20
1.445000
  0
SEQEND
  8
gg1
  0
POLYLINE
  8
gg1
 62
1
 40
0.000000
 41
0.000000
 66
  1
  0
VERTEX
  8
gg1
 10
2.140000
 20
1.435000
  0
VERTEX
  8
gg1
 10
2.160000
 20
1.435000
  0
SEQEND
  8
gg1
  0
POLYLINE
  8
gg1
 62
1
 40
0.000000
 41
0.000000
 66
  1
  0
VERTEX
  8
gg1
 10
2.150000
 20
1.425000
  0
VERTEX
  8
gg1
 10
2.150000
 20
1.445000
  0
SEQEND
  8
gg1
  0
POLYLINE
  8
gg1
 62
1
 40
0.000000
 41
0.000000
 66
  1
  0
VERTEX
  8
gg1
 10
2.100000
 20
1.435000
  0
VERTEX
  8
gg1
 10
2.120000
 20
1.435000
  0
SEQEND
  8
gg1
  0
POLYLINE
  8
gg1
 62
1
 40
0.000000
 41
0.000000
 66
  1
  0
VERTEX
  8
gg1
 10
2.110000
 20
1.425000
  0
VERTEX
  8
gg1
 10
2.110000
 20
1.445000
  0
SEQEND
  8
gg1
  0
POLYLINE
  8
gg1
 62
1
 40
0.000000
 41
0.000000
 66
  1
  0
VERTEX
  8
gg1
 10
2.235000
 20
2.203000
  0
VERTEX
  8
gg1
 10
2.255000
 20
2.203000
  0
SEQEND
  8
gg1
  0
POLYLINE
  8
gg1
 62
1
 40
0.000000
 41
0.000000
 66
  1
  0
VERTEX
  8
gg1
 10
2.245000
 20
2.193000
  0
VERTEX
  8
gg1
 10
2.245000
 20
2.213000
  0
SEQEND
  8
gg1
  0
POLYLINE
  8
gg1
 62
1
 40
0.000000
 41
0.000000
 66
  1
  0
VERTEX
  8
gg1
 10
2.325000
 20
2.490000
  0
VERTEX
  8
gg1
 10
2.345000
 20
2.490000
  0
SEQEND
  8
gg1
  0
POLYLINE
  8
gg1
 62
1
 40
0.000000
 41
0.000000
 66
  1
  0
VERTEX
  8
gg1
 10
2.335000
 20
2.480000
  0
VERTEX
  8
gg1
 10
2.335000
 20
2.500000
  0
SEQEND
  8
gg1
  0
POLYLINE
  8
gg1
 62
1
 40
0.000000
 41
0.000000
 66
  1
  0
VERTEX
  8
gg1
 10
2.190000
 20
2.385000
  0
VERTEX
  8
gg1
 10
2.210000
 20
2.385000
  0
SEQEND
  8
gg1
  0
POLYLINE
  8
gg1
 62
1
 40
0.000000
 41
0.000000
 66
  1
  0
VERTEX
  8
gg1
 10
2.200000
 20
2.375000
  0
VERTEX
  8
gg1
 10
2.200000
 20
2.395000
  0
SEQEND
  8
gg1
  0
POLYLINE
  8
gg1
 62
1
 40
0.000000
 41
0.000000
 66
  1
  0
VERTEX
  8
gg1
 10
0.765000
 20
2.000000
  0
VERTEX
  8
gg1
 10
0.785000
 20
2.000000
  0
SEQEND
  8
gg1
  0
POLYLINE
  8
gg1
 62
1
 40
0.000000
 41
0.000000
 66
  1
  0
VERTEX
  8
gg1
 10
0.775000
 20
1.990000
  0
VERTEX
  8
gg1
 10
0.775000
 20
2.010000
  0
SEQEND
  8
gg1
  0
POLYLINE
  8
gg1
 62
1
 40
0.000000
 41
0.000000
 66
  1
  0
VERTEX
  8
gg1
 10
2.930000
 20
1.275000
  0
VERTEX
  8
gg1
 10
2.950000
 20
1.275000
  0
SEQEND
  8
gg1
  0
POLYLINE
  8
gg1
 62
1
 40
0.000000
 41
0.000000
 66
  1
  0
VERTEX
  8
gg1
 10
2.940000
 20
1.265000
  0
VERTEX
  8
gg1
 10
2.940000
 20
1.285000
  0
SEQEND
  8
gg1
  0
POLYLINE
  8
gg1
 62
1
 40
0.000000
 41
0.000000
 66
  1
  0
VERTEX
  8
gg1
 10
2.415000
 20
1.520000
  0
VERTEX
  8
gg1
 10
2.435000
 20
1.520000
  0
SEQEND
  8
gg1
  0
POLYLINE
  8
gg1
 62
1
 40
0.000000
 41
0.000000
 66
  1
  0
VERTEX
  8
gg1
 10
2.425000
 20
1.510000
  0
VERTEX
  8
gg1
 10
2.425000
 20
1.530000
  0
SEQEND
  8
gg1
  0
POLYLINE
  8
gg1
 62
1
 40
0.000000
 41
0.000000
 66
  1
  0
VERTEX
  8
gg1
 10
2.040000
 20
1.530000
  0
VERTEX
  8
gg1
 10
2.060000
 20
1.530000
  0
SEQEND
  8
gg1
  0
POLYLINE
  8
gg1
 62
1
 40
0.000000
 41
0.000000
 66
  1
  0
VERTEX
  8
gg1
 10
2.050000
 20
1.520000
  0
VERTEX
  8
gg1
 10
2.050000
 20
1.540000
  0
SEQEND
  8
gg1
  0
POLYLINE
  8
gg1
 62
1
 40
0.000000
 41
0.000000
 66
  1
  0
VERTEX
  8
gg1
 10
1.340000
 20
1.345000
  0
VERTEX
  8
gg1
 10
1.360000
 20
1.345000
  0
SEQEND
  8
gg1
  0
POLYLINE
  8
gg1
 62
1
 40
0.000000
 41
0.000000
 66
  1
  0
VERTEX
  8
gg1
 10
1.350000
 20
1.335000
  0
VERTEX
  8
gg1
 10
1.350000
 20
1.355000
  0
SEQEND
  8
gg1
  0
POLYLINE
  8
gg1
 62
1
 40
0.000000
 41
0.000000
 66
  1
  0
VERTEX
  8
gg1
 10
1.627500
 20
1.295000
  0
VERTEX
  8
gg1
 10
1.642500
 20
1.295000
  0
SEQEND
  8
gg1
  0
POLYLINE
  8
gg1
 62
1
 40
0.000000
 41
0.000000
 66
  1
  0
VERTEX
  8
gg1
 10
1.635000
 20
1.287500
  0
VERTEX
  8
gg1
 10
1.635000
 20
1.302500
  0
SEQEND
  8
gg1
  0
POLYLINE
  8
gg1
 62
1
 40
0.000000
 41
0.000000
 66
  1
  0
VERTEX
  8
gg1
 10
2.297500
 20
1.120000
  0
VERTEX
  8
gg1
 10
2.312500
 20
1.120000
  0
SEQEND
  8
gg1
  0
POLYLINE
  8
gg1
 62
1
 40
0.000000
 41
0.000000
 66
  1
  0
VERTEX
  8
gg1
 10
2.305000
 20
1.112500
  0
VERTEX
  8
gg1
 10
2.305000
 20
1.127500
  0
SEQEND
  8
gg1
  0
POLYLINE
  8
gg1
 62
1
 40
0.000000
 41
0.000000
 66
  1
  0
VERTEX
  8
gg1
 10
2.332500
 20
1.135000
  0
VERTEX
  8
gg1
 10
2.347500
 20
1.135000
  0
SEQEND
  8
gg1
  0
POLYLINE
  8
gg1
 62
1
 40
0.000000
 41
0.000000
 66
  1
  0
VERTEX
  8
gg1
 10
2.340000
 20
1.127500
  0
VERTEX
  8
gg1
 10
2.340000
 20
1.142500
  0
SEQEND
  8
gg1
  0
POLYLINE
  8
gg1
 62
1
 40
0.000000
 41
0.000000
 66
  1
  0
VERTEX
  8
gg1
 10
2.297500
 20
1.165000
  0
VERTEX
  8
gg1
 10
2.312500
 20
1.165000
  0
SEQEND
  8
gg1
  0
POLYLINE
  8
gg1
 62
1
 40
0.000000
 41
0.000000
 66
  1
  0
VERTEX
  8
gg1
 10
2.305000
 20
1.157500
  0
VERTEX
  8
gg1
 10
2.305000
 20
1.172500
  0
SEQEND
  8
gg1
  0
POLYLINE
  8
gg1
 62
1
 40
0.000000
 41
0.000000
 66
  1
  0
VERTEX
  8
gg1
 10
2.470500
 20
1.124000
  0
VERTEX
  8
gg1
 10
2.485500
 20
1.124000
  0
SEQEND
  8
gg1
  0
POLYLINE
  8
gg1
 62
1
 40
0.000000
 41
0.000000
 66
  1
  0
VERTEX
  8
gg1
 10
2.478000
 20
1.116500
  0
VERTEX
  8
gg1
 10
2.478000
 20
1.131500
  0
SEQEND
  8
gg1
  0
POLYLINE
  8
gg1
 62
1
 40
0.000000
 41
0.000000
 66
  1
  0
VERTEX
  8
gg1
 10
2.296500
 20
1.322000
  0
VERTEX
  8
gg1
 10
2.311500
 20
1.322000
  0
SEQEND
  8
gg1
  0
POLYLINE
  8
gg1
 62
1
 40
0.000000
 41
0.000000
 66
  1
  0
VERTEX
  8
gg1
 10
2.304000
 20
1.314500
  0
VERTEX
  8
gg1
 10
2.304000
 20
1.329500
  0
SEQEND
  8
gg1
  0
POLYLINE
  8
gg1
 62
1
 40
0.000000
 41
0.000000
 66
  1
  0
VERTEX
  8
gg1
 10
2.336500
 20
1.275000
  0
VERTEX
  8
gg1
 10
2.351500
 20
1.275000
  0
SEQEND
  8
gg1
  0
POLYLINE
  8
gg1
 62
1
 40
0.000000
 41
0.000000
 66
  1
  0
VERTEX
  8
gg1
 10
2.344000
 20
1.267500
  0
VERTEX
  8
gg1
 10
2.344000
 20
1.282500
  0
SEQEND
  8
gg1
  0
POLYLINE
  8
gg1
 62
1
 40
0.000000
 41
0.000000
 66
  1
  0
VERTEX
  8
gg1
 10
1.282500
 20
1.105000
  0
VERTEX
  8
gg1
 10
1.297500
 20
1.105000
  0
SEQEND
  8
gg1
  0
POLYLINE
  8
gg1
 62
1
 40
0.000000
 41
0.000000
 66
  1
  0
VERTEX
  8
gg1
 10
1.290000
 20
1.097500
  0
VERTEX
  8
gg1
 10
1.290000
 20
1.112500
  0
SEQEND
  8
gg1
  0
POLYLINE
  8
gg1
 62
1
 40
0.000000
 41
0.000000
 66
  1
  0
VERTEX
  8
gg1
 10
1.232500
 20
1.145000
  0
VERTEX
  8
gg1
 10
1.247500
 20
1.145000
  0
SEQEND
  8
gg1
  0
POLYLINE
  8
gg1
 62
1
 40
0.000000
 41
0.000000
 66
  1
  0
VERTEX
  8
gg1
 10
1.240000
 20
1.137500
  0
VERTEX
  8
gg1
 10
1.240000
 20
1.152500
  0
SEQEND
  8
gg1
  0
POLYLINE
  8
gg1
 62
1
 40
0.000000
 41
0.000000
 66
  1
  0
VERTEX
  8
gg1
 10
1.182500
 20
1.145000
  0
VERTEX
  8
gg1
 10
1.197500
 20
1.145000
  0
SEQEND
  8
gg1
  0
POLYLINE
  8
gg1
 62
1
 40
0.000000
 41
0.000000
 66
  1
  0
VERTEX
  8
gg1
 10
1.190000
 20
1.137500
  0
VERTEX
  8
gg1
 10
1.190000
 20
1.152500
  0
SEQEND
  8
gg1
  0
POLYLINE
  8
gg1
 62
1
 40
0.000000
 41
0.000000
 66
  1
  0
VERTEX
  8
gg1
 10
2.296500
 20
1.276000
  0
VERTEX
  8
gg1
 10
2.311500
 20
1.276000
  0
SEQEND
  8
gg1
  0
POLYLINE
  8
gg1
 62
1
 40
0.000000
 41
0.000000
 66
  1
  0
VERTEX
  8
gg1
 10
2.304000
 20
1.268500
  0
VERTEX
  8
gg1
 10
2.304000
 20
1.283500
  0
SEQEND
  8
gg1
  0
POLYLINE
  8
gg1
 62
1
 40
0.000000
 41
0.000000
 66
  1
  0
VERTEX
  8
gg1
 10
1.397500
 20
1.235000
  0
VERTEX
  8
gg1
 10
1.412500
 20
1.235000
  0
SEQEND
  8
gg1
  0
POLYLINE
  8
gg1
 62
1
 40
0.000000
 41
0.000000
 66
  1
  0
VERTEX
  8
gg1
 10
1.405000
 20
1.227500
  0
VERTEX
  8
gg1
 10
1.405000
 20
1.242500
  0
SEQEND
  8
gg1
  0
POLYLINE
  8
gg1
 62
1
 40
0.000000
 41
0.000000
 66
  1
  0
VERTEX
  8
gg1
 10
1.427500
 20
1.020000
  0
VERTEX
  8
gg1
 10
1.442500
 20
1.020000
  0
SEQEND
  8
gg1
  0
POLYLINE
  8
gg1
 62
1
 40
0.000000
 41
0.000000
 66
  1
  0
VERTEX
  8
gg1
 10
1.435000
 20
1.012500
  0
VERTEX
  8
gg1
 10
1.435000
 20
1.027500
  0
SEQEND
  8
gg1
  0
POLYLINE
  8
gg1
 62
1
 40
0.000000
 41
0.000000
 66
  1
  0
VERTEX
  8
gg1
 10
1.427500
 20
1.060000
  0
VERTEX
  8
gg1
 10
1.442500
 20
1.060000
  0
SEQEND
  8
gg1
  0
POLYLINE
  8
gg1
 62
1
 40
0.000000
 41
0.000000
 66
  1
  0
VERTEX
  8
gg1
 10
1.435000
 20
1.052500
  0
VERTEX
  8
gg1
 10
1.435000
 20
1.067500
  0
SEQEND
  8
gg1
  0
POLYLINE
  8
gg1
 62
1
 40
0.000000
 41
0.000000
 66
  1
  0
VERTEX
  8
gg1
 10
1.517500
 20
0.905000
  0
VERTEX
  8
gg1
 10
1.532500
 20
0.905000
  0
SEQEND
  8
gg1
  0
POLYLINE
  8
gg1
 62
1
 40
0.000000
 41
0.000000
 66
  1
  0
VERTEX
  8
gg1
 10
1.525000
 20
0.897500
  0
VERTEX
  8
gg1
 10
1.525000
 20
0.912500
  0
SEQEND
  8
gg1
  0
POLYLINE
  8
gg1
 62
1
 40
0.000000
 41
0.000000
 66
  1
  0
VERTEX
  8
gg1
 10
1.517500
 20
0.950000
  0
VERTEX
  8
gg1
 10
1.532500
 20
0.950000
  0
SEQEND
  8
gg1
  0
POLYLINE
  8
gg1
 62
1
 40
0.000000
 41
0.000000
 66
  1
  0
VERTEX
  8
gg1
 10
1.525000
 20
0.942500
  0
VERTEX
  8
gg1
 10
1.525000
 20
0.957500
  0
SEQEND
  8
gg1
  0
POLYLINE
  8
gg1
 62
1
 40
0.000000
 41
0.000000
 66
  1
  0
VERTEX
  8
gg1
 10
1.512500
 20
0.990000
  0
VERTEX
  8
gg1
 10
1.527500
 20
0.990000
  0
SEQEND
  8
gg1
  0
POLYLINE
  8
gg1
 62
1
 40
0.000000
 41
0.000000
 66
  1
  0
VERTEX
  8
gg1
 10
1.520000
 20
0.982500
  0
VERTEX
  8
gg1
 10
1.520000
 20
0.997500
  0
SEQEND
  8
gg1
  0
POLYLINE
  8
gg1
 62
1
 40
0.000000
 41
0.000000
 66
  1
  0
VERTEX
  8
gg1
 10
1.512500
 20
1.035000
  0
VERTEX
  8
gg1
 10
1.527500
 20
1.035000
  0
SEQEND
  8
gg1
  0
POLYLINE
  8
gg1
 62
1
 40
0.000000
 41
0.000000
 66
  1
  0
VERTEX
  8
gg1
 10
1.520000
 20
1.027500
  0
VERTEX
  8
gg1
 10
1.520000
 20
1.042500
  0
SEQEND
  8
gg1
  0
POLYLINE
  8
gg1
 62
1
 40
0.000000
 41
0.000000
 66
  1
  0
VERTEX
  8
gg1
 10
1.512500
 20
1.090000
  0
VERTEX
  8
gg1
 10
1.527500
 20
1.090000
  0
SEQEND
  8
gg1
  0
POLYLINE
  8
gg1
 62
1
 40
0.000000
 41
0.000000
 66
  1
  0
VERTEX
  8
gg1
 10
1.520000
 20
1.082500
  0
VERTEX
  8
gg1
 10
1.520000
 20
1.097500
  0
SEQEND
  8
gg1
  0
POLYLINE
  8
gg1
 62
1
 40
0.000000
 41
0.000000
 66
  1
  0
VERTEX
  8
gg1
 10
1.427500
 20
1.100000
  0
VERTEX
  8
gg1
 10
1.442500
 20
1.100000
  0
SEQEND
  8
gg1
  0
POLYLINE
  8
gg1
 62
1
 40
0.000000
 41
0.000000
 66
  1
  0
VERTEX
  8
gg1
 10
1.435000
 20
1.092500
  0
VERTEX
  8
gg1
 10
1.435000
 20
1.107500
  0
SEQEND
  8
gg1
  0
POLYLINE
  8
gg1
 62
1
 40
0.000000
 41
0.000000
 66
  1
  0
VERTEX
  8
gg1
 10
1.472500
 20
1.100000
  0
VERTEX
  8
gg1
 10
1.487500
 20
1.100000
  0
SEQEND
  8
gg1
  0
POLYLINE
  8
gg1
 62
1
 40
0.000000
 41
0.000000
 66
  1
  0
VERTEX
  8
gg1
 10
1.480000
 20
1.092500
  0
VERTEX
  8
gg1
 10
1.480000
 20
1.107500
  0
SEQEND
  8
gg1
  0
POLYLINE
  8
gg1
 62
1
 40
0.000000
 41
0.000000
 66
  1
  0
VERTEX
  8
gg1
 10
1.482500
 20
1.165000
  0
VERTEX
  8
gg1
 10
1.497500
 20
1.165000
  0
SEQEND
  8
gg1
  0
POLYLINE
  8
gg1
 62
1
 40
0.000000
 41
0.000000
 66
  1
  0
VERTEX
  8
gg1
 10
1.490000
 20
1.157500
  0
VERTEX
  8
gg1
 10
1.490000
 20
1.172500
  0
SEQEND
  8
gg1
  0
POLYLINE
  8
gg1
 62
1
 40
0.000000
 41
0.000000
 66
  1
  0
VERTEX
  8
gg1
 10
1.457500
 20
1.135000
  0
VERTEX
  8
gg1
 10
1.472500
 20
1.135000
  0
SEQEND
  8
gg1
  0
POLYLINE
  8
gg1
 62
1
 40
0.000000
 41
0.000000
 66
  1
  0
VERTEX
  8
gg1
 10
1.465000
 20
1.127500
  0
VERTEX
  8
gg1
 10
1.465000
 20
1.142500
  0
SEQEND
  8
gg1
  0
POLYLINE
  8
gg1
 62
1
 40
0.000000
 41
0.000000
 66
  1
  0
VERTEX
  8
gg1
 10
1.427500
 20
1.160000
  0
VERTEX
  8
gg1
 10
1.442500
 20
1.160000
  0
SEQEND
  8
gg1
  0
POLYLINE
  8
gg1
 62
1
 40
0.000000
 41
0.000000
 66
  1
  0
VERTEX
  8
gg1
 10
1.435000
 20
1.152500
  0
VERTEX
  8
gg1
 10
1.435000
 20
1.167500
  0
SEQEND
  8
gg1
  0
POLYLINE
  8
gg1
 62
1
 40
0.000000
 41
0.000000
 66
  1
  0
VERTEX
  8
gg1
 10
1.442500
 20
1.195000
  0
VERTEX
  8
gg1
 10
1.457500
 20
1.195000
  0
SEQEND
  8
gg1
  0
POLYLINE
  8
gg1
 62
1
 40
0.000000
 41
0.000000
 66
  1
  0
VERTEX
  8
gg1
 10
1.450000
 20
1.187500
  0
VERTEX
  8
gg1
 10
1.450000
 20
1.202500
  0
SEQEND
  8
gg1
  0
POLYLINE
  8
gg1
 62
1
 40
0.000000
 41
0.000000
 66
  1
  0
VERTEX
  8
gg1
 10
1.437500
 20
1.235000
  0
VERTEX
  8
gg1
 10
1.452500
 20
1.235000
  0
SEQEND
  8
gg1
  0
POLYLINE
  8
gg1
 62
1
 40
0.000000
 41
0.000000
 66
  1
  0
VERTEX
  8
gg1
 10
1.445000
 20
1.227500
  0
VERTEX
  8
gg1
 10
1.445000
 20
1.242500
  0
SEQEND
  8
gg1
  0
POLYLINE
  8
gg1
 62
1
 40
0.000000
 41
0.000000
 66
  1
  0
VERTEX
  8
gg1
 10
1.272500
 20
1.065000
  0
VERTEX
  8
gg1
 10
1.287500
 20
1.065000
  0
SEQEND
  8
gg1
  0
POLYLINE
  8
gg1
 62
1
 40
0.000000
 41
0.000000
 66
  1
  0
VERTEX
  8
gg1
 10
1.280000
 20
1.057500
  0
VERTEX
  8
gg1
 10
1.280000
 20
1.072500
  0
SEQEND
  8
gg1
  0
POLYLINE
  8
gg1
 62
1
 40
0.000000
 41
0.000000
 66
  1
  0
VERTEX
  8
gg1
 10
1.287500
 20
1.145000
  0
VERTEX
  8
gg1
 10
1.302500
 20
1.145000
  0
SEQEND
  8
gg1
  0
POLYLINE
  8
gg1
 62
1
 40
0.000000
 41
0.000000
 66
  1
  0
VERTEX
  8
gg1
 10
1.295000
 20
1.137500
  0
VERTEX
  8
gg1
 10
1.295000
 20
1.152500
  0
SEQEND
  8
gg1
  0
POLYLINE
  8
gg1
 62
1
 40
0.000000
 41
0.000000
 66
  1
  0
VERTEX
  8
gg1
 10
1.232500
 20
1.105000
  0
VERTEX
  8
gg1
 10
1.247500
 20
1.105000
  0
SEQEND
  8
gg1
  0
POLYLINE
  8
gg1
 62
1
 40
0.000000
 41
0.000000
 66
  1
  0
VERTEX
  8
gg1
 10
1.240000
 20
1.097500
  0
VERTEX
  8
gg1
 10
1.240000
 20
1.112500
  0
SEQEND
  8
gg1
  0
POLYLINE
  8
gg1
 62
1
 40
0.000000
 41
0.000000
 66
  1
  0
VERTEX
  8
gg1
 10
1.182500
 20
1.100000
  0
VERTEX
  8
gg1
 10
1.197500
 20
1.100000
  0
SEQEND
  8
gg1
  0
POLYLINE
  8
gg1
 62
1
 40
0.000000
 41
0.000000
 66
  1
  0
VERTEX
  8
gg1
 10
1.190000
 20
1.092500
  0
VERTEX
  8
gg1
 10
1.190000
 20
1.107500
  0
SEQEND
  8
gg1
  0
POLYLINE
  8
gg1
 62
1
 40
0.000000
 41
0.000000
 66
  1
  0
VERTEX
  8
gg1
 10
1.232500
 20
1.065000
  0
VERTEX
  8
gg1
 10
1.247500
 20
1.065000
  0
SEQEND
  8
gg1
  0
POLYLINE
  8
gg1
 62
1
 40
0.000000
 41
0.000000
 66
  1
  0
VERTEX
  8
gg1
 10
1.240000
 20
1.057500
  0
VERTEX
  8
gg1
 10
1.240000
 20
1.072500
  0
SEQEND
  8
gg1
  0
POLYLINE
  8
gg1
 62
1
 40
0.000000
 41
0.000000
 66
  1
  0
VERTEX
  8
gg1
 10
1.182500
 20
1.060000
  0
VERTEX
  8
gg1
 10
1.197500
 20
1.060000
  0
SEQEND
  8
gg1
  0
POLYLINE
  8
gg1
 62
1
 40
0.000000
 41
0.000000
 66
  1
  0
VERTEX
  8
gg1
 10
1.190000
 20
1.052500
  0
VERTEX
  8
gg1
 10
1.190000
 20
1.067500
  0
SEQEND
  8
gg1
  0
POLYLINE
  8
gg1
 62
1
 40
0.000000
 41
0.000000
 66
  1
  0
VERTEX
  8
gg1
 10
1.172500
 20
1.290000
  0
VERTEX
  8
gg1
 10
1.187500
 20
1.290000
  0
SEQEND
  8
gg1
  0
POLYLINE
  8
gg1
 62
1
 40
0.000000
 41
0.000000
 66
  1
  0
VERTEX
  8
gg1
 10
1.180000
 20
1.282500
  0
VERTEX
  8
gg1
 10
1.180000
 20
1.297500
  0
SEQEND
  8
gg1
  0
POLYLINE
  8
gg1
 62
1
 40
0.000000
 41
0.000000
 66
  1
  0
VERTEX
  8
gg1
 10
1.207500
 20
1.290000
  0
VERTEX
  8
gg1
 10
1.222500
 20
1.290000
  0
SEQEND
  8
gg1
  0
POLYLINE
  8
gg1
 62
1
 40
0.000000
 41
0.000000
 66
  1
  0
VERTEX
  8
gg1
 10
1.215000
 20
1.282500
  0
VERTEX
  8
gg1
 10
1.215000
 20
1.297500
  0
SEQEND
  8
gg1
  0
POLYLINE
  8
gg1
 62
1
 40
0.000000
 41
0.000000
 66
  1
  0
VERTEX
  8
gg1
 10
2.385000
 20
0.770000
  0
VERTEX
  8
gg1
 10
2.405000
 20
0.770000
  0
SEQEND
  8
gg1
  0
POLYLINE
  8
gg1
 62
1
 40
0.000000
 41
0.000000
 66
  1
  0
VERTEX
  8
gg1
 10
2.395000
 20
0.760000
  0
VERTEX
  8
gg1
 10
2.395000
 20
0.780000
  0
SEQEND
  8
gg1
  0
POLYLINE
  8
gg1
 62
1
 40
0.000000
 41
0.000000
 66
  1
  0
VERTEX
  8
gg1
 10
2.385000
 20
0.845000
  0
VERTEX
  8
gg1
 10
2.405000
 20
0.845000
  0
SEQEND
  8
gg1
  0
POLYLINE
  8
gg1
 62
1
 40
0.000000
 41
0.000000
 66
  1
  0
VERTEX
  8
gg1
 10
2.395000
 20
0.835000
  0
VERTEX
  8
gg1
 10
2.395000
 20
0.855000
  0
SEQEND
  8
gg1
  0
POLYLINE
  8
gg1
 62
1
 40
0.000000
 41
0.000000
 66
  1
  0
VERTEX
  8
gg1
 10
2.850000
 20
1.025000
  0
VERTEX
  8
gg1
 10
2.870000
 20
1.025000
  0
SEQEND
  8
gg1
  0
POLYLINE
  8
gg1
 62
1
 40
0.000000
 41
0.000000
 66
  1
  0
VERTEX
  8
gg1
 10
2.860000
 20
1.015000
  0
VERTEX
  8
gg1
 10
2.860000
 20
1.035000
  0
SEQEND
  8
gg1
  0
POLYLINE
  8
gg1
 62
1
 40
0.000000
 41
0.000000
 66
  1
  0
VERTEX
  8
gg1
 10
3.050000
 20
1.320000
  0
VERTEX
  8
gg1
 10
3.070000
 20
1.320000
  0
SEQEND
  8
gg1
  0
POLYLINE
  8
gg1
 62
1
 40
0.000000
 41
0.000000
 66
  1
  0
VERTEX
  8
gg1
 10
3.060000
 20
1.310000
  0
VERTEX
  8
gg1
 10
3.060000
 20
1.330000
  0
SEQEND
  8
gg1
  0
POLYLINE
  8
gg1
 62
1
 40
0.000000
 41
0.000000
 66
  1
  0
VERTEX
  8
gg1
 10
2.443000
 20
2.570500
  0
VERTEX
  8
gg1
 10
2.458000
 20
2.570500
  0
SEQEND
  8
gg1
  0
POLYLINE
  8
gg1
 62
1
 40
0.000000
 41
0.000000
 66
  1
  0
VERTEX
  8
gg1
 10
2.450500
 20
2.563000
  0
VERTEX
  8
gg1
 10
2.450500
 20
2.578000
  0
SEQEND
  8
gg1
  0
POLYLINE
  8
gg1
 62
1
 40
0.000000
 41
0.000000
 66
  1
  0
VERTEX
  8
gg1
 10
2.855000
 20
2.582500
  0
VERTEX
  8
gg1
 10
2.875000
 20
2.582500
  0
SEQEND
  8
gg1
  0
POLYLINE
  8
gg1
 62
1
 40
0.000000
 41
0.000000
 66
  1
  0
VERTEX
  8
gg1
 10
2.865000
 20
2.572500
  0
VERTEX
  8
gg1
 10
2.865000
 20
2.592500
  0
SEQEND
  8
gg1
  0
POLYLINE
  8
gg1
 62
1
 40
0.000000
 41
0.000000
 66
  1
  0
VERTEX
  8
gg1
 10
2.607500
 20
2.820000
  0
VERTEX
  8
gg1
 10
2.622500
 20
2.820000
  0
SEQEND
  8
gg1
  0
POLYLINE
  8
gg1
 62
1
 40
0.000000
 41
0.000000
 66
  1
  0
VERTEX
  8
gg1
 10
2.615000
 20
2.812500
  0
VERTEX
  8
gg1
 10
2.615000
 20
2.827500
  0
SEQEND
  8
gg1
  0
POLYLINE
  8
gg1
 62
1
 40
0.000000
 41
0.000000
 66
  1
  0
VERTEX
  8
gg1
 10
2.950000
 20
1.125000
  0
VERTEX
  8
gg1
 10
2.970000
 20
1.125000
  0
SEQEND
  8
gg1
  0
POLYLINE
  8
gg1
 62
1
 40
0.000000
 41
0.000000
 66
  1
  0
VERTEX
  8
gg1
 10
2.960000
 20
1.115000
  0
VERTEX
  8
gg1
 10
2.960000
 20
1.135000
  0
SEQEND
  8
gg1
  0
POLYLINE
  8
gg1
 62
1
 40
0.000000
 41
0.000000
 66
  1
  0
VERTEX
  8
gg1
 10
1.235000
 20
1.575000
  0
VERTEX
  8
gg1
 10
1.255000
 20
1.575000
  0
SEQEND
  8
gg1
  0
POLYLINE
  8
gg1
 62
1
 40
0.000000
 41
0.000000
 66
  1
  0
VERTEX
  8
gg1
 10
1.245000
 20
1.565000
  0
VERTEX
  8
gg1
 10
1.245000
 20
1.585000
  0
SEQEND
  8
gg1
  0
POLYLINE
  8
gg1
 62
1
 40
0.000000
 41
0.000000
 66
  1
  0
VERTEX
  8
gg1
 10
1.300000
 20
1.345000
  0
VERTEX
  8
gg1
 10
1.320000
 20
1.345000
  0
SEQEND
  8
gg1
  0
POLYLINE
  8
gg1
 62
1
 40
0.000000
 41
0.000000
 66
  1
  0
VERTEX
  8
gg1
 10
1.310000
 20
1.335000
  0
VERTEX
  8
gg1
 10
1.310000
 20
1.355000
  0
SEQEND
  8
gg1
  0
POLYLINE
  8
gg1
 62
1
 40
0.000000
 41
0.000000
 66
  1
  0
VERTEX
  8
gg1
 10
2.727500
 20
2.815000
  0
VERTEX
  8
gg1
 10
2.742500
 20
2.815000
  0
SEQEND
  8
gg1
  0
POLYLINE
  8
gg1
 62
1
 40
0.000000
 41
0.000000
 66
  1
  0
VERTEX
  8
gg1
 10
2.735000
 20
2.807500
  0
VERTEX
  8
gg1
 10
2.735000
 20
2.822500
  0
SEQEND
  8
gg1
  0
POLYLINE
  8
gg1
 62
1
 40
0.000000
 41
0.000000
 66
  1
  0
VERTEX
  8
gg1
 10
2.692500
 20
2.845000
  0
VERTEX
  8
gg1
 10
2.707500
 20
2.845000
  0
SEQEND
  8
gg1
  0
POLYLINE
  8
gg1
 62
1
 40
0.000000
 41
0.000000
 66
  1
  0
VERTEX
  8
gg1
 10
2.700000
 20
2.837500
  0
VERTEX
  8
gg1
 10
2.700000
 20
2.852500
  0
SEQEND
  8
gg1
  0
POLYLINE
  8
gg1
 62
1
 40
0.000000
 41
0.000000
 66
  1
  0
VERTEX
  8
gg1
 10
2.582500
 20
2.365000
  0
VERTEX
  8
gg1
 10
2.597500
 20
2.365000
  0
SEQEND
  8
gg1
  0
POLYLINE
  8
gg1
 62
1
 40
0.000000
 41
0.000000
 66
  1
  0
VERTEX
  8
gg1
 10
2.590000
 20
2.357500
  0
VERTEX
  8
gg1
 10
2.590000
 20
2.372500
  0
SEQEND
  8
gg1
  0
POLYLINE
  8
gg1
 62
1
 40
0.000000
 41
0.000000
 66
  1
  0
VERTEX
  8
gg1
 10
2.622500
 20
2.915000
  0
VERTEX
  8
gg1
 10
2.637500
 20
2.915000
  0
SEQEND
  8
gg1
  0
POLYLINE
  8
gg1
 62
1
 40
0.000000
 41
0.000000
 66
  1
  0
VERTEX
  8
gg1
 10
2.630000
 20
2.907500
  0
VERTEX
  8
gg1
 10
2.630000
 20
2.922500
  0
SEQEND
  8
gg1
  0
POLYLINE
  8
gg1
 62
1
 40
0.000000
 41
0.000000
 66
  1
  0
VERTEX
  8
gg1
 10
2.447500
 20
2.400000
  0
VERTEX
  8
gg1
 10
2.462500
 20
2.400000
  0
SEQEND
  8
gg1
  0
POLYLINE
  8
gg1
 62
1
 40
0.000000
 41
0.000000
 66
  1
  0
VERTEX
  8
gg1
 10
2.455000
 20
2.392500
  0
VERTEX
  8
gg1
 10
2.455000
 20
2.407500
  0
SEQEND
  8
gg1
  0
POLYLINE
  8
gg1
 62
1
 40
0.000000
 41
0.000000
 66
  1
  0
VERTEX
  8
gg1
 10
2.782500
 20
1.585000
  0
VERTEX
  8
gg1
 10
2.797500
 20
1.585000
  0
SEQEND
  8
gg1
  0
POLYLINE
  8
gg1
 62
1
 40
0.000000
 41
0.000000
 66
  1
  0
VERTEX
  8
gg1
 10
2.790000
 20
1.577500
  0
VERTEX
  8
gg1
 10
2.790000
 20
1.592500
  0
SEQEND
  8
gg1
  0
POLYLINE
  8
gg1
 62
1
 40
0.000000
 41
0.000000
 66
  1
  0
VERTEX
  8
gg1
 10
2.407500
 20
1.470000
  0
VERTEX
  8
gg1
 10
2.422500
 20
1.470000
  0
SEQEND
  8
gg1
  0
POLYLINE
  8
gg1
 62
1
 40
0.000000
 41
0.000000
 66
  1
  0
VERTEX
  8
gg1
 10
2.415000
 20
1.462500
  0
VERTEX
  8
gg1
 10
2.415000
 20
1.477500
  0
SEQEND
  8
gg1
  0
POLYLINE
  8
gg1
 62
1
 40
0.000000
 41
0.000000
 66
  1
  0
VERTEX
  8
gg1
 10
2.722500
 20
1.525000
  0
VERTEX
  8
gg1
 10
2.737500
 20
1.525000
  0
SEQEND
  8
gg1
  0
POLYLINE
  8
gg1
 62
1
 40
0.000000
 41
0.000000
 66
  1
  0
VERTEX
  8
gg1
 10
2.730000
 20
1.517500
  0
VERTEX
  8
gg1
 10
2.730000
 20
1.532500
  0
SEQEND
  8
gg1
  0
POLYLINE
  8
gg1
 62
1
 40
0.000000
 41
0.000000
 66
  1
  0
VERTEX
  8
gg1
 10
2.232500
 20
1.785000
  0
VERTEX
  8
gg1
 10
2.247500
 20
1.785000
  0
SEQEND
  8
gg1
  0
POLYLINE
  8
gg1
 62
1
 40
0.000000
 41
0.000000
 66
  1
  0
VERTEX
  8
gg1
 10
2.240000
 20
1.777500
  0
VERTEX
  8
gg1
 10
2.240000
 20
1.792500
  0
SEQEND
  8
gg1
  0
POLYLINE
  8
gg1
 62
1
 40
0.000000
 41
0.000000
 66
  1
  0
VERTEX
  8
gg1
 10
2.272500
 20
1.810000
  0
VERTEX
  8
gg1
 10
2.287500
 20
1.810000
  0
SEQEND
  8
gg1
  0
POLYLINE
  8
gg1
 62
1
 40
0.000000
 41
0.000000
 66
  1
  0
VERTEX
  8
gg1
 10
2.280000
 20
1.802500
  0
VERTEX
  8
gg1
 10
2.280000
 20
1.817500
  0
SEQEND
  8
gg1
  0
POLYLINE
  8
gg1
 62
1
 40
0.000000
 41
0.000000
 66
  1
  0
VERTEX
  8
gg1
 10
3.090000
 20
1.655000
  0
VERTEX
  8
gg1
 10
3.110000
 20
1.655000
  0
SEQEND
  8
gg1
  0
POLYLINE
  8
gg1
 62
1
 40
0.000000
 41
0.000000
 66
  1
  0
VERTEX
  8
gg1
 10
3.100000
 20
1.645000
  0
VERTEX
  8
gg1
 10
3.100000
 20
1.665000
  0
SEQEND
  8
gg1
  0
POLYLINE
  8
gg1
 62
1
 40
0.000000
 41
0.000000
 66
  1
  0
VERTEX
  8
gg1
 10
3.005000
 20
1.620000
  0
VERTEX
  8
gg1
 10
3.025000
 20
1.620000
  0
SEQEND
  8
gg1
  0
POLYLINE
  8
gg1
 62
1
 40
0.000000
 41
0.000000
 66
  1
  0
VERTEX
  8
gg1
 10
3.015000
 20
1.610000
  0
VERTEX
  8
gg1
 10
3.015000
 20
1.630000
  0
SEQEND
  8
gg1
  0
POLYLINE
  8
gg1
 62
1
 40
0.000000
 41
0.000000
 66
  1
  0
VERTEX
  8
gg1
 10
2.747500
 20
3.140000
  0
VERTEX
  8
gg1
 10
2.762500
 20
3.140000
  0
SEQEND
  8
gg1
  0
POLYLINE
  8
gg1
 62
1
 40
0.000000
 41
0.000000
 66
  1
  0
VERTEX
  8
gg1
 10
2.755000
 20
3.132500
  0
VERTEX
  8
gg1
 10
2.755000
 20
3.147500
  0
SEQEND
  8
gg1
  0
POLYLINE
  8
gg1
 62
1
 40
0.000000
 41
0.000000
 66
  1
  0
VERTEX
  8
gg1
 10
2.725000
 20
2.362500
  0
VERTEX
  8
gg1
 10
2.740000
 20
2.362500
  0
SEQEND
  8
gg1
  0
POLYLINE
  8
gg1
 62
1
 40
0.000000
 41
0.000000
 66
  1
  0
VERTEX
  8
gg1
 10
2.732500
 20
2.355000
  0
VERTEX
  8
gg1
 10
2.732500
 20
2.370000
  0
SEQEND
  8
gg1
  0
POLYLINE
  8
gg1
 62
1
 40
0.000000
 41
0.000000
 66
  1
  0
VERTEX
  8
gg1
 10
2.142500
 20
1.550000
  0
VERTEX
  8
gg1
 10
2.157500
 20
1.550000
  0
SEQEND
  8
gg1
  0
POLYLINE
  8
gg1
 62
1
 40
0.000000
 41
0.000000
 66
  1
  0
VERTEX
  8
gg1
 10
2.150000
 20
1.542500
  0
VERTEX
  8
gg1
 10
2.150000
 20
1.557500
  0
SEQEND
  8
gg1
  0
POLYLINE
  8
gg1
 62
1
 40
0.000000
 41
0.000000
 66
  1
  0
VERTEX
  8
gg1
 10
2.387500
 20
1.555000
  0
VERTEX
  8
gg1
 10
2.402500
 20
1.555000
  0
SEQEND
  8
gg1
  0
POLYLINE
  8
gg1
 62
1
 40
0.000000
 41
0.000000
 66
  1
  0
VERTEX
  8
gg1
 10
2.395000
 20
1.547500
  0
VERTEX
  8
gg1
 10
2.395000
 20
1.562500
  0
SEQEND
  8
gg1
  0
POLYLINE
  8
gg1
 62
1
 40
0.000000
 41
0.000000
 66
  1
  0
VERTEX
  8
gg1
 10
1.377500
 20
2.345000
  0
VERTEX
  8
gg1
 10
1.392500
 20
2.345000
  0
SEQEND
  8
gg1
  0
POLYLINE
  8
gg1
 62
1
 40
0.000000
 41
0.000000
 66
  1
  0
VERTEX
  8
gg1
 10
1.385000
 20
2.337500
  0
VERTEX
  8
gg1
 10
1.385000
 20
2.352500
  0
SEQEND
  8
gg1
  0
POLYLINE
  8
gg1
 62
1
 40
0.000000
 41
0.000000
 66
  1
  0
VERTEX
  8
gg1
 10
1.377500
 20
2.395000
  0
VERTEX
  8
gg1
 10
1.392500
 20
2.395000
  0
SEQEND
  8
gg1
  0
POLYLINE
  8
gg1
 62
1
 40
0.000000
 41
0.000000
 66
  1
  0
VERTEX
  8
gg1
 10
1.385000
 20
2.387500
  0
VERTEX
  8
gg1
 10
1.385000
 20
2.402500
  0
SEQEND
  8
gg1
  0
POLYLINE
  8
gg1
 62
1
 40
0.000000
 41
0.000000
 66
  1
  0
VERTEX
  8
gg1
 10
1.337500
 20
2.405000
  0
VERTEX
  8
gg1
 10
1.352500
 20
2.405000
  0
SEQEND
  8
gg1
  0
POLYLINE
  8
gg1
 62
1
 40
0.000000
 41
0.000000
 66
  1
  0
VERTEX
  8
gg1
 10
1.345000
 20
2.397500
  0
VERTEX
  8
gg1
 10
1.345000
 20
2.412500
  0
SEQEND
  8
gg1
  0
POLYLINE
  8
gg1
 62
1
 40
0.000000
 41
0.000000
 66
  1
  0
VERTEX
  8
gg1
 10
1.422500
 20
2.405000
  0
VERTEX
  8
gg1
 10
1.437500
 20
2.405000
  0
SEQEND
  8
gg1
  0
POLYLINE
  8
gg1
 62
1
 40
0.000000
 41
0.000000
 66
  1
  0
VERTEX
  8
gg1
 10
1.430000
 20
2.397500
  0
VERTEX
  8
gg1
 10
1.430000
 20
2.412500
  0
SEQEND
  8
gg1
  0
POLYLINE
  8
gg1
 62
1
 40
0.000000
 41
0.000000
 66
  1
  0
VERTEX
  8
gg1
 10
1.317500
 20
2.535000
  0
VERTEX
  8
gg1
 10
1.332500
 20
2.535000
  0
SEQEND
  8
gg1
  0
POLYLINE
  8
gg1
 62
1
 40
0.000000
 41
0.000000
 66
  1
  0
VERTEX
  8
gg1
 10
1.325000
 20
2.527500
  0
VERTEX
  8
gg1
 10
1.325000
 20
2.542500
  0
SEQEND
  8
gg1
  0
POLYLINE
  8
gg1
 62
1
 40
0.000000
 41
0.000000
 66
  1
  0
VERTEX
  8
gg1
 10
1.447500
 20
2.535000
  0
VERTEX
  8
gg1
 10
1.462500
 20
2.535000
  0
SEQEND
  8
gg1
  0
POLYLINE
  8
gg1
 62
1
 40
0.000000
 41
0.000000
 66
  1
  0
VERTEX
  8
gg1
 10
1.455000
 20
2.527500
  0
VERTEX
  8
gg1
 10
1.455000
 20
2.542500
  0
SEQEND
  8
gg1
  0
POLYLINE
  8
gg1
 62
1
 40
0.000000
 41
0.000000
 66
  1
  0
VERTEX
  8
gg1
 10
1.502500
 20
2.585000
  0
VERTEX
  8
gg1
 10
1.517500
 20
2.585000
  0
SEQEND
  8
gg1
  0
POLYLINE
  8
gg1
 62
1
 40
0.000000
 41
0.000000
 66
  1
  0
VERTEX
  8
gg1
 10
1.510000
 20
2.577500
  0
VERTEX
  8
gg1
 10
1.510000
 20
2.592500
  0
SEQEND
  8
gg1
  0
POLYLINE
  8
gg1
 62
1
 40
0.000000
 41
0.000000
 66
  1
  0
VERTEX
  8
gg1
 10
1.497500
 20
2.535000
  0
VERTEX
  8
gg1
 10
1.512500
 20
2.535000
  0
SEQEND
  8
gg1
  0
POLYLINE
  8
gg1
 62
1
 40
0.000000
 41
0.000000
 66
  1
  0
VERTEX
  8
gg1
 10
1.505000
 20
2.527500
  0
VERTEX
  8
gg1
 10
1.505000
 20
2.542500
  0
SEQEND
  8
gg1
  0
POLYLINE
  8
gg1
 62
1
 40
0.000000
 41
0.000000
 66
  1
  0
VERTEX
  8
gg1
 10
1.502500
 20
2.485000
  0
VERTEX
  8
gg1
 10
1.517500
 20
2.485000
  0
SEQEND
  8
gg1
  0
POLYLINE
  8
gg1
 62
1
 40
0.000000
 41
0.000000
 66
  1
  0
VERTEX
  8
gg1
 10
1.510000
 20
2.477500
  0
VERTEX
  8
gg1
 10
1.510000
 20
2.492500
  0
SEQEND
  8
gg1
  0
POLYLINE
  8
gg1
 62
1
 40
0.000000
 41
0.000000
 66
  1
  0
VERTEX
  8
gg1
 10
1.552500
 20
2.625000
  0
VERTEX
  8
gg1
 10
1.567500
 20
2.625000
  0
SEQEND
  8
gg1
  0
POLYLINE
  8
gg1
 62
1
 40
0.000000
 41
0.000000
 66
  1
  0
VERTEX
  8
gg1
 10
1.560000
 20
2.617500
  0
VERTEX
  8
gg1
 10
1.560000
 20
2.632500
  0
SEQEND
  8
gg1
  0
POLYLINE
  8
gg1
 62
1
 40
0.000000
 41
0.000000
 66
  1
  0
VERTEX
  8
gg1
 10
1.552500
 20
2.565000
  0
VERTEX
  8
gg1
 10
1.567500
 20
2.565000
  0
SEQEND
  8
gg1
  0
POLYLINE
  8
gg1
 62
1
 40
0.000000
 41
0.000000
 66
  1
  0
VERTEX
  8
gg1
 10
1.560000
 20
2.557500
  0
VERTEX
  8
gg1
 10
1.560000
 20
2.572500
  0
SEQEND
  8
gg1
  0
POLYLINE
  8
gg1
 62
1
 40
0.000000
 41
0.000000
 66
  1
  0
VERTEX
  8
gg1
 10
1.552500
 20
2.500000
  0
VERTEX
  8
gg1
 10
1.567500
 20
2.500000
  0
SEQEND
  8
gg1
  0
POLYLINE
  8
gg1
 62
1
 40
0.000000
 41
0.000000
 66
  1
  0
VERTEX
  8
gg1
 10
1.560000
 20
2.492500
  0
VERTEX
  8
gg1
 10
1.560000
 20
2.507500
  0
SEQEND
  8
gg1
  0
POLYLINE
  8
gg1
 62
1
 40
0.000000
 41
0.000000
 66
  1
  0
VERTEX
  8
gg1
 10
1.552500
 20
2.445000
  0
VERTEX
  8
gg1
 10
1.567500
 20
2.445000
  0
SEQEND
  8
gg1
  0
POLYLINE
  8
gg1
 62
1
 40
0.000000
 41
0.000000
 66
  1
  0
VERTEX
  8
gg1
 10
1.560000
 20
2.437500
  0
VERTEX
  8
gg1
 10
1.560000
 20
2.452500
  0
SEQEND
  8
gg1
  0
POLYLINE
  8
gg1
 62
1
 40
0.000000
 41
0.000000
 66
  1
  0
VERTEX
  8
gg1
 10
1.487500
 20
2.445000
  0
VERTEX
  8
gg1
 10
1.502500
 20
2.445000
  0
SEQEND
  8
gg1
  0
POLYLINE
  8
gg1
 62
1
 40
0.000000
 41
0.000000
 66
  1
  0
VERTEX
  8
gg1
 10
1.495000
 20
2.437500
  0
VERTEX
  8
gg1
 10
1.495000
 20
2.452500
  0
SEQEND
  8
gg1
  0
POLYLINE
  8
gg1
 62
1
 40
0.000000
 41
0.000000
 66
  1
  0
VERTEX
  8
gg1
 10
1.487500
 20
2.625000
  0
VERTEX
  8
gg1
 10
1.502500
 20
2.625000
  0
SEQEND
  8
gg1
  0
POLYLINE
  8
gg1
 62
1
 40
0.000000
 41
0.000000
 66
  1
  0
VERTEX
  8
gg1
 10
1.495000
 20
2.617500
  0
VERTEX
  8
gg1
 10
1.495000
 20
2.632500
  0
SEQEND
  8
gg1
  0
POLYLINE
  8
gg1
 62
1
 40
0.000000
 41
0.000000
 66
  1
  0
VERTEX
  8
gg1
 10
1.257500
 20
2.495000
  0
VERTEX
  8
gg1
 10
1.272500
 20
2.495000
  0
SEQEND
  8
gg1
  0
POLYLINE
  8
gg1
 62
1
 40
0.000000
 41
0.000000
 66
  1
  0
VERTEX
  8
gg1
 10
1.265000
 20
2.487500
  0
VERTEX
  8
gg1
 10
1.265000
 20
2.502500
  0
SEQEND
  8
gg1
  0
POLYLINE
  8
gg1
 62
1
 40
0.000000
 41
0.000000
 66
  1
  0
VERTEX
  8
gg1
 10
1.272500
 20
2.535000
  0
VERTEX
  8
gg1
 10
1.287500
 20
2.535000
  0
SEQEND
  8
gg1
  0
POLYLINE
  8
gg1
 62
1
 40
0.000000
 41
0.000000
 66
  1
  0
VERTEX
  8
gg1
 10
1.280000
 20
2.527500
  0
VERTEX
  8
gg1
 10
1.280000
 20
2.542500
  0
SEQEND
  8
gg1
  0
POLYLINE
  8
gg1
 62
1
 40
0.000000
 41
0.000000
 66
  1
  0
VERTEX
  8
gg1
 10
1.257500
 20
2.575000
  0
VERTEX
  8
gg1
 10
1.272500
 20
2.575000
  0
SEQEND
  8
gg1
  0
POLYLINE
  8
gg1
 62
1
 40
0.000000
 41
0.000000
 66
  1
  0
VERTEX
  8
gg1
 10
1.265000
 20
2.567500
  0
VERTEX
  8
gg1
 10
1.265000
 20
2.582500
  0
SEQEND
  8
gg1
  0
POLYLINE
  8
gg1
 62
1
 40
0.000000
 41
0.000000
 66
  1
  0
VERTEX
  8
gg1
 10
1.052500
 20
3.390000
  0
VERTEX
  8
gg1
 10
1.067500
 20
3.390000
  0
SEQEND
  8
gg1
  0
POLYLINE
  8
gg1
 62
1
 40
0.000000
 41
0.000000
 66
  1
  0
VERTEX
  8
gg1
 10
1.060000
 20
3.382500
  0
VERTEX
  8
gg1
 10
1.060000
 20
3.397500
  0
SEQEND
  8
gg1
  0
POLYLINE
  8
gg1
 62
1
 40
0.000000
 41
0.000000
 66
  1
  0
VERTEX
  8
gg1
 10
2.192500
 20
3.620000
  0
VERTEX
  8
gg1
 10
2.207500
 20
3.620000
  0
SEQEND
  8
gg1
  0
POLYLINE
  8
gg1
 62
1
 40
0.000000
 41
0.000000
 66
  1
  0
VERTEX
  8
gg1
 10
2.200000
 20
3.612500
  0
VERTEX
  8
gg1
 10
2.200000
 20
3.627500
  0
SEQEND
  8
gg1
  0
POLYLINE
  8
gg1
 62
1
 40
0.000000
 41
0.000000
 66
  1
  0
VERTEX
  8
gg1
 10
1.892500
 20
3.640000
  0
VERTEX
  8
gg1
 10
1.907500
 20
3.640000
  0
SEQEND
  8
gg1
  0
POLYLINE
  8
gg1
 62
1
 40
0.000000
 41
0.000000
 66
  1
  0
VERTEX
  8
gg1
 10
1.900000
 20
3.632500
  0
VERTEX
  8
gg1
 10
1.900000
 20
3.647500
  0
SEQEND
  8
gg1
  0
POLYLINE
  8
gg1
 62
1
 40
0.000000
 41
0.000000
 66
  1
  0
VERTEX
  8
gg1
 10
0.992500
 20
3.175000
  0
VERTEX
  8
gg1
 10
1.007500
 20
3.175000
  0
SEQEND
  8
gg1
  0
POLYLINE
  8
gg1
 62
1
 40
0.000000
 41
0.000000
 66
  1
  0
VERTEX
  8
gg1
 10
1.000000
 20
3.167500
  0
VERTEX
  8
gg1
 10
1.000000
 20
3.182500
  0
SEQEND
  8
gg1
  0
POLYLINE
  8
gg1
 62
1
 40
0.000000
 41
0.000000
 66
  1
  0
VERTEX
  8
gg1
 10
1.123000
 20
2.577000
  0
VERTEX
  8
gg1
 10
1.143000
 20
2.577000
  0
SEQEND
  8
gg1
  0
POLYLINE
  8
gg1
 62
1
 40
0.000000
 41
0.000000
 66
  1
  0
VERTEX
  8
gg1
 10
1.133000
 20
2.567000
  0
VERTEX
  8
gg1
 10
1.133000
 20
2.587000
  0
SEQEND
  8
gg1
  0
POLYLINE
  8
gg1
 62
1
 40
0.000000
 41
0.000000
 66
  1
  0
VERTEX
  8
gg1
 10
1.137000
 20
2.543000
  0
VERTEX
  8
gg1
 10
1.157000
 20
2.543000
  0
SEQEND
  8
gg1
  0
POLYLINE
  8
gg1
 62
1
 40
0.000000
 41
0.000000
 66
  1
  0
VERTEX
  8
gg1
 10
1.147000
 20
2.533000
  0
VERTEX
  8
gg1
 10
1.147000
 20
2.553000
  0
SEQEND
  8
gg1
  0
POLYLINE
  8
gg1
 62
1
 40
0.000000
 41
0.000000
 66
  1
  0
VERTEX
  8
gg1
 10
2.842500
 20
3.202500
  0
VERTEX
  8
gg1
 10
2.857500
 20
3.202500
  0
SEQEND
  8
gg1
  0
POLYLINE
  8
gg1
 62
1
 40
0.000000
 41
0.000000
 66
  1
  0
VERTEX
  8
gg1
 10
2.850000
 20
3.195000
  0
VERTEX
  8
gg1
 10
2.850000
 20
3.210000
  0
SEQEND
  8
gg1
  0
POLYLINE
  8
gg1
 62
1
 40
0.000000
 41
0.000000
 66
  1
  0
VERTEX
  8
gg1
 10
1.392500
 20
3.000000
  0
VERTEX
  8
gg1
 10
1.407500
 20
3.000000
  0
SEQEND
  8
gg1
  0
POLYLINE
  8
gg1
 62
1
 40
0.000000
 41
0.000000
 66
  1
  0
VERTEX
  8
gg1
 10
1.400000
 20
2.992500
  0
VERTEX
  8
gg1
 10
1.400000
 20
3.007500
  0
SEQEND
  8
gg1
  0
POLYLINE
  8
gg1
 62
1
 40
0.000000
 41
0.000000
 66
  1
  0
VERTEX
  8
gg1
 10
2.227500
 20
2.625000
  0
VERTEX
  8
gg1
 10
2.242500
 20
2.625000
  0
SEQEND
  8
gg1
  0
POLYLINE
  8
gg1
 62
1
 40
0.000000
 41
0.000000
 66
  1
  0
VERTEX
  8
gg1
 10
2.235000
 20
2.617500
  0
VERTEX
  8
gg1
 10
2.235000
 20
2.632500
  0
SEQEND
  8
gg1
  0
POLYLINE
  8
gg1
 62
1
 40
0.000000
 41
0.000000
 66
  1
  0
VERTEX
  8
gg1
 10
2.332500
 20
2.730000
  0
VERTEX
  8
gg1
 10
2.347500
 20
2.730000
  0
SEQEND
  8
gg1
  0
POLYLINE
  8
gg1
 62
1
 40
0.000000
 41
0.000000
 66
  1
  0
VERTEX
  8
gg1
 10
2.340000
 20
2.722500
  0
VERTEX
  8
gg1
 10
2.340000
 20
2.737500
  0
SEQEND
  8
gg1
  0
POLYLINE
  8
gg1
 62
1
 40
0.000000
 41
0.000000
 66
  1
  0
VERTEX
  8
gg1
 10
1.357500
 20
3.115000
  0
VERTEX
  8
gg1
 10
1.372500
 20
3.115000
  0
SEQEND
  8
gg1
  0
POLYLINE
  8
gg1
 62
1
 40
0.000000
 41
0.000000
 66
  1
  0
VERTEX
  8
gg1
 10
1.365000
 20
3.107500
  0
VERTEX
  8
gg1
 10
1.365000
 20
3.122500
  0
SEQEND
  8
gg1
  0
POLYLINE
  8
gg1
 62
1
 40
0.000000
 41
0.000000
 66
  1
  0
VERTEX
  8
gg1
 10
1.072500
 20
2.815000
  0
VERTEX
  8
gg1
 10
1.087500
 20
2.815000
  0
SEQEND
  8
gg1
  0
POLYLINE
  8
gg1
 62
1
 40
0.000000
 41
0.000000
 66
  1
  0
VERTEX
  8
gg1
 10
1.080000
 20
2.807500
  0
VERTEX
  8
gg1
 10
1.080000
 20
2.822500
  0
SEQEND
  8
gg1
  0
POLYLINE
  8
gg1
 62
1
 40
0.000000
 41
0.000000
 66
  1
  0
VERTEX
  8
gg1
 10
1.147500
 20
2.820000
  0
VERTEX
  8
gg1
 10
1.162500
 20
2.820000
  0
SEQEND
  8
gg1
  0
POLYLINE
  8
gg1
 62
1
 40
0.000000
 41
0.000000
 66
  1
  0
VERTEX
  8
gg1
 10
1.155000
 20
2.812500
  0
VERTEX
  8
gg1
 10
1.155000
 20
2.827500
  0
SEQEND
  8
gg1
  0
POLYLINE
  8
gg1
 62
1
 40
0.000000
 41
0.000000
 66
  1
  0
VERTEX
  8
gg1
 10
1.177500
 20
2.785000
  0
VERTEX
  8
gg1
 10
1.192500
 20
2.785000
  0
SEQEND
  8
gg1
  0
POLYLINE
  8
gg1
 62
1
 40
0.000000
 41
0.000000
 66
  1
  0
VERTEX
  8
gg1
 10
1.185000
 20
2.777500
  0
VERTEX
  8
gg1
 10
1.185000
 20
2.792500
  0
SEQEND
  8
gg1
  0
POLYLINE
  8
gg1
 62
1
 40
0.000000
 41
0.000000
 66
  1
  0
VERTEX
  8
gg1
 10
1.152500
 20
2.745000
  0
VERTEX
  8
gg1
 10
1.167500
 20
2.745000
  0
SEQEND
  8
gg1
  0
POLYLINE
  8
gg1
 62
1
 40
0.000000
 41
0.000000
 66
  1
  0
VERTEX
  8
gg1
 10
1.160000
 20
2.737500
  0
VERTEX
  8
gg1
 10
1.160000
 20
2.752500
  0
SEQEND
  8
gg1
  0
POLYLINE
  8
gg1
 62
1
 40
0.000000
 41
0.000000
 66
  1
  0
VERTEX
  8
gg1
 10
1.082500
 20
2.645000
  0
VERTEX
  8
gg1
 10
1.097500
 20
2.645000
  0
SEQEND
  8
gg1
  0
POLYLINE
  8
gg1
 62
1
 40
0.000000
 41
0.000000
 66
  1
  0
VERTEX
  8
gg1
 10
1.090000
 20
2.637500
  0
VERTEX
  8
gg1
 10
1.090000
 20
2.652500
  0
SEQEND
  8
gg1
  0
POLYLINE
  8
gg1
 62
1
 40
0.000000
 41
0.000000
 66
  1
  0
VERTEX
  8
gg1
 10
1.152500
 20
2.700000
  0
VERTEX
  8
gg1
 10
1.167500
 20
2.700000
  0
SEQEND
  8
gg1
  0
POLYLINE
  8
gg1
 62
1
 40
0.000000
 41
0.000000
 66
  1
  0
VERTEX
  8
gg1
 10
1.160000
 20
2.692500
  0
VERTEX
  8
gg1
 10
1.160000
 20
2.707500
  0
SEQEND
  8
gg1
  0
POLYLINE
  8
gg1
 62
1
 40
0.000000
 41
0.000000
 66
  1
  0
VERTEX
  8
gg1
 10
1.207500
 20
2.750000
  0
VERTEX
  8
gg1
 10
1.222500
 20
2.750000
  0
SEQEND
  8
gg1
  0
POLYLINE
  8
gg1
 62
1
 40
0.000000
 41
0.000000
 66
  1
  0
VERTEX
  8
gg1
 10
1.215000
 20
2.742500
  0
VERTEX
  8
gg1
 10
1.215000
 20
2.757500
  0
SEQEND
  8
gg1
  0
POLYLINE
  8
gg1
 62
1
 40
0.000000
 41
0.000000
 66
  1
  0
VERTEX
  8
gg1
 10
1.500000
 20
2.845000
  0
VERTEX
  8
gg1
 10
1.520000
 20
2.845000
  0
SEQEND
  8
gg1
  0
POLYLINE
  8
gg1
 62
1
 40
0.000000
 41
0.000000
 66
  1
  0
VERTEX
  8
gg1
 10
1.510000
 20
2.835000
  0
VERTEX
  8
gg1
 10
1.510000
 20
2.855000
  0
SEQEND
  8
gg1
  0
POLYLINE
  8
gg1
 62
1
 40
0.000000
 41
0.000000
 66
  1
  0
VERTEX
  8
gg1
 10
2.490000
 20
3.132500
  0
VERTEX
  8
gg1
 10
2.505000
 20
3.132500
  0
SEQEND
  8
gg1
  0
POLYLINE
  8
gg1
 62
1
 40
0.000000
 41
0.000000
 66
  1
  0
VERTEX
  8
gg1
 10
2.497500
 20
3.125000
  0
VERTEX
  8
gg1
 10
2.497500
 20
3.140000
  0
SEQEND
  8
gg1
  0
POLYLINE
  8
gg1
 62
1
 40
0.000000
 41
0.000000
 66
  1
  0
VERTEX
  8
gg1
 10
2.210000
 20
2.440000
  0
VERTEX
  8
gg1
 10
2.230000
 20
2.440000
  0
SEQEND
  8
gg1
  0
POLYLINE
  8
gg1
 62
1
 40
0.000000
 41
0.000000
 66
  1
  0
VERTEX
  8
gg1
 10
2.220000
 20
2.430000
  0
VERTEX
  8
gg1
 10
2.220000
 20
2.450000
  0
SEQEND
  8
gg1
  0
POLYLINE
  8
gg1
 62
1
 40
0.000000
 41
0.000000
 66
  1
  0
VERTEX
  8
gg1
 10
1.075000
 20
2.240000
  0
VERTEX
  8
gg1
 10
1.095000
 20
2.240000
  0
SEQEND
  8
gg1
  0
POLYLINE
  8
gg1
 62
1
 40
0.000000
 41
0.000000
 66
  1
  0
VERTEX
  8
gg1
 10
1.085000
 20
2.230000
  0
VERTEX
  8
gg1
 10
1.085000
 20
2.250000
  0
SEQEND
  8
gg1
  0
POLYLINE
  8
gg1
 62
1
 40
0.000000
 41
0.000000
 66
  1
  0
VERTEX
  8
gg1
 10
1.045000
 20
2.180000
  0
VERTEX
  8
gg1
 10
1.065000
 20
2.180000
  0
SEQEND
  8
gg1
  0
POLYLINE
  8
gg1
 62
1
 40
0.000000
 41
0.000000
 66
  1
  0
VERTEX
  8
gg1
 10
1.055000
 20
2.170000
  0
VERTEX
  8
gg1
 10
1.055000
 20
2.190000
  0
SEQEND
  8
gg1
  0
POLYLINE
  8
gg1
 62
1
 40
0.000000
 41
0.000000
 66
  1
  0
VERTEX
  8
gg1
 10
1.075000
 20
2.120000
  0
VERTEX
  8
gg1
 10
1.095000
 20
2.120000
  0
SEQEND
  8
gg1
  0
POLYLINE
  8
gg1
 62
1
 40
0.000000
 41
0.000000
 66
  1
  0
VERTEX
  8
gg1
 10
1.085000
 20
2.110000
  0
VERTEX
  8
gg1
 10
1.085000
 20
2.130000
  0
SEQEND
  8
gg1
  0
POLYLINE
  8
gg1
 62
1
 40
0.000000
 41
0.000000
 66
  1
  0
VERTEX
  8
gg1
 10
1.045000
 20
2.060000
  0
VERTEX
  8
gg1
 10
1.065000
 20
2.060000
  0
SEQEND
  8
gg1
  0
POLYLINE
  8
gg1
 62
1
 40
0.000000
 41
0.000000
 66
  1
  0
VERTEX
  8
gg1
 10
1.055000
 20
2.050000
  0
VERTEX
  8
gg1
 10
1.055000
 20
2.070000
  0
SEQEND
  8
gg1
  0
POLYLINE
  8
gg1
 62
1
 40
0.000000
 41
0.000000
 66
  1
  0
VERTEX
  8
gg1
 10
1.075000
 20
2.000000
  0
VERTEX
  8
gg1
 10
1.095000
 20
2.000000
  0
SEQEND
  8
gg1
  0
POLYLINE
  8
gg1
 62
1
 40
0.000000
 41
0.000000
 66
  1
  0
VERTEX
  8
gg1
 10
1.085000
 20
1.990000
  0
VERTEX
  8
gg1
 10
1.085000
 20
2.010000
  0
SEQEND
  8
gg1
  0
POLYLINE
  8
gg1
 62
1
 40
0.000000
 41
0.000000
 66
  1
  0
VERTEX
  8
gg1
 10
1.045000
 20
1.940000
  0
VERTEX
  8
gg1
 10
1.065000
 20
1.940000
  0
SEQEND
  8
gg1
  0
POLYLINE
  8
gg1
 62
1
 40
0.000000
 41
0.000000
 66
  1
  0
VERTEX
  8
gg1
 10
1.055000
 20
1.930000
  0
VERTEX
  8
gg1
 10
1.055000
 20
1.950000
  0
SEQEND
  8
gg1
  0
POLYLINE
  8
gg1
 62
1
 40
0.000000
 41
0.000000
 66
  1
  0
VERTEX
  8
gg1
 10
1.075000
 20
1.880000
  0
VERTEX
  8
gg1
 10
1.095000
 20
1.880000
  0
SEQEND
  8
gg1
  0
POLYLINE
  8
gg1
 62
1
 40
0.000000
 41
0.000000
 66
  1
  0
VERTEX
  8
gg1
 10
1.085000
 20
1.870000
  0
VERTEX
  8
gg1
 10
1.085000
 20
1.890000
  0
SEQEND
  8
gg1
  0
POLYLINE
  8
gg1
 62
1
 40
0.000000
 41
0.000000
 66
  1
  0
VERTEX
  8
gg1
 10
1.045000
 20
1.820000
  0
VERTEX
  8
gg1
 10
1.065000
 20
1.820000
  0
SEQEND
  8
gg1
  0
POLYLINE
  8
gg1
 62
1
 40
0.000000
 41
0.000000
 66
  1
  0
VERTEX
  8
gg1
 10
1.055000
 20
1.810000
  0
VERTEX
  8
gg1
 10
1.055000
 20
1.830000
  0
SEQEND
  8
gg1
  0
POLYLINE
  8
gg1
 62
1
 40
0.000000
 41
0.000000
 66
  1
  0
VERTEX
  8
gg1
 10
1.075000
 20
1.760000
  0
VERTEX
  8
gg1
 10
1.095000
 20
1.760000
  0
SEQEND
  8
gg1
  0
POLYLINE
  8
gg1
 62
1
 40
0.000000
 41
0.000000
 66
  1
  0
VERTEX
  8
gg1
 10
1.085000
 20
1.750000
  0
VERTEX
  8
gg1
 10
1.085000
 20
1.770000
  0
SEQEND
  8
gg1
  0
POLYLINE
  8
gg1
 62
1
 40
0.000000
 41
0.000000
 66
  1
  0
VERTEX
  8
gg1
 10
1.365000
 20
1.825000
  0
VERTEX
  8
gg1
 10
1.385000
 20
1.825000
  0
SEQEND
  8
gg1
  0
POLYLINE
  8
gg1
 62
1
 40
0.000000
 41
0.000000
 66
  1
  0
VERTEX
  8
gg1
 10
1.375000
 20
1.815000
  0
VERTEX
  8
gg1
 10
1.375000
 20
1.835000
  0
SEQEND
  8
gg1
  0
POLYLINE
  8
gg1
 62
1
 40
0.000000
 41
0.000000
 66
  1
  0
VERTEX
  8
gg1
 10
1.415000
 20
1.875000
  0
VERTEX
  8
gg1
 10
1.435000
 20
1.875000
  0
SEQEND
  8
gg1
  0
POLYLINE
  8
gg1
 62
1
 40
0.000000
 41
0.000000
 66
  1
  0
VERTEX
  8
gg1
 10
1.425000
 20
1.865000
  0
VERTEX
  8
gg1
 10
1.425000
 20
1.885000
  0
SEQEND
  8
gg1
  0
POLYLINE
  8
gg1
 62
1
 40
0.000000
 41
0.000000
 66
  1
  0
VERTEX
  8
gg1
 10
1.365000
 20
1.925000
  0
VERTEX
  8
gg1
 10
1.385000
 20
1.925000
  0
SEQEND
  8
gg1
  0
POLYLINE
  8
gg1
 62
1
 40
0.000000
 41
0.000000
 66
  1
  0
VERTEX
  8
gg1
 10
1.375000
 20
1.915000
  0
VERTEX
  8
gg1
 10
1.375000
 20
1.935000
  0
SEQEND
  8
gg1
  0
POLYLINE
  8
gg1
 62
1
 40
0.000000
 41
0.000000
 66
  1
  0
VERTEX
  8
gg1
 10
1.440000
 20
1.950000
  0
VERTEX
  8
gg1
 10
1.460000
 20
1.950000
  0
SEQEND
  8
gg1
  0
POLYLINE
  8
gg1
 62
1
 40
0.000000
 41
0.000000
 66
  1
  0
VERTEX
  8
gg1
 10
1.450000
 20
1.940000
  0
VERTEX
  8
gg1
 10
1.450000
 20
1.960000
  0
SEQEND
  8
gg1
  0
POLYLINE
  8
gg1
 62
1
 40
0.000000
 41
0.000000
 66
  1
  0
VERTEX
  8
gg1
 10
1.490000
 20
1.925000
  0
VERTEX
  8
gg1
 10
1.510000
 20
1.925000
  0
SEQEND
  8
gg1
  0
POLYLINE
  8
gg1
 62
1
 40
0.000000
 41
0.000000
 66
  1
  0
VERTEX
  8
gg1
 10
1.500000
 20
1.915000
  0
VERTEX
  8
gg1
 10
1.500000
 20
1.935000
  0
SEQEND
  8
gg1
  0
POLYLINE
  8
gg1
 62
1
 40
0.000000
 41
0.000000
 66
  1
  0
VERTEX
  8
gg1
 10
1.490000
 20
2.000000
  0
VERTEX
  8
gg1
 10
1.510000
 20
2.000000
  0
SEQEND
  8
gg1
  0
POLYLINE
  8
gg1
 62
1
 40
0.000000
 41
0.000000
 66
  1
  0
VERTEX
  8
gg1
 10
1.500000
 20
1.990000
  0
VERTEX
  8
gg1
 10
1.500000
 20
2.010000
  0
SEQEND
  8
gg1
  0
POLYLINE
  8
gg1
 62
1
 40
0.000000
 41
0.000000
 66
  1
  0
VERTEX
  8
gg1
 10
1.365000
 20
2.000000
  0
VERTEX
  8
gg1
 10
1.385000
 20
2.000000
  0
SEQEND
  8
gg1
  0
POLYLINE
  8
gg1
 62
1
 40
0.000000
 41
0.000000
 66
  1
  0
VERTEX
  8
gg1
 10
1.375000
 20
1.990000
  0
VERTEX
  8
gg1
 10
1.375000
 20
2.010000
  0
SEQEND
  8
gg1
  0
POLYLINE
  8
gg1
 62
1
 40
0.000000
 41
0.000000
 66
  1
  0
VERTEX
  8
gg1
 10
1.440000
 20
2.075000
  0
VERTEX
  8
gg1
 10
1.460000
 20
2.075000
  0
SEQEND
  8
gg1
  0
POLYLINE
  8
gg1
 62
1
 40
0.000000
 41
0.000000
 66
  1
  0
VERTEX
  8
gg1
 10
1.450000
 20
2.065000
  0
VERTEX
  8
gg1
 10
1.450000
 20
2.085000
  0
SEQEND
  8
gg1
  0
POLYLINE
  8
gg1
 62
1
 40
0.000000
 41
0.000000
 66
  1
  0
VERTEX
  8
gg1
 10
1.390000
 20
2.050000
  0
VERTEX
  8
gg1
 10
1.410000
 20
2.050000
  0
SEQEND
  8
gg1
  0
POLYLINE
  8
gg1
 62
1
 40
0.000000
 41
0.000000
 66
  1
  0
VERTEX
  8
gg1
 10
1.400000
 20
2.040000
  0
VERTEX
  8
gg1
 10
1.400000
 20
2.060000
  0
SEQEND
  8
gg1
  0
POLYLINE
  8
gg1
 62
1
 40
0.000000
 41
0.000000
 66
  1
  0
VERTEX
  8
gg1
 10
1.490000
 20
2.075000
  0
VERTEX
  8
gg1
 10
1.510000
 20
2.075000
  0
SEQEND
  8
gg1
  0
POLYLINE
  8
gg1
 62
1
 40
0.000000
 41
0.000000
 66
  1
  0
VERTEX
  8
gg1
 10
1.500000
 20
2.065000
  0
VERTEX
  8
gg1
 10
1.500000
 20
2.085000
  0
SEQEND
  8
gg1
  0
POLYLINE
  8
gg1
 62
1
 40
0.000000
 41
0.000000
 66
  1
  0
VERTEX
  8
gg1
 10
1.315000
 20
2.150000
  0
VERTEX
  8
gg1
 10
1.335000
 20
2.150000
  0
SEQEND
  8
gg1
  0
POLYLINE
  8
gg1
 62
1
 40
0.000000
 41
0.000000
 66
  1
  0
VERTEX
  8
gg1
 10
1.325000
 20
2.140000
  0
VERTEX
  8
gg1
 10
1.325000
 20
2.160000
  0
SEQEND
  8
gg1
  0
POLYLINE
  8
gg1
 62
1
 40
0.000000
 41
0.000000
 66
  1
  0
VERTEX
  8
gg1
 10
1.315000
 20
2.200000
  0
VERTEX
  8
gg1
 10
1.335000
 20
2.200000
  0
SEQEND
  8
gg1
  0
POLYLINE
  8
gg1
 62
1
 40
0.000000
 41
0.000000
 66
  1
  0
VERTEX
  8
gg1
 10
1.325000
 20
2.190000
  0
VERTEX
  8
gg1
 10
1.325000
 20
2.210000
  0
SEQEND
  8
gg1
  0
POLYLINE
  8
gg1
 62
1
 40
0.000000
 41
0.000000
 66
  1
  0
VERTEX
  8
gg1
 10
1.340000
 20
2.250000
  0
VERTEX
  8
gg1
 10
1.360000
 20
2.250000
  0
SEQEND
  8
gg1
  0
POLYLINE
  8
gg1
 62
1
 40
0.000000
 41
0.000000
 66
  1
  0
VERTEX
  8
gg1
 10
1.350000
 20
2.240000
  0
VERTEX
  8
gg1
 10
1.350000
 20
2.260000
  0
SEQEND
  8
gg1
  0
POLYLINE
  8
gg1
 62
1
 40
0.000000
 41
0.000000
 66
  1
  0
VERTEX
  8
gg1
 10
1.390000
 20
2.200000
  0
VERTEX
  8
gg1
 10
1.410000
 20
2.200000
  0
SEQEND
  8
gg1
  0
POLYLINE
  8
gg1
 62
1
 40
0.000000
 41
0.000000
 66
  1
  0
VERTEX
  8
gg1
 10
1.400000
 20
2.190000
  0
VERTEX
  8
gg1
 10
1.400000
 20
2.210000
  0
SEQEND
  8
gg1
  0
POLYLINE
  8
gg1
 62
1
 40
0.000000
 41
0.000000
 66
  1
  0
VERTEX
  8
gg1
 10
1.490000
 20
2.200000
  0
VERTEX
  8
gg1
 10
1.510000
 20
2.200000
  0
SEQEND
  8
gg1
  0
POLYLINE
  8
gg1
 62
1
 40
0.000000
 41
0.000000
 66
  1
  0
VERTEX
  8
gg1
 10
1.500000
 20
2.190000
  0
VERTEX
  8
gg1
 10
1.500000
 20
2.210000
  0
SEQEND
  8
gg1
  0
POLYLINE
  8
gg1
 62
1
 40
0.000000
 41
0.000000
 66
  1
  0
VERTEX
  8
gg1
 10
1.440000
 20
2.025000
  0
VERTEX
  8
gg1
 10
1.460000
 20
2.025000
  0
SEQEND
  8
gg1
  0
POLYLINE
  8
gg1
 62
1
 40
0.000000
 41
0.000000
 66
  1
  0
VERTEX
  8
gg1
 10
1.450000
 20
2.015000
  0
VERTEX
  8
gg1
 10
1.450000
 20
2.035000
  0
SEQEND
  8
gg1
  0
POLYLINE
  8
gg1
 62
1
 40
0.000000
 41
0.000000
 66
  1
  0
VERTEX
  8
gg1
 10
1.440000
 20
2.250000
  0
VERTEX
  8
gg1
 10
1.460000
 20
2.250000
  0
SEQEND
  8
gg1
  0
POLYLINE
  8
gg1
 62
1
 40
0.000000
 41
0.000000
 66
  1
  0
VERTEX
  8
gg1
 10
1.450000
 20
2.240000
  0
VERTEX
  8
gg1
 10
1.450000
 20
2.260000
  0
SEQEND
  8
gg1
  0
POLYLINE
  8
gg1
 62
1
 40
0.000000
 41
0.000000
 66
  1
  0
VERTEX
  8
gg1
 10
2.995000
 20
1.770000
  0
VERTEX
  8
gg1
 10
3.015000
 20
1.770000
  0
SEQEND
  8
gg1
  0
POLYLINE
  8
gg1
 62
1
 40
0.000000
 41
0.000000
 66
  1
  0
VERTEX
  8
gg1
 10
3.005000
 20
1.760000
  0
VERTEX
  8
gg1
 10
3.005000
 20
1.780000
  0
SEQEND
  8
gg1
  0
POLYLINE
  8
gg1
 62
1
 40
0.000000
 41
0.000000
 66
  1
  0
VERTEX
  8
gg1
 10
2.940000
 20
1.950000
  0
VERTEX
  8
gg1
 10
2.960000
 20
1.950000
  0
SEQEND
  8
gg1
  0
POLYLINE
  8
gg1
 62
1
 40
0.000000
 41
0.000000
 66
  1
  0
VERTEX
  8
gg1
 10
2.950000
 20
1.940000
  0
VERTEX
  8
gg1
 10
2.950000
 20
1.960000
  0
SEQEND
  8
gg1
  0
POLYLINE
  8
gg1
 62
1
 40
0.000000
 41
0.000000
 66
  1
  0
VERTEX
  8
gg1
 10
2.865000
 20
1.770000
  0
VERTEX
  8
gg1
 10
2.885000
 20
1.770000
  0
SEQEND
  8
gg1
  0
POLYLINE
  8
gg1
 62
1
 40
0.000000
 41
0.000000
 66
  1
  0
VERTEX
  8
gg1
 10
2.875000
 20
1.760000
  0
VERTEX
  8
gg1
 10
2.875000
 20
1.780000
  0
SEQEND
  8
gg1
  0
POLYLINE
  8
gg1
 62
1
 40
0.000000
 41
0.000000
 66
  1
  0
VERTEX
  8
gg1
 10
2.940000
 20
2.050000
  0
VERTEX
  8
gg1
 10
2.960000
 20
2.050000
  0
SEQEND
  8
gg1
  0
POLYLINE
  8
gg1
 62
1
 40
0.000000
 41
0.000000
 66
  1
  0
VERTEX
  8
gg1
 10
2.950000
 20
2.040000
  0
VERTEX
  8
gg1
 10
2.950000
 20
2.060000
  0
SEQEND
  8
gg1
  0
POLYLINE
  8
gg1
 62
1
 40
0.000000
 41
0.000000
 66
  1
  0
VERTEX
  8
gg1
 10
2.940000
 20
1.825000
  0
VERTEX
  8
gg1
 10
2.960000
 20
1.825000
  0
SEQEND
  8
gg1
  0
POLYLINE
  8
gg1
 62
1
 40
0.000000
 41
0.000000
 66
  1
  0
VERTEX
  8
gg1
 10
2.950000
 20
1.815000
  0
VERTEX
  8
gg1
 10
2.950000
 20
1.835000
  0
SEQEND
  8
gg1
  0
POLYLINE
  8
gg1
 62
1
 40
0.000000
 41
0.000000
 66
  1
  0
VERTEX
  8
gg1
 10
2.890000
 20
1.900000
  0
VERTEX
  8
gg1
 10
2.910000
 20
1.900000
  0
SEQEND
  8
gg1
  0
POLYLINE
  8
gg1
 62
1
 40
0.000000
 41
0.000000
 66
  1
  0
VERTEX
  8
gg1
 10
2.900000
 20
1.890000
  0
VERTEX
  8
gg1
 10
2.900000
 20
1.910000
  0
SEQEND
  8
gg1
  0
POLYLINE
  8
gg1
 62
1
 40
0.000000
 41
0.000000
 66
  1
  0
VERTEX
  8
gg1
 10
2.990000
 20
1.900000
  0
VERTEX
  8
gg1
 10
3.010000
 20
1.900000
  0
SEQEND
  8
gg1
  0
POLYLINE
  8
gg1
 62
1
 40
0.000000
 41
0.000000
 66
  1
  0
VERTEX
  8
gg1
 10
3.000000
 20
1.890000
  0
VERTEX
  8
gg1
 10
3.000000
 20
1.910000
  0
SEQEND
  8
gg1
  0
POLYLINE
  8
gg1
 62
1
 40
0.000000
 41
0.000000
 66
  1
  0
VERTEX
  8
gg1
 10
2.990000
 20
2.000000
  0
VERTEX
  8
gg1
 10
3.010000
 20
2.000000
  0
SEQEND
  8
gg1
  0
POLYLINE
  8
gg1
 62
1
 40
0.000000
 41
0.000000
 66
  1
  0
VERTEX
  8
gg1
 10
3.000000
 20
1.990000
  0
VERTEX
  8
gg1
 10
3.000000
 20
2.010000
  0
SEQEND
  8
gg1
  0
POLYLINE
  8
gg1
 62
1
 40
0.000000
 41
0.000000
 66
  1
  0
VERTEX
  8
gg1
 10
2.890000
 20
2.000000
  0
VERTEX
  8
gg1
 10
2.910000
 20
2.000000
  0
SEQEND
  8
gg1
  0
POLYLINE
  8
gg1
 62
1
 40
0.000000
 41
0.000000
 66
  1
  0
VERTEX
  8
gg1
 10
2.900000
 20
1.990000
  0
VERTEX
  8
gg1
 10
2.900000
 20
2.010000
  0
SEQEND
  8
gg1
  0
POLYLINE
  8
gg1
 62
1
 40
0.000000
 41
0.000000
 66
  1
  0
VERTEX
  8
gg1
 10
2.890000
 20
2.100000
  0
VERTEX
  8
gg1
 10
2.910000
 20
2.100000
  0
SEQEND
  8
gg1
  0
POLYLINE
  8
gg1
 62
1
 40
0.000000
 41
0.000000
 66
  1
  0
VERTEX
  8
gg1
 10
2.900000
 20
2.090000
  0
VERTEX
  8
gg1
 10
2.900000
 20
2.110000
  0
SEQEND
  8
gg1
  0
POLYLINE
  8
gg1
 62
1
 40
0.000000
 41
0.000000
 66
  1
  0
VERTEX
  8
gg1
 10
2.990000
 20
2.100000
  0
VERTEX
  8
gg1
 10
3.010000
 20
2.100000
  0
SEQEND
  8
gg1
  0
POLYLINE
  8
gg1
 62
1
 40
0.000000
 41
0.000000
 66
  1
  0
VERTEX
  8
gg1
 10
3.000000
 20
2.090000
  0
VERTEX
  8
gg1
 10
3.000000
 20
2.110000
  0
SEQEND
  8
gg1
  0
POLYLINE
  8
gg1
 62
1
 40
0.000000
 41
0.000000
 66
  1
  0
VERTEX
  8
gg1
 10
2.940000
 20
2.175000
  0
VERTEX
  8
gg1
 10
2.960000
 20
2.175000
  0
SEQEND
  8
gg1
  0
POLYLINE
  8
gg1
 62
1
 40
0.000000
 41
0.000000
 66
  1
  0
VERTEX
  8
gg1
 10
2.950000
 20
2.165000
  0
VERTEX
  8
gg1
 10
2.950000
 20
2.185000
  0
SEQEND
  8
gg1
  0
POLYLINE
  8
gg1
 62
1
 40
0.000000
 41
0.000000
 66
  1
  0
VERTEX
  8
gg1
 10
2.995000
 20
2.230000
  0
VERTEX
  8
gg1
 10
3.015000
 20
2.230000
  0
SEQEND
  8
gg1
  0
POLYLINE
  8
gg1
 62
1
 40
0.000000
 41
0.000000
 66
  1
  0
VERTEX
  8
gg1
 10
3.005000
 20
2.220000
  0
VERTEX
  8
gg1
 10
3.005000
 20
2.240000
  0
SEQEND
  8
gg1
  0
POLYLINE
  8
gg1
 62
1
 40
0.000000
 41
0.000000
 66
  1
  0
VERTEX
  8
gg1
 10
2.865000
 20
2.230000
  0
VERTEX
  8
gg1
 10
2.885000
 20
2.230000
  0
SEQEND
  8
gg1
  0
POLYLINE
  8
gg1
 62
1
 40
0.000000
 41
0.000000
 66
  1
  0
VERTEX
  8
gg1
 10
2.875000
 20
2.220000
  0
VERTEX
  8
gg1
 10
2.875000
 20
2.240000
  0
SEQEND
  8
gg1
  0
POLYLINE
  8
gg1
 62
1
 40
0.000000
 41
0.000000
 66
  1
  0
VERTEX
  8
gg1
 10
3.105000
 20
2.230000
  0
VERTEX
  8
gg1
 10
3.125000
 20
2.230000
  0
SEQEND
  8
gg1
  0
POLYLINE
  8
gg1
 62
1
 40
0.000000
 41
0.000000
 66
  1
  0
VERTEX
  8
gg1
 10
3.115000
 20
2.220000
  0
VERTEX
  8
gg1
 10
3.115000
 20
2.240000
  0
SEQEND
  8
gg1
  0
POLYLINE
  8
gg1
 62
1
 40
0.000000
 41
0.000000
 66
  1
  0
VERTEX
  8
gg1
 10
3.190000
 20
2.225000
  0
VERTEX
  8
gg1
 10
3.210000
 20
2.225000
  0
SEQEND
  8
gg1
  0
POLYLINE
  8
gg1
 62
1
 40
0.000000
 41
0.000000
 66
  1
  0
VERTEX
  8
gg1
 10
3.200000
 20
2.215000
  0
VERTEX
  8
gg1
 10
3.200000
 20
2.235000
  0
SEQEND
  8
gg1
  0
POLYLINE
  8
gg1
 62
1
 40
0.000000
 41
0.000000
 66
  1
  0
VERTEX
  8
gg1
 10
3.290000
 20
2.225000
  0
VERTEX
  8
gg1
 10
3.310000
 20
2.225000
  0
SEQEND
  8
gg1
  0
POLYLINE
  8
gg1
 62
1
 40
0.000000
 41
0.000000
 66
  1
  0
VERTEX
  8
gg1
 10
3.300000
 20
2.215000
  0
VERTEX
  8
gg1
 10
3.300000
 20
2.235000
  0
SEQEND
  8
gg1
  0
POLYLINE
  8
gg1
 62
1
 40
0.000000
 41
0.000000
 66
  1
  0
VERTEX
  8
gg1
 10
3.370000
 20
2.230000
  0
VERTEX
  8
gg1
 10
3.390000
 20
2.230000
  0
SEQEND
  8
gg1
  0
POLYLINE
  8
gg1
 62
1
 40
0.000000
 41
0.000000
 66
  1
  0
VERTEX
  8
gg1
 10
3.380000
 20
2.220000
  0
VERTEX
  8
gg1
 10
3.380000
 20
2.240000
  0
SEQEND
  8
gg1
  0
POLYLINE
  8
gg1
 62
1
 40
0.000000
 41
0.000000
 66
  1
  0
VERTEX
  8
gg1
 10
3.365000
 20
2.150000
  0
VERTEX
  8
gg1
 10
3.385000
 20
2.150000
  0
SEQEND
  8
gg1
  0
POLYLINE
  8
gg1
 62
1
 40
0.000000
 41
0.000000
 66
  1
  0
VERTEX
  8
gg1
 10
3.375000
 20
2.140000
  0
VERTEX
  8
gg1
 10
3.375000
 20
2.160000
  0
SEQEND
  8
gg1
  0
POLYLINE
  8
gg1
 62
1
 40
0.000000
 41
0.000000
 66
  1
  0
VERTEX
  8
gg1
 10
3.115000
 20
1.900000
  0
VERTEX
  8
gg1
 10
3.135000
 20
1.900000
  0
SEQEND
  8
gg1
  0
POLYLINE
  8
gg1
 62
1
 40
0.000000
 41
0.000000
 66
  1
  0
VERTEX
  8
gg1
 10
3.125000
 20
1.890000
  0
VERTEX
  8
gg1
 10
3.125000
 20
1.910000
  0
SEQEND
  8
gg1
  0
POLYLINE
  8
gg1
 62
1
 40
0.000000
 41
0.000000
 66
  1
  0
VERTEX
  8
gg1
 10
3.365000
 20
1.950000
  0
VERTEX
  8
gg1
 10
3.385000
 20
1.950000
  0
SEQEND
  8
gg1
  0
POLYLINE
  8
gg1
 62
1
 40
0.000000
 41
0.000000
 66
  1
  0
VERTEX
  8
gg1
 10
3.375000
 20
1.940000
  0
VERTEX
  8
gg1
 10
3.375000
 20
1.960000
  0
SEQEND
  8
gg1
  0
POLYLINE
  8
gg1
 62
1
 40
0.000000
 41
0.000000
 66
  1
  0
VERTEX
  8
gg1
 10
3.365000
 20
1.850000
  0
VERTEX
  8
gg1
 10
3.385000
 20
1.850000
  0
SEQEND
  8
gg1
  0
POLYLINE
  8
gg1
 62
1
 40
0.000000
 41
0.000000
 66
  1
  0
VERTEX
  8
gg1
 10
3.375000
 20
1.840000
  0
VERTEX
  8
gg1
 10
3.375000
 20
1.860000
  0
SEQEND
  8
gg1
  0
POLYLINE
  8
gg1
 62
1
 40
0.000000
 41
0.000000
 66
  1
  0
VERTEX
  8
gg1
 10
3.370000
 20
1.770000
  0
VERTEX
  8
gg1
 10
3.390000
 20
1.770000
  0
SEQEND
  8
gg1
  0
POLYLINE
  8
gg1
 62
1
 40
0.000000
 41
0.000000
 66
  1
  0
VERTEX
  8
gg1
 10
3.380000
 20
1.760000
  0
VERTEX
  8
gg1
 10
3.380000
 20
1.780000
  0
SEQEND
  8
gg1
  0
POLYLINE
  8
gg1
 62
1
 40
0.000000
 41
0.000000
 66
  1
  0
VERTEX
  8
gg1
 10
3.190000
 20
1.775000
  0
VERTEX
  8
gg1
 10
3.210000
 20
1.775000
  0
SEQEND
  8
gg1
  0
POLYLINE
  8
gg1
 62
1
 40
0.000000
 41
0.000000
 66
  1
  0
VERTEX
  8
gg1
 10
3.200000
 20
1.765000
  0
VERTEX
  8
gg1
 10
3.200000
 20
1.785000
  0
SEQEND
  8
gg1
  0
POLYLINE
  8
gg1
 62
1
 40
0.000000
 41
0.000000
 66
  1
  0
VERTEX
  8
gg1
 10
3.105000
 20
1.770000
  0
VERTEX
  8
gg1
 10
3.125000
 20
1.770000
  0
SEQEND
  8
gg1
  0
POLYLINE
  8
gg1
 62
1
 40
0.000000
 41
0.000000
 66
  1
  0
VERTEX
  8
gg1
 10
3.115000
 20
1.760000
  0
VERTEX
  8
gg1
 10
3.115000
 20
1.780000
  0
SEQEND
  8
gg1
  0
POLYLINE
  8
gg1
 62
1
 40
0.000000
 41
0.000000
 66
  1
  0
VERTEX
  8
gg1
 10
3.290000
 20
1.775000
  0
VERTEX
  8
gg1
 10
3.310000
 20
1.775000
  0
SEQEND
  8
gg1
  0
POLYLINE
  8
gg1
 62
1
 40
0.000000
 41
0.000000
 66
  1
  0
VERTEX
  8
gg1
 10
3.300000
 20
1.765000
  0
VERTEX
  8
gg1
 10
3.300000
 20
1.785000
  0
SEQEND
  8
gg1
  0
POLYLINE
  8
gg1
 62
1
 40
0.000000
 41
0.000000
 66
  1
  0
VERTEX
  8
gg1
 10
3.290000
 20
1.850000
  0
VERTEX
  8
gg1
 10
3.310000
 20
1.850000
  0
SEQEND
  8
gg1
  0
POLYLINE
  8
gg1
 62
1
 40
0.000000
 41
0.000000
 66
  1
  0
VERTEX
  8
gg1
 10
3.300000
 20
1.840000
  0
VERTEX
  8
gg1
 10
3.300000
 20
1.860000
  0
SEQEND
  8
gg1
  0
POLYLINE
  8
gg1
 62
1
 40
0.000000
 41
0.000000
 66
  1
  0
VERTEX
  8
gg1
 10
3.290000
 20
2.050000
  0
VERTEX
  8
gg1
 10
3.310000
 20
2.050000
  0
SEQEND
  8
gg1
  0
POLYLINE
  8
gg1
 62
1
 40
0.000000
 41
0.000000
 66
  1
  0
VERTEX
  8
gg1
 10
3.300000
 20
2.040000
  0
VERTEX
  8
gg1
 10
3.300000
 20
2.060000
  0
SEQEND
  8
gg1
  0
POLYLINE
  8
gg1
 62
1
 40
0.000000
 41
0.000000
 66
  1
  0
VERTEX
  8
gg1
 10
3.290000
 20
2.150000
  0
VERTEX
  8
gg1
 10
3.310000
 20
2.150000
  0
SEQEND
  8
gg1
  0
POLYLINE
  8
gg1
 62
1
 40
0.000000
 41
0.000000
 66
  1
  0
VERTEX
  8
gg1
 10
3.300000
 20
2.140000
  0
VERTEX
  8
gg1
 10
3.300000
 20
2.160000
  0
SEQEND
  8
gg1
  0
POLYLINE
  8
gg1
 62
1
 40
0.000000
 41
0.000000
 66
  1
  0
VERTEX
  8
gg1
 10
3.190000
 20
2.150000
  0
VERTEX
  8
gg1
 10
3.210000
 20
2.150000
  0
SEQEND
  8
gg1
  0
POLYLINE
  8
gg1
 62
1
 40
0.000000
 41
0.000000
 66
  1
  0
VERTEX
  8
gg1
 10
3.200000
 20
2.140000
  0
VERTEX
  8
gg1
 10
3.200000
 20
2.160000
  0
SEQEND
  8
gg1
  0
POLYLINE
  8
gg1
 62
1
 40
0.000000
 41
0.000000
 66
  1
  0
VERTEX
  8
gg1
 10
3.115000
 20
2.100000
  0
VERTEX
  8
gg1
 10
3.135000
 20
2.100000
  0
SEQEND
  8
gg1
  0
POLYLINE
  8
gg1
 62
1
 40
0.000000
 41
0.000000
 66
  1
  0
VERTEX
  8
gg1
 10
3.125000
 20
2.090000
  0
VERTEX
  8
gg1
 10
3.125000
 20
2.110000
  0
SEQEND
  8
gg1
  0
POLYLINE
  8
gg1
 62
1
 40
0.000000
 41
0.000000
 66
  1
  0
VERTEX
  8
gg1
 10
3.115000
 20
2.000000
  0
VERTEX
  8
gg1
 10
3.135000
 20
2.000000
  0
SEQEND
  8
gg1
  0
POLYLINE
  8
gg1
 62
1
 40
0.000000
 41
0.000000
 66
  1
  0
VERTEX
  8
gg1
 10
3.125000
 20
1.990000
  0
VERTEX
  8
gg1
 10
3.125000
 20
2.010000
  0
SEQEND
  8
gg1
  0
POLYLINE
  8
gg1
 62
1
 40
0.000000
 41
0.000000
 66
  1
  0
VERTEX
  8
gg1
 10
3.190000
 20
1.850000
  0
VERTEX
  8
gg1
 10
3.210000
 20
1.850000
  0
SEQEND
  8
gg1
  0
POLYLINE
  8
gg1
 62
1
 40
0.000000
 41
0.000000
 66
  1
  0
VERTEX
  8
gg1
 10
3.200000
 20
1.840000
  0
VERTEX
  8
gg1
 10
3.200000
 20
1.860000
  0
SEQEND
  8
gg1
  0
POLYLINE
  8
gg1
 62
1
 40
0.000000
 41
0.000000
 66
  1
  0
VERTEX
  8
gg1
 10
3.190000
 20
1.950000
  0
VERTEX
  8
gg1
 10
3.210000
 20
1.950000
  0
SEQEND
  8
gg1
  0
POLYLINE
  8
gg1
 62
1
 40
0.000000
 41
0.000000
 66
  1
  0
VERTEX
  8
gg1
 10
3.200000
 20
1.940000
  0
VERTEX
  8
gg1
 10
3.200000
 20
1.960000
  0
SEQEND
  8
gg1
  0
POLYLINE
  8
gg1
 62
1
 40
0.000000
 41
0.000000
 66
  1
  0
VERTEX
  8
gg1
 10
3.290000
 20
1.950000
  0
VERTEX
  8
gg1
 10
3.310000
 20
1.950000
  0
SEQEND
  8
gg1
  0
POLYLINE
  8
gg1
 62
1
 40
0.000000
 41
0.000000
 66
  1
  0
VERTEX
  8
gg1
 10
3.300000
 20
1.940000
  0
VERTEX
  8
gg1
 10
3.300000
 20
1.960000
  0
SEQEND
  8
gg1
  0
POLYLINE
  8
gg1
 62
1
 40
0.000000
 41
0.000000
 66
  1
  0
VERTEX
  8
gg1
 10
3.190000
 20
2.050000
  0
VERTEX
  8
gg1
 10
3.210000
 20
2.050000
  0
SEQEND
  8
gg1
  0
POLYLINE
  8
gg1
 62
1
 40
0.000000
 41
0.000000
 66
  1
  0
VERTEX
  8
gg1
 10
3.200000
 20
2.040000
  0
VERTEX
  8
gg1
 10
3.200000
 20
2.060000
  0
SEQEND
  8
gg1
  0
POLYLINE
  8
gg1
 62
1
 40
0.000000
 41
0.000000
 66
  1
  0
VERTEX
  8
gg1
 10
3.365000
 20
2.050000
  0
VERTEX
  8
gg1
 10
3.385000
 20
2.050000
  0
SEQEND
  8
gg1
  0
POLYLINE
  8
gg1
 62
1
 40
0.000000
 41
0.000000
 66
  1
  0
VERTEX
  8
gg1
 10
3.375000
 20
2.040000
  0
VERTEX
  8
gg1
 10
3.375000
 20
2.060000
  0
SEQEND
  8
gg1
  0
POLYLINE
  8
gg1
 62
1
 40
0.000000
 41
0.000000
 66
  1
  0
VERTEX
  8
gg1
 10
2.665000
 20
2.200000
  0
VERTEX
  8
gg1
 10
2.685000
 20
2.200000
  0
SEQEND
  8
gg1
  0
POLYLINE
  8
gg1
 62
1
 40
0.000000
 41
0.000000
 66
  1
  0
VERTEX
  8
gg1
 10
2.675000
 20
2.190000
  0
VERTEX
  8
gg1
 10
2.675000
 20
2.210000
  0
SEQEND
  8
gg1
  0
POLYLINE
  8
gg1
 62
1
 40
0.000000
 41
0.000000
 66
  1
  0
VERTEX
  8
gg1
 10
2.515000
 20
2.230000
  0
VERTEX
  8
gg1
 10
2.535000
 20
2.230000
  0
SEQEND
  8
gg1
  0
POLYLINE
  8
gg1
 62
1
 40
0.000000
 41
0.000000
 66
  1
  0
VERTEX
  8
gg1
 10
2.525000
 20
2.220000
  0
VERTEX
  8
gg1
 10
2.525000
 20
2.240000
  0
SEQEND
  8
gg1
  0
POLYLINE
  8
gg1
 62
1
 40
0.000000
 41
0.000000
 66
  1
  0
VERTEX
  8
gg1
 10
2.735000
 20
1.770000
  0
VERTEX
  8
gg1
 10
2.755000
 20
1.770000
  0
SEQEND
  8
gg1
  0
POLYLINE
  8
gg1
 62
1
 40
0.000000
 41
0.000000
 66
  1
  0
VERTEX
  8
gg1
 10
2.745000
 20
1.760000
  0
VERTEX
  8
gg1
 10
2.745000
 20
1.780000
  0
SEQEND
  8
gg1
  0
POLYLINE
  8
gg1
 62
1
 40
0.000000
 41
0.000000
 66
  1
  0
VERTEX
  8
gg1
 10
2.540000
 20
2.175000
  0
VERTEX
  8
gg1
 10
2.560000
 20
2.175000
  0
SEQEND
  8
gg1
  0
POLYLINE
  8
gg1
 62
1
 40
0.000000
 41
0.000000
 66
  1
  0
VERTEX
  8
gg1
 10
2.550000
 20
2.165000
  0
VERTEX
  8
gg1
 10
2.550000
 20
2.185000
  0
SEQEND
  8
gg1
  0
POLYLINE
  8
gg1
 62
1
 40
0.000000
 41
0.000000
 66
  1
  0
VERTEX
  8
gg1
 10
2.615000
 20
2.050000
  0
VERTEX
  8
gg1
 10
2.635000
 20
2.050000
  0
SEQEND
  8
gg1
  0
POLYLINE
  8
gg1
 62
1
 40
0.000000
 41
0.000000
 66
  1
  0
VERTEX
  8
gg1
 10
2.625000
 20
2.040000
  0
VERTEX
  8
gg1
 10
2.625000
 20
2.060000
  0
SEQEND
  8
gg1
  0
POLYLINE
  8
gg1
 62
1
 40
0.000000
 41
0.000000
 66
  1
  0
VERTEX
  8
gg1
 10
2.615000
 20
1.950000
  0
VERTEX
  8
gg1
 10
2.635000
 20
1.950000
  0
SEQEND
  8
gg1
  0
POLYLINE
  8
gg1
 62
1
 40
0.000000
 41
0.000000
 66
  1
  0
VERTEX
  8
gg1
 10
2.625000
 20
1.940000
  0
VERTEX
  8
gg1
 10
2.625000
 20
1.960000
  0
SEQEND
  8
gg1
  0
POLYLINE
  8
gg1
 62
1
 40
0.000000
 41
0.000000
 66
  1
  0
VERTEX
  8
gg1
 10
2.615000
 20
2.225000
  0
VERTEX
  8
gg1
 10
2.635000
 20
2.225000
  0
SEQEND
  8
gg1
  0
POLYLINE
  8
gg1
 62
1
 40
0.000000
 41
0.000000
 66
  1
  0
VERTEX
  8
gg1
 10
2.625000
 20
2.215000
  0
VERTEX
  8
gg1
 10
2.625000
 20
2.235000
  0
SEQEND
  8
gg1
  0
POLYLINE
  8
gg1
 62
1
 40
0.000000
 41
0.000000
 66
  1
  0
VERTEX
  8
gg1
 10
2.565000
 20
2.000000
  0
VERTEX
  8
gg1
 10
2.585000
 20
2.000000
  0
SEQEND
  8
gg1
  0
POLYLINE
  8
gg1
 62
1
 40
0.000000
 41
0.000000
 66
  1
  0
VERTEX
  8
gg1
 10
2.575000
 20
1.990000
  0
VERTEX
  8
gg1
 10
2.575000
 20
2.010000
  0
SEQEND
  8
gg1
  0
POLYLINE
  8
gg1
 62
1
 40
0.000000
 41
0.000000
 66
  1
  0
VERTEX
  8
gg1
 10
2.565000
 20
1.900000
  0
VERTEX
  8
gg1
 10
2.585000
 20
1.900000
  0
SEQEND
  8
gg1
  0
POLYLINE
  8
gg1
 62
1
 40
0.000000
 41
0.000000
 66
  1
  0
VERTEX
  8
gg1
 10
2.575000
 20
1.890000
  0
VERTEX
  8
gg1
 10
2.575000
 20
1.910000
  0
SEQEND
  8
gg1
  0
POLYLINE
  8
gg1
 62
1
 40
0.000000
 41
0.000000
 66
  1
  0
VERTEX
  8
gg1
 10
2.615000
 20
1.775000
  0
VERTEX
  8
gg1
 10
2.635000
 20
1.775000
  0
SEQEND
  8
gg1
  0
POLYLINE
  8
gg1
 62
1
 40
0.000000
 41
0.000000
 66
  1
  0
VERTEX
  8
gg1
 10
2.625000
 20
1.765000
  0
VERTEX
  8
gg1
 10
2.625000
 20
1.785000
  0
SEQEND
  8
gg1
  0
POLYLINE
  8
gg1
 62
1
 40
0.000000
 41
0.000000
 66
  1
  0
VERTEX
  8
gg1
 10
2.565000
 20
1.770000
  0
VERTEX
  8
gg1
 10
2.585000
 20
1.770000
  0
SEQEND
  8
gg1
  0
POLYLINE
  8
gg1
 62
1
 40
0.000000
 41
0.000000
 66
  1
  0
VERTEX
  8
gg1
 10
2.575000
 20
1.760000
  0
VERTEX
  8
gg1
 10
2.575000
 20
1.780000
  0
SEQEND
  8
gg1
  0
POLYLINE
  8
gg1
 62
1
 40
0.000000
 41
0.000000
 66
  1
  0
VERTEX
  8
gg1
 10
2.665000
 20
1.800000
  0
VERTEX
  8
gg1
 10
2.685000
 20
1.800000
  0
SEQEND
  8
gg1
  0
POLYLINE
  8
gg1
 62
1
 40
0.000000
 41
0.000000
 66
  1
  0
VERTEX
  8
gg1
 10
2.675000
 20
1.790000
  0
VERTEX
  8
gg1
 10
2.675000
 20
1.810000
  0
SEQEND
  8
gg1
  0
POLYLINE
  8
gg1
 62
1
 40
0.000000
 41
0.000000
 66
  1
  0
VERTEX
  8
gg1
 10
2.665000
 20
1.900000
  0
VERTEX
  8
gg1
 10
2.685000
 20
1.900000
  0
SEQEND
  8
gg1
  0
POLYLINE
  8
gg1
 62
1
 40
0.000000
 41
0.000000
 66
  1
  0
VERTEX
  8
gg1
 10
2.675000
 20
1.890000
  0
VERTEX
  8
gg1
 10
2.675000
 20
1.910000
  0
SEQEND
  8
gg1
  0
POLYLINE
  8
gg1
 62
1
 40
0.000000
 41
0.000000
 66
  1
  0
VERTEX
  8
gg1
 10
2.615000
 20
2.150000
  0
VERTEX
  8
gg1
 10
2.635000
 20
2.150000
  0
SEQEND
  8
gg1
  0
POLYLINE
  8
gg1
 62
1
 40
0.000000
 41
0.000000
 66
  1
  0
VERTEX
  8
gg1
 10
2.625000
 20
2.140000
  0
VERTEX
  8
gg1
 10
2.625000
 20
2.160000
  0
SEQEND
  8
gg1
  0
POLYLINE
  8
gg1
 62
1
 40
0.000000
 41
0.000000
 66
  1
  0
VERTEX
  8
gg1
 10
2.615000
 20
1.850000
  0
VERTEX
  8
gg1
 10
2.635000
 20
1.850000
  0
SEQEND
  8
gg1
  0
POLYLINE
  8
gg1
 62
1
 40
0.000000
 41
0.000000
 66
  1
  0
VERTEX
  8
gg1
 10
2.625000
 20
1.840000
  0
VERTEX
  8
gg1
 10
2.625000
 20
1.860000
  0
SEQEND
  8
gg1
  0
POLYLINE
  8
gg1
 62
1
 40
0.000000
 41
0.000000
 66
  1
  0
VERTEX
  8
gg1
 10
2.715000
 20
1.850000
  0
VERTEX
  8
gg1
 10
2.735000
 20
1.850000
  0
SEQEND
  8
gg1
  0
POLYLINE
  8
gg1
 62
1
 40
0.000000
 41
0.000000
 66
  1
  0
VERTEX
  8
gg1
 10
2.725000
 20
1.840000
  0
VERTEX
  8
gg1
 10
2.725000
 20
1.860000
  0
SEQEND
  8
gg1
  0
POLYLINE
  8
gg1
 62
1
 40
0.000000
 41
0.000000
 66
  1
  0
VERTEX
  8
gg1
 10
2.715000
 20
1.950000
  0
VERTEX
  8
gg1
 10
2.735000
 20
1.950000
  0
SEQEND
  8
gg1
  0
POLYLINE
  8
gg1
 62
1
 40
0.000000
 41
0.000000
 66
  1
  0
VERTEX
  8
gg1
 10
2.725000
 20
1.940000
  0
VERTEX
  8
gg1
 10
2.725000
 20
1.960000
  0
SEQEND
  8
gg1
  0
POLYLINE
  8
gg1
 62
1
 40
0.000000
 41
0.000000
 66
  1
  0
VERTEX
  8
gg1
 10
2.665000
 20
2.000000
  0
VERTEX
  8
gg1
 10
2.685000
 20
2.000000
  0
SEQEND
  8
gg1
  0
POLYLINE
  8
gg1
 62
1
 40
0.000000
 41
0.000000
 66
  1
  0
VERTEX
  8
gg1
 10
2.675000
 20
1.990000
  0
VERTEX
  8
gg1
 10
2.675000
 20
2.010000
  0
SEQEND
  8
gg1
  0
POLYLINE
  8
gg1
 62
1
 40
0.000000
 41
0.000000
 66
  1
  0
VERTEX
  8
gg1
 10
2.665000
 20
2.100000
  0
VERTEX
  8
gg1
 10
2.685000
 20
2.100000
  0
SEQEND
  8
gg1
  0
POLYLINE
  8
gg1
 62
1
 40
0.000000
 41
0.000000
 66
  1
  0
VERTEX
  8
gg1
 10
2.675000
 20
2.090000
  0
VERTEX
  8
gg1
 10
2.675000
 20
2.110000
  0
SEQEND
  8
gg1
  0
POLYLINE
  8
gg1
 62
1
 40
0.000000
 41
0.000000
 66
  1
  0
VERTEX
  8
gg1
 10
2.715000
 20
2.150000
  0
VERTEX
  8
gg1
 10
2.735000
 20
2.150000
  0
SEQEND
  8
gg1
  0
POLYLINE
  8
gg1
 62
1
 40
0.000000
 41
0.000000
 66
  1
  0
VERTEX
  8
gg1
 10
2.725000
 20
2.140000
  0
VERTEX
  8
gg1
 10
2.725000
 20
2.160000
  0
SEQEND
  8
gg1
  0
POLYLINE
  8
gg1
 62
1
 40
0.000000
 41
0.000000
 66
  1
  0
VERTEX
  8
gg1
 10
2.715000
 20
2.050000
  0
VERTEX
  8
gg1
 10
2.735000
 20
2.050000
  0
SEQEND
  8
gg1
  0
POLYLINE
  8
gg1
 62
1
 40
0.000000
 41
0.000000
 66
  1
  0
VERTEX
  8
gg1
 10
2.725000
 20
2.040000
  0
VERTEX
  8
gg1
 10
2.725000
 20
2.060000
  0
SEQEND
  8
gg1
  0
POLYLINE
  8
gg1
 62
1
 40
0.000000
 41
0.000000
 66
  1
  0
VERTEX
  8
gg1
 10
2.735000
 20
2.230000
  0
VERTEX
  8
gg1
 10
2.755000
 20
2.230000
  0
SEQEND
  8
gg1
  0
POLYLINE
  8
gg1
 62
1
 40
0.000000
 41
0.000000
 66
  1
  0
VERTEX
  8
gg1
 10
2.745000
 20
2.220000
  0
VERTEX
  8
gg1
 10
2.745000
 20
2.240000
  0
SEQEND
  8
gg1
  0
POLYLINE
  8
gg1
 62
1
 40
0.000000
 41
0.000000
 66
  1
  0
VERTEX
  8
gg1
 10
1.075000
 20
1.465000
  0
VERTEX
  8
gg1
 10
1.095000
 20
1.465000
  0
SEQEND
  8
gg1
  0
POLYLINE
  8
gg1
 62
1
 40
0.000000
 41
0.000000
 66
  1
  0
VERTEX
  8
gg1
 10
1.085000
 20
1.455000
  0
VERTEX
  8
gg1
 10
1.085000
 20
1.475000
  0
SEQEND
  8
gg1
  0
POLYLINE
  8
gg1
 62
1
 40
0.000000
 41
0.000000
 66
  1
  0
VERTEX
  8
gg1
 10
1.050000
 20
1.415000
  0
VERTEX
  8
gg1
 10
1.070000
 20
1.415000
  0
SEQEND
  8
gg1
  0
POLYLINE
  8
gg1
 62
1
 40
0.000000
 41
0.000000
 66
  1
  0
VERTEX
  8
gg1
 10
1.060000
 20
1.405000
  0
VERTEX
  8
gg1
 10
1.060000
 20
1.425000
  0
SEQEND
  8
gg1
  0
POLYLINE
  8
gg1
 62
1
 40
0.000000
 41
0.000000
 66
  1
  0
VERTEX
  8
gg1
 10
2.822500
 20
0.705000
  0
VERTEX
  8
gg1
 10
2.837500
 20
0.705000
  0
SEQEND
  8
gg1
  0
POLYLINE
  8
gg1
 62
1
 40
0.000000
 41
0.000000
 66
  1
  0
VERTEX
  8
gg1
 10
2.830000
 20
0.697500
  0
VERTEX
  8
gg1
 10
2.830000
 20
0.712500
  0
SEQEND
  8
gg1
  0
POLYLINE
  8
gg1
 62
1
 40
0.000000
 41
0.000000
 66
  1
  0
VERTEX
  8
gg1
 10
2.552500
 20
0.510000
  0
VERTEX
  8
gg1
 10
2.567500
 20
0.510000
  0
SEQEND
  8
gg1
  0
POLYLINE
  8
gg1
 62
1
 40
0.000000
 41
0.000000
 66
  1
  0
VERTEX
  8
gg1
 10
2.560000
 20
0.502500
  0
VERTEX
  8
gg1
 10
2.560000
 20
0.517500
  0
SEQEND
  8
gg1
  0
POLYLINE
  8
gg1
 62
1
 40
0.000000
 41
0.000000
 66
  1
  0
VERTEX
  8
gg1
 10
2.442500
 20
0.335000
  0
VERTEX
  8
gg1
 10
2.457500
 20
0.335000
  0
SEQEND
  8
gg1
  0
POLYLINE
  8
gg1
 62
1
 40
0.000000
 41
0.000000
 66
  1
  0
VERTEX
  8
gg1
 10
2.450000
 20
0.327500
  0
VERTEX
  8
gg1
 10
2.450000
 20
0.342500
  0
SEQEND
  8
gg1
  0
POLYLINE
  8
gg1
 62
1
 40
0.000000
 41
0.000000
 66
  1
  0
VERTEX
  8
gg1
 10
2.732500
 20
0.390000
  0
VERTEX
  8
gg1
 10
2.747500
 20
0.390000
  0
SEQEND
  8
gg1
  0
POLYLINE
  8
gg1
 62
1
 40
0.000000
 41
0.000000
 66
  1
  0
VERTEX
  8
gg1
 10
2.740000
 20
0.382500
  0
VERTEX
  8
gg1
 10
2.740000
 20
0.397500
  0
SEQEND
  8
gg1
  0
POLYLINE
  8
gg1
 62
1
 40
0.000000
 41
0.000000
 66
  1
  0
VERTEX
  8
gg1
 10
2.547500
 20
0.860000
  0
VERTEX
  8
gg1
 10
2.562500
 20
0.860000
  0
SEQEND
  8
gg1
  0
POLYLINE
  8
gg1
 62
1
 40
0.000000
 41
0.000000
 66
  1
  0
VERTEX
  8
gg1
 10
2.555000
 20
0.852500
  0
VERTEX
  8
gg1
 10
2.555000
 20
0.867500
  0
SEQEND
  8
gg1
  0
POLYLINE
  8
gg1
 62
1
 40
0.000000
 41
0.000000
 66
  1
  0
VERTEX
  8
gg1
 10
2.742500
 20
0.860000
  0
VERTEX
  8
gg1
 10
2.757500
 20
0.860000
  0
SEQEND
  8
gg1
  0
POLYLINE
  8
gg1
 62
1
 40
0.000000
 41
0.000000
 66
  1
  0
VERTEX
  8
gg1
 10
2.750000
 20
0.852500
  0
VERTEX
  8
gg1
 10
2.750000
 20
0.867500
  0
SEQEND
  8
gg1
  0
ENDSEC
  0
EOF
