  0
SECTION
  2
HEADER
  9
$EXTMIN
 10
-0.177000
 20
-0.428000
  9
$EXTMAX
 10
0.405000
 20
0.505000
  9
$LIMMIN
 10
-0.177000
 20
-0.428000
  9
$LIMMAX
 10
0.405000
 20
0.505000
  9
$FILLMODE
 70
  1
  0
ENDSEC
  0
SECTION
  2
TABLES
  0
TABLE
  2
LTYPE
 70
  1
  0
LTYPE
  2
CONTINUOUS
 70
 64
  3
Solid line
 72
 65
 73
  0
 40
0.0
  0
ENDTAB
  0
TABLE
  2
LAYER
 70
 1
  0
LAYER
  2
0
 70
  0
 62
7
  6
CONTINUOUS
  0
LAYER
  2
gg1
 70
  0
 62
1
  6
CONTINUOUS
  0
ENDTAB
  0
TABLE
  2
STYLE
 70
  1
  0
STYLE
  2
STANDARD
 70
  0
 40
0.0
 41
1.0
 50
0.0
 71
  0
 42
0.2
  3
txt
  4

  0
ENDTAB
  0
ENDSEC
  0
SECTION
  2
BLOCKS
  0
BLOCK
  8
0
  2
D10
 70
64
 10
0.0
 20
0.0
  3
D10
  0
CIRCLE
  8
0
 10
0.000000
 20
0.000000
 40
0.005000
 0
ENDBLK
  8
0
  0
BLOCK
  8
0
  2
D11
 70
64
 10
0.0
 20
0.0
  3
D11
  0
CIRCLE
  8
0
 10
0.000000
 20
0.000000
 40
0.003950
 0
ENDBLK
  8
0
  0
BLOCK
  8
0
  2
D12
 70
64
 10
0.0
 20
0.0
  3
D12
  0
CIRCLE
  8
0
 10
0.000000
 20
0.000000
 40
0.003000
 0
ENDBLK
  8
0
  0
BLOCK
  8
0
  2
D13
 70
64
 10
0.0
 20
0.0
  3
D13
  0
CIRCLE
  8
0
 10
0.000000
 20
0.000000
 40
0.002500
 0
ENDBLK
  8
0
  0
ENDSEC
  0
SECTION
  2
ENTITIES
  0
POLYLINE
  8
gg1
 62
1
 40
0.000000
 41
0.000000
 66
  1
  0
VERTEX
  8
gg1
 10
0.400000
 20
-0.335000
  0
VERTEX
  8
gg1
 10
0.400000
 20
-0.013900
  0
SEQEND
  8
gg1
  0
POLYLINE
  8
gg1
 62
1
 40
0.000000
 41
0.000000
 66
  1
  0
VERTEX
  8
gg1
 10
0.000000
 20
-0.335000
  0
VERTEX
  8
gg1
 10
0.000000
 20
-0.013900
  0
SEQEND
  8
gg1
  0
POLYLINE
  8
gg1
 62
1
 40
0.000000
 41
0.000000
 66
  1
  0
VERTEX
  8
gg1
 10
0.200000
 20
-0.325000
  0
VERTEX
  8
gg1
 10
0.400000
 20
-0.325000
  0
SEQEND
  8
gg1
  0
POLYLINE
  8
gg1
 62
1
 40
0.000000
 41
0.000000
 66
  1
  0
VERTEX
  8
gg1
 10
0.000000
 20
-0.325000
  0
VERTEX
  8
gg1
 10
0.200000
 20
-0.325000
  0
SEQEND
  8
gg1
  0
POLYLINE
  8
gg1
 62
1
 40
0.000000
 41
0.000000
 66
  1
  0
VERTEX
  8
gg1
 10
0.340000
 20
-0.305000
  0
VERTEX
  8
gg1
 10
0.400000
 20
-0.325000
  0
SEQEND
  8
gg1
  0
POLYLINE
  8
gg1
 62
1
 40
0.000000
 41
0.000000
 66
  1
  0
VERTEX
  8
gg1
 10
0.340000
 20
-0.345000
  0
VERTEX
  8
gg1
 10
0.400000
 20
-0.325000
  0
SEQEND
  8
gg1
  0
POLYLINE
  8
gg1
 62
1
 40
0.000000
 41
0.000000
 66
  1
  0
VERTEX
  8
gg1
 10
0.000000
 20
-0.325000
  0
VERTEX
  8
gg1
 10
0.060000
 20
-0.345000
  0
SEQEND
  8
gg1
  0
POLYLINE
  8
gg1
 62
1
 40
0.000000
 41
0.000000
 66
  1
  0
VERTEX
  8
gg1
 10
0.000000
 20
-0.325000
  0
VERTEX
  8
gg1
 10
0.060000
 20
-0.305000
  0
SEQEND
  8
gg1
  0
POLYLINE
  8
gg1
 62
1
 40
0.000000
 41
0.000000
 66
  1
  0
VERTEX
  8
gg1
 10
-0.160000
 20
0.500000
  0
VERTEX
  8
gg1
 10
-0.010000
 20
0.500000
  0
SEQEND
  8
gg1
  0
POLYLINE
  8
gg1
 62
1
 40
0.000000
 41
0.000000
 66
  1
  0
VERTEX
  8
gg1
 10
-0.160000
 20
0.000000
  0
VERTEX
  8
gg1
 10
-0.013900
 20
0.000000
  0
SEQEND
  8
gg1
  0
POLYLINE
  8
gg1
 62
1
 40
0.000000
 41
0.000000
 66
  1
  0
VERTEX
  8
gg1
 10
-0.150000
 20
0.404900
  0
VERTEX
  8
gg1
 10
-0.150000
 20
0.500000
  0
SEQEND
  8
gg1
  0
POLYLINE
  8
gg1
 62
1
 40
0.000000
 41
0.000000
 66
  1
  0
VERTEX
  8
gg1
 10
-0.150000
 20
0.000000
  0
VERTEX
  8
gg1
 10
-0.150000
 20
0.063100
  0
SEQEND
  8
gg1
  0
POLYLINE
  8
gg1
 62
1
 40
0.000000
 41
0.000000
 66
  1
  0
VERTEX
  8
gg1
 10
-0.170000
 20
0.440000
  0
VERTEX
  8
gg1
 10
-0.150000
 20
0.500000
  0
VERTEX
  8
gg1
 10
-0.130000
 20
0.440000
  0
SEQEND
  8
gg1
  0
POLYLINE
  8
gg1
 62
1
 40
0.000000
 41
0.000000
 66
  1
  0
VERTEX
  8
gg1
 10
-0.150000
 20
0.000000
  0
VERTEX
  8
gg1
 10
-0.130000
 20
0.060000
  0
SEQEND
  8
gg1
  0
POLYLINE
  8
gg1
 62
1
 40
0.000000
 41
0.000000
 66
  1
  0
VERTEX
  8
gg1
 10
-0.170000
 20
0.060000
  0
VERTEX
  8
gg1
 10
-0.150000
 20
0.000000
  0
SEQEND
  8
gg1
  0
POLYLINE
  8
gg1
 62
1
 40
0.000000
 41
0.000000
 66
  1
  0
VERTEX
  8
gg1
 10
0.000000
 20
0.000000
  0
VERTEX
  8
gg1
 10
0.000000
 20
0.500000
  0
SEQEND
  8
gg1
  0
POLYLINE
  8
gg1
 62
1
 40
0.000000
 41
0.000000
 66
  1
  0
VERTEX
  8
gg1
 10
0.000000
 20
0.000000
  0
VERTEX
  8
gg1
 10
0.400000
 20
0.000000
  0
VERTEX
  8
gg1
 10
0.400000
 20
0.500000
  0
SEQEND
  8
gg1
  0
POLYLINE
  8
gg1
 62
1
 40
0.000000
 41
0.000000
 66
  1
  0
VERTEX
  8
gg1
 10
0.000000
 20
0.500000
  0
VERTEX
  8
gg1
 10
0.400000
 20
0.500000
  0
SEQEND
  8
gg1
  0
POLYLINE
  8
gg1
 62
1
 40
0.000000
 41
0.000000
 66
  1
  0
VERTEX
  8
gg1
 10
0.080000
 20
-0.425000
  0
VERTEX
  8
gg1
 10
0.080000
 20
-0.365000
  0
VERTEX
  8
gg1
 10
0.050000
 20
-0.395000
  0
VERTEX
  8
gg1
 10
0.090000
 20
-0.395000
  0
SEQEND
  8
gg1
  0
POLYLINE
  8
gg1
 62
1
 40
0.000000
 41
0.000000
 66
  1
  0
VERTEX
  8
gg1
 10
0.110000
 20
-0.375000
  0
VERTEX
  8
gg1
 10
0.120000
 20
-0.365000
  0
VERTEX
  8
gg1
 10
0.140000
 20
-0.365000
  0
VERTEX
  8
gg1
 10
0.150000
 20
-0.375000
  0
VERTEX
  8
gg1
 10
0.150000
 20
-0.415000
  0
VERTEX
  8
gg1
 10
0.140000
 20
-0.425000
  0
VERTEX
  8
gg1
 10
0.120000
 20
-0.425000
  0
VERTEX
  8
gg1
 10
0.110000
 20
-0.415000
  0
VERTEX
  8
gg1
 10
0.110000
 20
-0.375000
  0
SEQEND
  8
gg1
  0
POLYLINE
  8
gg1
 62
1
 40
0.000000
 41
0.000000
 66
  1
  0
VERTEX
  8
gg1
 10
0.170000
 20
-0.375000
  0
VERTEX
  8
gg1
 10
0.180000
 20
-0.365000
  0
VERTEX
  8
gg1
 10
0.200000
 20
-0.365000
  0
VERTEX
  8
gg1
 10
0.209900
 20
-0.375000
  0
VERTEX
  8
gg1
 10
0.209900
 20
-0.415000
  0
VERTEX
  8
gg1
 10
0.200000
 20
-0.425000
  0
VERTEX
  8
gg1
 10
0.180000
 20
-0.425000
  0
VERTEX
  8
gg1
 10
0.170000
 20
-0.415000
  0
VERTEX
  8
gg1
 10
0.170000
 20
-0.375000
  0
SEQEND
  8
gg1
  0
POLYLINE
  8
gg1
 62
1
 40
0.000000
 41
0.000000
 66
  1
  0
VERTEX
  8
gg1
 10
0.229900
 20
-0.425000
  0
VERTEX
  8
gg1
 10
0.229900
 20
-0.385000
  0
VERTEX
  8
gg1
 10
0.239900
 20
-0.385000
  0
VERTEX
  8
gg1
 10
0.249900
 20
-0.395000
  0
VERTEX
  8
gg1
 10
0.249900
 20
-0.425000
  0
VERTEX
  8
gg1
 10
0.249900
 20
-0.395000
  0
VERTEX
  8
gg1
 10
0.259900
 20
-0.385000
  0
VERTEX
  8
gg1
 10
0.269900
 20
-0.395000
  0
VERTEX
  8
gg1
 10
0.269900
 20
-0.425000
  0
SEQEND
  8
gg1
  0
POLYLINE
  8
gg1
 62
1
 40
0.000000
 41
0.000000
 66
  1
  0
VERTEX
  8
gg1
 10
0.289900
 20
-0.425000
  0
VERTEX
  8
gg1
 10
0.309900
 20
-0.425000
  0
VERTEX
  8
gg1
 10
0.299900
 20
-0.425000
  0
VERTEX
  8
gg1
 10
0.299900
 20
-0.385000
  0
VERTEX
  8
gg1
 10
0.289900
 20
-0.385000
  0
SEQEND
  8
gg1
  0
POLYLINE
  8
gg1
 62
1
 40
0.000000
 41
0.000000
 66
  1
  0
VERTEX
  8
gg1
 10
0.339900
 20
-0.425000
  0
VERTEX
  8
gg1
 10
0.359900
 20
-0.425000
  0
VERTEX
  8
gg1
 10
0.349900
 20
-0.425000
  0
VERTEX
  8
gg1
 10
0.349900
 20
-0.365000
  0
VERTEX
  8
gg1
 10
0.339900
 20
-0.365000
  0
SEQEND
  8
gg1
  0
POLYLINE
  8
gg1
 62
1
 40
0.000000
 41
0.000000
 66
  1
  0
VERTEX
  8
gg1
 10
-0.174000
 20
0.119000
  0
VERTEX
  8
gg1
 10
-0.174000
 20
0.079000
  0
VERTEX
  8
gg1
 10
-0.144000
 20
0.079000
  0
VERTEX
  8
gg1
 10
-0.154000
 20
0.099000
  0
VERTEX
  8
gg1
 10
-0.154000
 20
0.109000
  0
VERTEX
  8
gg1
 10
-0.144000
 20
0.119000
  0
VERTEX
  8
gg1
 10
-0.124000
 20
0.119000
  0
VERTEX
  8
gg1
 10
-0.114000
 20
0.109000
  0
VERTEX
  8
gg1
 10
-0.114000
 20
0.089000
  0
VERTEX
  8
gg1
 10
-0.124000
 20
0.079000
  0
SEQEND
  8
gg1
  0
POLYLINE
  8
gg1
 62
1
 40
0.000000
 41
0.000000
 66
  1
  0
VERTEX
  8
gg1
 10
-0.164000
 20
0.139000
  0
VERTEX
  8
gg1
 10
-0.174000
 20
0.149000
  0
VERTEX
  8
gg1
 10
-0.174000
 20
0.169000
  0
VERTEX
  8
gg1
 10
-0.164000
 20
0.179000
  0
VERTEX
  8
gg1
 10
-0.124000
 20
0.179000
  0
VERTEX
  8
gg1
 10
-0.114000
 20
0.169000
  0
VERTEX
  8
gg1
 10
-0.114000
 20
0.149000
  0
VERTEX
  8
gg1
 10
-0.124000
 20
0.139000
  0
VERTEX
  8
gg1
 10
-0.164000
 20
0.139000
  0
SEQEND
  8
gg1
  0
POLYLINE
  8
gg1
 62
1
 40
0.000000
 41
0.000000
 66
  1
  0
VERTEX
  8
gg1
 10
-0.164000
 20
0.199000
  0
VERTEX
  8
gg1
 10
-0.174000
 20
0.209000
  0
VERTEX
  8
gg1
 10
-0.174000
 20
0.229000
  0
VERTEX
  8
gg1
 10
-0.164000
 20
0.239000
  0
VERTEX
  8
gg1
 10
-0.124000
 20
0.239000
  0
VERTEX
  8
gg1
 10
-0.114000
 20
0.229000
  0
VERTEX
  8
gg1
 10
-0.114000
 20
0.209000
  0
VERTEX
  8
gg1
 10
-0.124000
 20
0.199000
  0
VERTEX
  8
gg1
 10
-0.164000
 20
0.199000
  0
SEQEND
  8
gg1
  0
POLYLINE
  8
gg1
 62
1
 40
0.000000
 41
0.000000
 66
  1
  0
VERTEX
  8
gg1
 10
-0.114000
 20
0.259000
  0
VERTEX
  8
gg1
 10
-0.154000
 20
0.259000
  0
VERTEX
  8
gg1
 10
-0.154000
 20
0.269000
  0
VERTEX
  8
gg1
 10
-0.144000
 20
0.279000
  0
VERTEX
  8
gg1
 10
-0.114000
 20
0.279000
  0
VERTEX
  8
gg1
 10
-0.144000
 20
0.279000
  0
VERTEX
  8
gg1
 10
-0.154000
 20
0.289000
  0
VERTEX
  8
gg1
 10
-0.144000
 20
0.299000
  0
VERTEX
  8
gg1
 10
-0.114000
 20
0.299000
  0
SEQEND
  8
gg1
  0
POLYLINE
  8
gg1
 62
1
 40
0.000000
 41
0.000000
 66
  1
  0
VERTEX
  8
gg1
 10
-0.114000
 20
0.319000
  0
VERTEX
  8
gg1
 10
-0.114000
 20
0.339000
  0
VERTEX
  8
gg1
 10
-0.114000
 20
0.329000
  0
VERTEX
  8
gg1
 10
-0.154000
 20
0.329000
  0
VERTEX
  8
gg1
 10
-0.154000
 20
0.319000
  0
SEQEND
  8
gg1
  0
POLYLINE
  8
gg1
 62
1
 40
0.000000
 41
0.000000
 66
  1
  0
VERTEX
  8
gg1
 10
-0.114000
 20
0.369000
  0
VERTEX
  8
gg1
 10
-0.114000
 20
0.388900
  0
VERTEX
  8
gg1
 10
-0.114000
 20
0.379000
  0
VERTEX
  8
gg1
 10
-0.174000
 20
0.379000
  0
VERTEX
  8
gg1
 10
-0.174000
 20
0.369000
  0
SEQEND
  8
gg1
  0
POLYLINE
  8
gg1
 62
1
 40
0.000000
 41
0.000000
 66
  1
  0
VERTEX
  8
gg1
 10
0.030000
 20
0.050000
  0
VERTEX
  8
gg1
 10
0.070000
 20
0.050000
  0
SEQEND
  8
gg1
  0
POLYLINE
  8
gg1
 62
1
 40
0.000000
 41
0.000000
 66
  1
  0
VERTEX
  8
gg1
 10
0.050000
 20
0.030000
  0
VERTEX
  8
gg1
 10
0.050000
 20
0.070000
  0
SEQEND
  8
gg1
  0
POLYLINE
  8
gg1
 62
1
 40
0.000000
 41
0.000000
 66
  1
  0
VERTEX
  8
gg1
 10
0.330000
 20
0.050000
  0
VERTEX
  8
gg1
 10
0.370000
 20
0.050000
  0
SEQEND
  8
gg1
  0
POLYLINE
  8
gg1
 62
1
 40
0.000000
 41
0.000000
 66
  1
  0
VERTEX
  8
gg1
 10
0.350000
 20
0.030000
  0
VERTEX
  8
gg1
 10
0.350000
 20
0.070000
  0
SEQEND
  8
gg1
  0
POLYLINE
  8
gg1
 62
1
 40
0.000000
 41
0.000000
 66
  1
  0
VERTEX
  8
gg1
 10
0.230000
 20
0.050000
  0
VERTEX
  8
gg1
 10
0.270000
 20
0.050000
  0
SEQEND
  8
gg1
  0
POLYLINE
  8
gg1
 62
1
 40
0.000000
 41
0.000000
 66
  1
  0
VERTEX
  8
gg1
 10
0.250000
 20
0.030000
  0
VERTEX
  8
gg1
 10
0.250000
 20
0.070000
  0
SEQEND
  8
gg1
  0
POLYLINE
  8
gg1
 62
1
 40
0.000000
 41
0.000000
 66
  1
  0
VERTEX
  8
gg1
 10
0.130000
 20
0.050000
  0
VERTEX
  8
gg1
 10
0.170000
 20
0.050000
  0
SEQEND
  8
gg1
  0
POLYLINE
  8
gg1
 62
1
 40
0.000000
 41
0.000000
 66
  1
  0
VERTEX
  8
gg1
 10
0.150000
 20
0.030000
  0
VERTEX
  8
gg1
 10
0.150000
 20
0.070000
  0
SEQEND
  8
gg1
  0
POLYLINE
  8
gg1
 62
1
 40
0.000000
 41
0.000000
 66
  1
  0
VERTEX
  8
gg1
 10
0.053500
 20
0.242000
  0
VERTEX
  8
gg1
 10
0.068500
 20
0.242000
  0
SEQEND
  8
gg1
  0
POLYLINE
  8
gg1
 62
1
 40
0.000000
 41
0.000000
 66
  1
  0
VERTEX
  8
gg1
 10
0.061000
 20
0.234500
  0
VERTEX
  8
gg1
 10
0.061000
 20
0.249500
  0
SEQEND
  8
gg1
  0
POLYLINE
  8
gg1
 62
1
 40
0.000000
 41
0.000000
 66
  1
  0
VERTEX
  8
gg1
 10
0.034500
 20
0.205000
  0
VERTEX
  8
gg1
 10
0.049500
 20
0.205000
  0
SEQEND
  8
gg1
  0
POLYLINE
  8
gg1
 62
1
 40
0.000000
 41
0.000000
 66
  1
  0
VERTEX
  8
gg1
 10
0.042000
 20
0.197500
  0
VERTEX
  8
gg1
 10
0.042000
 20
0.212500
  0
SEQEND
  8
gg1
  0
POLYLINE
  8
gg1
 62
1
 40
0.000000
 41
0.000000
 66
  1
  0
VERTEX
  8
gg1
 10
0.074500
 20
0.417000
  0
VERTEX
  8
gg1
 10
0.089500
 20
0.417000
  0
SEQEND
  8
gg1
  0
POLYLINE
  8
gg1
 62
1
 40
0.000000
 41
0.000000
 66
  1
  0
VERTEX
  8
gg1
 10
0.082000
 20
0.409500
  0
VERTEX
  8
gg1
 10
0.082000
 20
0.424500
  0
SEQEND
  8
gg1
  0
POLYLINE
  8
gg1
 62
1
 40
0.000000
 41
0.000000
 66
  1
  0
VERTEX
  8
gg1
 10
0.082500
 20
0.457000
  0
VERTEX
  8
gg1
 10
0.097500
 20
0.457000
  0
SEQEND
  8
gg1
  0
POLYLINE
  8
gg1
 62
1
 40
0.000000
 41
0.000000
 66
  1
  0
VERTEX
  8
gg1
 10
0.090000
 20
0.449500
  0
VERTEX
  8
gg1
 10
0.090000
 20
0.464500
  0
SEQEND
  8
gg1
  0
POLYLINE
  8
gg1
 62
1
 40
0.000000
 41
0.000000
 66
  1
  0
VERTEX
  8
gg1
 10
0.327500
 20
0.115000
  0
VERTEX
  8
gg1
 10
0.342500
 20
0.115000
  0
SEQEND
  8
gg1
  0
POLYLINE
  8
gg1
 62
1
 40
0.000000
 41
0.000000
 66
  1
  0
VERTEX
  8
gg1
 10
0.335000
 20
0.107500
  0
VERTEX
  8
gg1
 10
0.335000
 20
0.122500
  0
SEQEND
  8
gg1
  0
POLYLINE
  8
gg1
 62
1
 40
0.000000
 41
0.000000
 66
  1
  0
VERTEX
  8
gg1
 10
0.327500
 20
0.145000
  0
VERTEX
  8
gg1
 10
0.342500
 20
0.145000
  0
SEQEND
  8
gg1
  0
POLYLINE
  8
gg1
 62
1
 40
0.000000
 41
0.000000
 66
  1
  0
VERTEX
  8
gg1
 10
0.335000
 20
0.137500
  0
VERTEX
  8
gg1
 10
0.335000
 20
0.152500
  0
SEQEND
  8
gg1
  0
POLYLINE
  8
gg1
 62
1
 40
0.000000
 41
0.000000
 66
  1
  0
VERTEX
  8
gg1
 10
0.327500
 20
0.175000
  0
VERTEX
  8
gg1
 10
0.342500
 20
0.175000
  0
SEQEND
  8
gg1
  0
POLYLINE
  8
gg1
 62
1
 40
0.000000
 41
0.000000
 66
  1
  0
VERTEX
  8
gg1
 10
0.335000
 20
0.167500
  0
VERTEX
  8
gg1
 10
0.335000
 20
0.182500
  0
SEQEND
  8
gg1
  0
POLYLINE
  8
gg1
 62
1
 40
0.000000
 41
0.000000
 66
  1
  0
VERTEX
  8
gg1
 10
0.327500
 20
0.205000
  0
VERTEX
  8
gg1
 10
0.342500
 20
0.205000
  0
SEQEND
  8
gg1
  0
POLYLINE
  8
gg1
 62
1
 40
0.000000
 41
0.000000
 66
  1
  0
VERTEX
  8
gg1
 10
0.335000
 20
0.197500
  0
VERTEX
  8
gg1
 10
0.335000
 20
0.212500
  0
SEQEND
  8
gg1
  0
POLYLINE
  8
gg1
 62
1
 40
0.000000
 41
0.000000
 66
  1
  0
VERTEX
  8
gg1
 10
0.257500
 20
0.110000
  0
VERTEX
  8
gg1
 10
0.272500
 20
0.110000
  0
SEQEND
  8
gg1
  0
POLYLINE
  8
gg1
 62
1
 40
0.000000
 41
0.000000
 66
  1
  0
VERTEX
  8
gg1
 10
0.265000
 20
0.102500
  0
VERTEX
  8
gg1
 10
0.265000
 20
0.117500
  0
SEQEND
  8
gg1
  0
POLYLINE
  8
gg1
 62
1
 40
0.000000
 41
0.000000
 66
  1
  0
VERTEX
  8
gg1
 10
0.192500
 20
0.110000
  0
VERTEX
  8
gg1
 10
0.207500
 20
0.110000
  0
SEQEND
  8
gg1
  0
POLYLINE
  8
gg1
 62
1
 40
0.000000
 41
0.000000
 66
  1
  0
VERTEX
  8
gg1
 10
0.200000
 20
0.102500
  0
VERTEX
  8
gg1
 10
0.200000
 20
0.117500
  0
SEQEND
  8
gg1
  0
POLYLINE
  8
gg1
 62
1
 40
0.000000
 41
0.000000
 66
  1
  0
VERTEX
  8
gg1
 10
0.079500
 20
0.122000
  0
VERTEX
  8
gg1
 10
0.094500
 20
0.122000
  0
SEQEND
  8
gg1
  0
POLYLINE
  8
gg1
 62
1
 40
0.000000
 41
0.000000
 66
  1
  0
VERTEX
  8
gg1
 10
0.087000
 20
0.114500
  0
VERTEX
  8
gg1
 10
0.087000
 20
0.129500
  0
SEQEND
  8
gg1
  0
POLYLINE
  8
gg1
 62
1
 40
0.000000
 41
0.000000
 66
  1
  0
VERTEX
  8
gg1
 10
0.079500
 20
0.151000
  0
VERTEX
  8
gg1
 10
0.094500
 20
0.151000
  0
SEQEND
  8
gg1
  0
POLYLINE
  8
gg1
 62
1
 40
0.000000
 41
0.000000
 66
  1
  0
VERTEX
  8
gg1
 10
0.087000
 20
0.143500
  0
VERTEX
  8
gg1
 10
0.087000
 20
0.158500
  0
SEQEND
  8
gg1
  0
POLYLINE
  8
gg1
 62
1
 40
0.000000
 41
0.000000
 66
  1
  0
VERTEX
  8
gg1
 10
0.079500
 20
0.180000
  0
VERTEX
  8
gg1
 10
0.094500
 20
0.180000
  0
SEQEND
  8
gg1
  0
POLYLINE
  8
gg1
 62
1
 40
0.000000
 41
0.000000
 66
  1
  0
VERTEX
  8
gg1
 10
0.087000
 20
0.172500
  0
VERTEX
  8
gg1
 10
0.087000
 20
0.187500
  0
SEQEND
  8
gg1
  0
POLYLINE
  8
gg1
 62
1
 40
0.000000
 41
0.000000
 66
  1
  0
VERTEX
  8
gg1
 10
0.217500
 20
0.243000
  0
VERTEX
  8
gg1
 10
0.232500
 20
0.243000
  0
SEQEND
  8
gg1
  0
POLYLINE
  8
gg1
 62
1
 40
0.000000
 41
0.000000
 66
  1
  0
VERTEX
  8
gg1
 10
0.225000
 20
0.235500
  0
VERTEX
  8
gg1
 10
0.225000
 20
0.250500
  0
SEQEND
  8
gg1
  0
POLYLINE
  8
gg1
 62
1
 40
0.000000
 41
0.000000
 66
  1
  0
VERTEX
  8
gg1
 10
0.217500
 20
0.273000
  0
VERTEX
  8
gg1
 10
0.232500
 20
0.273000
  0
SEQEND
  8
gg1
  0
POLYLINE
  8
gg1
 62
1
 40
0.000000
 41
0.000000
 66
  1
  0
VERTEX
  8
gg1
 10
0.225000
 20
0.265500
  0
VERTEX
  8
gg1
 10
0.225000
 20
0.280500
  0
SEQEND
  8
gg1
  0
POLYLINE
  8
gg1
 62
1
 40
0.000000
 41
0.000000
 66
  1
  0
VERTEX
  8
gg1
 10
0.188500
 20
0.232000
  0
VERTEX
  8
gg1
 10
0.203500
 20
0.232000
  0
SEQEND
  8
gg1
  0
POLYLINE
  8
gg1
 62
1
 40
0.000000
 41
0.000000
 66
  1
  0
VERTEX
  8
gg1
 10
0.196000
 20
0.224500
  0
VERTEX
  8
gg1
 10
0.196000
 20
0.239500
  0
SEQEND
  8
gg1
  0
POLYLINE
  8
gg1
 62
1
 40
0.000000
 41
0.000000
 66
  1
  0
VERTEX
  8
gg1
 10
0.242500
 20
0.172000
  0
VERTEX
  8
gg1
 10
0.257500
 20
0.172000
  0
SEQEND
  8
gg1
  0
POLYLINE
  8
gg1
 62
1
 40
0.000000
 41
0.000000
 66
  1
  0
VERTEX
  8
gg1
 10
0.250000
 20
0.164500
  0
VERTEX
  8
gg1
 10
0.250000
 20
0.179500
  0
SEQEND
  8
gg1
  0
POLYLINE
  8
gg1
 62
1
 40
0.000000
 41
0.000000
 66
  1
  0
VERTEX
  8
gg1
 10
0.209500
 20
0.172000
  0
VERTEX
  8
gg1
 10
0.224500
 20
0.172000
  0
SEQEND
  8
gg1
  0
POLYLINE
  8
gg1
 62
1
 40
0.000000
 41
0.000000
 66
  1
  0
VERTEX
  8
gg1
 10
0.217000
 20
0.164500
  0
VERTEX
  8
gg1
 10
0.217000
 20
0.179500
  0
SEQEND
  8
gg1
  0
POLYLINE
  8
gg1
 62
1
 40
0.000000
 41
0.000000
 66
  1
  0
VERTEX
  8
gg1
 10
0.102500
 20
0.312000
  0
VERTEX
  8
gg1
 10
0.117500
 20
0.312000
  0
SEQEND
  8
gg1
  0
POLYLINE
  8
gg1
 62
1
 40
0.000000
 41
0.000000
 66
  1
  0
VERTEX
  8
gg1
 10
0.110000
 20
0.304500
  0
VERTEX
  8
gg1
 10
0.110000
 20
0.319500
  0
SEQEND
  8
gg1
  0
POLYLINE
  8
gg1
 62
1
 40
0.000000
 41
0.000000
 66
  1
  0
VERTEX
  8
gg1
 10
0.286500
 20
0.463000
  0
VERTEX
  8
gg1
 10
0.301500
 20
0.463000
  0
SEQEND
  8
gg1
  0
POLYLINE
  8
gg1
 62
1
 40
0.000000
 41
0.000000
 66
  1
  0
VERTEX
  8
gg1
 10
0.294000
 20
0.455500
  0
VERTEX
  8
gg1
 10
0.294000
 20
0.470500
  0
SEQEND
  8
gg1
  0
POLYLINE
  8
gg1
 62
1
 40
0.000000
 41
0.000000
 66
  1
  0
VERTEX
  8
gg1
 10
0.352500
 20
0.463000
  0
VERTEX
  8
gg1
 10
0.367500
 20
0.463000
  0
SEQEND
  8
gg1
  0
POLYLINE
  8
gg1
 62
1
 40
0.000000
 41
0.000000
 66
  1
  0
VERTEX
  8
gg1
 10
0.360000
 20
0.455500
  0
VERTEX
  8
gg1
 10
0.360000
 20
0.470500
  0
SEQEND
  8
gg1
  0
POLYLINE
  8
gg1
 62
1
 40
0.000000
 41
0.000000
 66
  1
  0
VERTEX
  8
gg1
 10
0.319500
 20
0.463000
  0
VERTEX
  8
gg1
 10
0.334500
 20
0.463000
  0
SEQEND
  8
gg1
  0
POLYLINE
  8
gg1
 62
1
 40
0.000000
 41
0.000000
 66
  1
  0
VERTEX
  8
gg1
 10
0.327000
 20
0.455500
  0
VERTEX
  8
gg1
 10
0.327000
 20
0.470500
  0
SEQEND
  8
gg1
  0
POLYLINE
  8
gg1
 62
1
 40
0.000000
 41
0.000000
 66
  1
  0
VERTEX
  8
gg1
 10
0.253500
 20
0.463000
  0
VERTEX
  8
gg1
 10
0.268500
 20
0.463000
  0
SEQEND
  8
gg1
  0
POLYLINE
  8
gg1
 62
1
 40
0.000000
 41
0.000000
 66
  1
  0
VERTEX
  8
gg1
 10
0.261000
 20
0.455500
  0
VERTEX
  8
gg1
 10
0.261000
 20
0.470500
  0
SEQEND
  8
gg1
  0
POLYLINE
  8
gg1
 62
1
 40
0.000000
 41
0.000000
 66
  1
  0
VERTEX
  8
gg1
 10
0.220500
 20
0.463000
  0
VERTEX
  8
gg1
 10
0.235500
 20
0.463000
  0
SEQEND
  8
gg1
  0
POLYLINE
  8
gg1
 62
1
 40
0.000000
 41
0.000000
 66
  1
  0
VERTEX
  8
gg1
 10
0.228000
 20
0.455500
  0
VERTEX
  8
gg1
 10
0.228000
 20
0.470500
  0
SEQEND
  8
gg1
  0
POLYLINE
  8
gg1
 62
1
 40
0.000000
 41
0.000000
 66
  1
  0
VERTEX
  8
gg1
 10
0.031500
 20
0.307000
  0
VERTEX
  8
gg1
 10
0.046500
 20
0.307000
  0
SEQEND
  8
gg1
  0
POLYLINE
  8
gg1
 62
1
 40
0.000000
 41
0.000000
 66
  1
  0
VERTEX
  8
gg1
 10
0.039000
 20
0.299500
  0
VERTEX
  8
gg1
 10
0.039000
 20
0.314500
  0
SEQEND
  8
gg1
  0
ENDSEC
  0
EOF
