  0
SECTION
  2
HEADER
  9
$EXTMIN
 10
-0.127000
 20
-0.379000
  9
$EXTMAX
 10
0.805000
 20
0.505000
  9
$LIMMIN
 10
-0.127000
 20
-0.379000
  9
$LIMMAX
 10
0.805000
 20
0.505000
  9
$FILLMODE
 70
  1
  0
ENDSEC
  0
SECTION
  2
TABLES
  0
TABLE
  2
LTYPE
 70
  1
  0
LTYPE
  2
CONTINUOUS
 70
 64
  3
Solid line
 72
 65
 73
  0
 40
0.0
  0
ENDTAB
  0
TABLE
  2
LAYER
 70
 1
  0
LAYER
  2
0
 70
  0
 62
7
  6
CONTINUOUS
  0
LAYER
  2
gg1
 70
  0
 62
1
  6
CONTINUOUS
  0
ENDTAB
  0
TABLE
  2
STYLE
 70
  1
  0
STYLE
  2
STANDARD
 70
  0
 40
0.0
 41
1.0
 50
0.0
 71
  0
 42
0.2
  3
txt
  4

  0
ENDTAB
  0
ENDSEC
  0
SECTION
  2
BLOCKS
  0
BLOCK
  8
0
  2
D10
 70
64
 10
0.0
 20
0.0
  3
D10
  0
CIRCLE
  8
0
 10
0.000000
 20
0.000000
 40
0.005000
 0
ENDBLK
  8
0
  0
BLOCK
  8
0
  2
D11
 70
64
 10
0.0
 20
0.0
  3
D11
  0
CIRCLE
  8
0
 10
0.000000
 20
0.000000
 40
0.002500
 0
ENDBLK
  8
0
  0
BLOCK
  8
0
  2
D12
 70
64
 10
0.0
 20
0.0
  3
D12
  0
CIRCLE
  8
0
 10
0.000000
 20
0.000000
 40
0.003000
 0
ENDBLK
  8
0
  0
ENDSEC
  0
SECTION
  2
ENTITIES
  0
POLYLINE
  8
gg1
 62
1
 40
0.000000
 41
0.000000
 66
  1
  0
VERTEX
  8
gg1
 10
0.800000
 20
-0.350000
  0
VERTEX
  8
gg1
 10
0.800000
 20
-0.012500
  0
SEQEND
  8
gg1
  0
POLYLINE
  8
gg1
 62
1
 40
0.000000
 41
0.000000
 66
  1
  0
VERTEX
  8
gg1
 10
0.000000
 20
-0.350000
  0
VERTEX
  8
gg1
 10
0.000000
 20
-0.012500
  0
SEQEND
  8
gg1
  0
POLYLINE
  8
gg1
 62
1
 40
0.000000
 41
0.000000
 66
  1
  0
VERTEX
  8
gg1
 10
0.554900
 20
-0.340000
  0
VERTEX
  8
gg1
 10
0.800000
 20
-0.340000
  0
SEQEND
  8
gg1
  0
POLYLINE
  8
gg1
 62
1
 40
0.000000
 41
0.000000
 66
  1
  0
VERTEX
  8
gg1
 10
0.000000
 20
-0.340000
  0
VERTEX
  8
gg1
 10
0.213000
 20
-0.340000
  0
SEQEND
  8
gg1
  0
POLYLINE
  8
gg1
 62
1
 40
0.000000
 41
0.000000
 66
  1
  0
VERTEX
  8
gg1
 10
0.740000
 20
-0.320000
  0
VERTEX
  8
gg1
 10
0.800000
 20
-0.340000
  0
SEQEND
  8
gg1
  0
POLYLINE
  8
gg1
 62
1
 40
0.000000
 41
0.000000
 66
  1
  0
VERTEX
  8
gg1
 10
0.740000
 20
-0.360000
  0
VERTEX
  8
gg1
 10
0.800000
 20
-0.340000
  0
SEQEND
  8
gg1
  0
POLYLINE
  8
gg1
 62
1
 40
0.000000
 41
0.000000
 66
  1
  0
VERTEX
  8
gg1
 10
0.000000
 20
-0.340000
  0
VERTEX
  8
gg1
 10
0.060000
 20
-0.360000
  0
SEQEND
  8
gg1
  0
POLYLINE
  8
gg1
 62
1
 40
0.000000
 41
0.000000
 66
  1
  0
VERTEX
  8
gg1
 10
0.000000
 20
-0.340000
  0
VERTEX
  8
gg1
 10
0.060000
 20
-0.320000
  0
SEQEND
  8
gg1
  0
POLYLINE
  8
gg1
 62
1
 40
0.000000
 41
0.000000
 66
  1
  0
VERTEX
  8
gg1
 10
-0.110000
 20
0.500000
  0
VERTEX
  8
gg1
 10
-0.012500
 20
0.500000
  0
SEQEND
  8
gg1
  0
POLYLINE
  8
gg1
 62
1
 40
0.000000
 41
0.000000
 66
  1
  0
VERTEX
  8
gg1
 10
-0.110000
 20
0.000000
  0
VERTEX
  8
gg1
 10
-0.012500
 20
0.000000
  0
SEQEND
  8
gg1
  0
POLYLINE
  8
gg1
 62
1
 40
0.000000
 41
0.000000
 66
  1
  0
VERTEX
  8
gg1
 10
-0.100000
 20
0.404900
  0
VERTEX
  8
gg1
 10
-0.100000
 20
0.500000
  0
SEQEND
  8
gg1
  0
POLYLINE
  8
gg1
 62
1
 40
0.000000
 41
0.000000
 66
  1
  0
VERTEX
  8
gg1
 10
-0.100000
 20
0.000000
  0
VERTEX
  8
gg1
 10
-0.100000
 20
0.063100
  0
SEQEND
  8
gg1
  0
POLYLINE
  8
gg1
 62
1
 40
0.000000
 41
0.000000
 66
  1
  0
VERTEX
  8
gg1
 10
-0.120000
 20
0.440000
  0
VERTEX
  8
gg1
 10
-0.100000
 20
0.500000
  0
VERTEX
  8
gg1
 10
-0.080000
 20
0.440000
  0
SEQEND
  8
gg1
  0
POLYLINE
  8
gg1
 62
1
 40
0.000000
 41
0.000000
 66
  1
  0
VERTEX
  8
gg1
 10
-0.100000
 20
0.000000
  0
VERTEX
  8
gg1
 10
-0.080000
 20
0.060000
  0
SEQEND
  8
gg1
  0
POLYLINE
  8
gg1
 62
1
 40
0.000000
 41
0.000000
 66
  1
  0
VERTEX
  8
gg1
 10
-0.120000
 20
0.060000
  0
VERTEX
  8
gg1
 10
-0.100000
 20
0.000000
  0
SEQEND
  8
gg1
  0
POLYLINE
  8
gg1
 62
1
 40
0.000000
 41
0.000000
 66
  1
  0
VERTEX
  8
gg1
 10
0.000000
 20
0.000000
  0
VERTEX
  8
gg1
 10
0.800000
 20
0.000000
  0
VERTEX
  8
gg1
 10
0.800000
 20
0.500000
  0
SEQEND
  8
gg1
  0
POLYLINE
  8
gg1
 62
1
 40
0.000000
 41
0.000000
 66
  1
  0
VERTEX
  8
gg1
 10
0.000000
 20
0.500000
  0
VERTEX
  8
gg1
 10
0.800000
 20
0.500000
  0
SEQEND
  8
gg1
  0
POLYLINE
  8
gg1
 62
1
 40
0.000000
 41
0.000000
 66
  1
  0
VERTEX
  8
gg1
 10
0.000000
 20
0.000000
  0
VERTEX
  8
gg1
 10
0.000000
 20
0.500000
  0
SEQEND
  8
gg1
  0
POLYLINE
  8
gg1
 62
1
 40
0.000000
 41
0.000000
 66
  1
  0
VERTEX
  8
gg1
 10
0.657000
 20
0.400000
  0
VERTEX
  8
gg1
 10
0.743000
 20
0.400000
  0
SEQEND
  8
gg1
  0
POLYLINE
  8
gg1
 62
1
 40
0.000000
 41
0.000000
 66
  1
  0
VERTEX
  8
gg1
 10
0.700000
 20
0.357000
  0
VERTEX
  8
gg1
 10
0.700000
 20
0.443000
  0
SEQEND
  8
gg1
  0
POLYLINE
  8
gg1
 62
1
 40
0.000000
 41
0.000000
 66
  1
  0
VERTEX
  8
gg1
 10
0.130000
 20
0.250000
  0
VERTEX
  8
gg1
 10
0.170000
 20
0.250000
  0
SEQEND
  8
gg1
  0
POLYLINE
  8
gg1
 62
1
 40
0.000000
 41
0.000000
 66
  1
  0
VERTEX
  8
gg1
 10
0.150000
 20
0.230000
  0
VERTEX
  8
gg1
 10
0.150000
 20
0.270000
  0
SEQEND
  8
gg1
  0
POLYLINE
  8
gg1
 62
1
 40
0.000000
 41
0.000000
 66
  1
  0
VERTEX
  8
gg1
 10
0.030000
 20
0.050000
  0
VERTEX
  8
gg1
 10
0.070000
 20
0.050000
  0
SEQEND
  8
gg1
  0
POLYLINE
  8
gg1
 62
1
 40
0.000000
 41
0.000000
 66
  1
  0
VERTEX
  8
gg1
 10
0.050000
 20
0.030000
  0
VERTEX
  8
gg1
 10
0.050000
 20
0.070000
  0
SEQEND
  8
gg1
  0
POLYLINE
  8
gg1
 62
1
 40
0.000000
 41
0.000000
 66
  1
  0
VERTEX
  8
gg1
 10
0.030000
 20
0.150000
  0
VERTEX
  8
gg1
 10
0.070000
 20
0.150000
  0
SEQEND
  8
gg1
  0
POLYLINE
  8
gg1
 62
1
 40
0.000000
 41
0.000000
 66
  1
  0
VERTEX
  8
gg1
 10
0.050000
 20
0.130000
  0
VERTEX
  8
gg1
 10
0.050000
 20
0.170000
  0
SEQEND
  8
gg1
  0
POLYLINE
  8
gg1
 62
1
 40
0.000000
 41
0.000000
 66
  1
  0
VERTEX
  8
gg1
 10
0.030000
 20
0.250000
  0
VERTEX
  8
gg1
 10
0.070000
 20
0.250000
  0
SEQEND
  8
gg1
  0
POLYLINE
  8
gg1
 62
1
 40
0.000000
 41
0.000000
 66
  1
  0
VERTEX
  8
gg1
 10
0.050000
 20
0.230000
  0
VERTEX
  8
gg1
 10
0.050000
 20
0.270000
  0
SEQEND
  8
gg1
  0
POLYLINE
  8
gg1
 62
1
 40
0.000000
 41
0.000000
 66
  1
  0
VERTEX
  8
gg1
 10
0.030000
 20
0.350000
  0
VERTEX
  8
gg1
 10
0.070000
 20
0.350000
  0
SEQEND
  8
gg1
  0
POLYLINE
  8
gg1
 62
1
 40
0.000000
 41
0.000000
 66
  1
  0
VERTEX
  8
gg1
 10
0.050000
 20
0.330000
  0
VERTEX
  8
gg1
 10
0.050000
 20
0.370000
  0
SEQEND
  8
gg1
  0
POLYLINE
  8
gg1
 62
1
 40
0.000000
 41
0.000000
 66
  1
  0
VERTEX
  8
gg1
 10
0.030000
 20
0.450000
  0
VERTEX
  8
gg1
 10
0.070000
 20
0.450000
  0
SEQEND
  8
gg1
  0
POLYLINE
  8
gg1
 62
1
 40
0.000000
 41
0.000000
 66
  1
  0
VERTEX
  8
gg1
 10
0.050000
 20
0.430000
  0
VERTEX
  8
gg1
 10
0.050000
 20
0.470000
  0
SEQEND
  8
gg1
  0
POLYLINE
  8
gg1
 62
1
 40
0.000000
 41
0.000000
 66
  1
  0
VERTEX
  8
gg1
 10
0.107500
 20
0.201000
  0
VERTEX
  8
gg1
 10
0.122500
 20
0.201000
  0
SEQEND
  8
gg1
  0
POLYLINE
  8
gg1
 62
1
 40
0.000000
 41
0.000000
 66
  1
  0
VERTEX
  8
gg1
 10
0.115000
 20
0.193500
  0
VERTEX
  8
gg1
 10
0.115000
 20
0.208500
  0
SEQEND
  8
gg1
  0
POLYLINE
  8
gg1
 62
1
 40
0.000000
 41
0.000000
 66
  1
  0
VERTEX
  8
gg1
 10
0.462500
 20
0.065000
  0
VERTEX
  8
gg1
 10
0.477500
 20
0.065000
  0
SEQEND
  8
gg1
  0
POLYLINE
  8
gg1
 62
1
 40
0.000000
 41
0.000000
 66
  1
  0
VERTEX
  8
gg1
 10
0.470000
 20
0.057500
  0
VERTEX
  8
gg1
 10
0.470000
 20
0.072500
  0
SEQEND
  8
gg1
  0
POLYLINE
  8
gg1
 62
1
 40
0.000000
 41
0.000000
 66
  1
  0
VERTEX
  8
gg1
 10
0.452500
 20
0.195000
  0
VERTEX
  8
gg1
 10
0.467500
 20
0.195000
  0
SEQEND
  8
gg1
  0
POLYLINE
  8
gg1
 62
1
 40
0.000000
 41
0.000000
 66
  1
  0
VERTEX
  8
gg1
 10
0.460000
 20
0.187500
  0
VERTEX
  8
gg1
 10
0.460000
 20
0.202500
  0
SEQEND
  8
gg1
  0
POLYLINE
  8
gg1
 62
1
 40
0.000000
 41
0.000000
 66
  1
  0
VERTEX
  8
gg1
 10
0.712500
 20
0.115000
  0
VERTEX
  8
gg1
 10
0.727500
 20
0.115000
  0
SEQEND
  8
gg1
  0
POLYLINE
  8
gg1
 62
1
 40
0.000000
 41
0.000000
 66
  1
  0
VERTEX
  8
gg1
 10
0.720000
 20
0.107500
  0
VERTEX
  8
gg1
 10
0.720000
 20
0.122500
  0
SEQEND
  8
gg1
  0
POLYLINE
  8
gg1
 62
1
 40
0.000000
 41
0.000000
 66
  1
  0
VERTEX
  8
gg1
 10
0.652500
 20
0.115000
  0
VERTEX
  8
gg1
 10
0.667500
 20
0.115000
  0
SEQEND
  8
gg1
  0
POLYLINE
  8
gg1
 62
1
 40
0.000000
 41
0.000000
 66
  1
  0
VERTEX
  8
gg1
 10
0.660000
 20
0.107500
  0
VERTEX
  8
gg1
 10
0.660000
 20
0.122500
  0
SEQEND
  8
gg1
  0
POLYLINE
  8
gg1
 62
1
 40
0.000000
 41
0.000000
 66
  1
  0
VERTEX
  8
gg1
 10
0.612500
 20
0.080000
  0
VERTEX
  8
gg1
 10
0.627500
 20
0.080000
  0
SEQEND
  8
gg1
  0
POLYLINE
  8
gg1
 62
1
 40
0.000000
 41
0.000000
 66
  1
  0
VERTEX
  8
gg1
 10
0.620000
 20
0.072500
  0
VERTEX
  8
gg1
 10
0.620000
 20
0.087500
  0
SEQEND
  8
gg1
  0
POLYLINE
  8
gg1
 62
1
 40
0.000000
 41
0.000000
 66
  1
  0
VERTEX
  8
gg1
 10
0.452500
 20
0.350000
  0
VERTEX
  8
gg1
 10
0.467500
 20
0.350000
  0
SEQEND
  8
gg1
  0
POLYLINE
  8
gg1
 62
1
 40
0.000000
 41
0.000000
 66
  1
  0
VERTEX
  8
gg1
 10
0.460000
 20
0.342500
  0
VERTEX
  8
gg1
 10
0.460000
 20
0.357500
  0
SEQEND
  8
gg1
  0
POLYLINE
  8
gg1
 62
1
 40
0.000000
 41
0.000000
 66
  1
  0
VERTEX
  8
gg1
 10
0.357500
 20
0.350000
  0
VERTEX
  8
gg1
 10
0.372500
 20
0.350000
  0
SEQEND
  8
gg1
  0
POLYLINE
  8
gg1
 62
1
 40
0.000000
 41
0.000000
 66
  1
  0
VERTEX
  8
gg1
 10
0.365000
 20
0.342500
  0
VERTEX
  8
gg1
 10
0.365000
 20
0.357500
  0
SEQEND
  8
gg1
  0
POLYLINE
  8
gg1
 62
1
 40
0.000000
 41
0.000000
 66
  1
  0
VERTEX
  8
gg1
 10
0.352500
 20
0.240000
  0
VERTEX
  8
gg1
 10
0.367500
 20
0.240000
  0
SEQEND
  8
gg1
  0
POLYLINE
  8
gg1
 62
1
 40
0.000000
 41
0.000000
 66
  1
  0
VERTEX
  8
gg1
 10
0.360000
 20
0.232500
  0
VERTEX
  8
gg1
 10
0.360000
 20
0.247500
  0
SEQEND
  8
gg1
  0
POLYLINE
  8
gg1
 62
1
 40
0.000000
 41
0.000000
 66
  1
  0
VERTEX
  8
gg1
 10
0.682500
 20
0.085000
  0
VERTEX
  8
gg1
 10
0.697500
 20
0.085000
  0
SEQEND
  8
gg1
  0
POLYLINE
  8
gg1
 62
1
 40
0.000000
 41
0.000000
 66
  1
  0
VERTEX
  8
gg1
 10
0.690000
 20
0.077500
  0
VERTEX
  8
gg1
 10
0.690000
 20
0.092500
  0
SEQEND
  8
gg1
  0
POLYLINE
  8
gg1
 62
1
 40
0.000000
 41
0.000000
 66
  1
  0
VERTEX
  8
gg1
 10
0.492500
 20
0.235000
  0
VERTEX
  8
gg1
 10
0.507500
 20
0.235000
  0
SEQEND
  8
gg1
  0
POLYLINE
  8
gg1
 62
1
 40
0.000000
 41
0.000000
 66
  1
  0
VERTEX
  8
gg1
 10
0.500000
 20
0.227500
  0
VERTEX
  8
gg1
 10
0.500000
 20
0.242500
  0
SEQEND
  8
gg1
  0
POLYLINE
  8
gg1
 62
1
 40
0.000000
 41
0.000000
 66
  1
  0
VERTEX
  8
gg1
 10
0.207500
 20
0.300000
  0
VERTEX
  8
gg1
 10
0.222500
 20
0.300000
  0
SEQEND
  8
gg1
  0
POLYLINE
  8
gg1
 62
1
 40
0.000000
 41
0.000000
 66
  1
  0
VERTEX
  8
gg1
 10
0.215000
 20
0.292500
  0
VERTEX
  8
gg1
 10
0.215000
 20
0.307500
  0
SEQEND
  8
gg1
  0
POLYLINE
  8
gg1
 62
1
 40
0.000000
 41
0.000000
 66
  1
  0
VERTEX
  8
gg1
 10
0.232500
 20
0.450000
  0
VERTEX
  8
gg1
 10
0.247500
 20
0.450000
  0
SEQEND
  8
gg1
  0
POLYLINE
  8
gg1
 62
1
 40
0.000000
 41
0.000000
 66
  1
  0
VERTEX
  8
gg1
 10
0.240000
 20
0.442500
  0
VERTEX
  8
gg1
 10
0.240000
 20
0.457500
  0
SEQEND
  8
gg1
  0
POLYLINE
  8
gg1
 62
1
 40
0.000000
 41
0.000000
 66
  1
  0
VERTEX
  8
gg1
 10
0.420000
 20
0.302500
  0
VERTEX
  8
gg1
 10
0.435000
 20
0.302500
  0
SEQEND
  8
gg1
  0
POLYLINE
  8
gg1
 62
1
 40
0.000000
 41
0.000000
 66
  1
  0
VERTEX
  8
gg1
 10
0.427500
 20
0.295000
  0
VERTEX
  8
gg1
 10
0.427500
 20
0.310000
  0
SEQEND
  8
gg1
  0
POLYLINE
  8
gg1
 62
1
 40
0.000000
 41
0.000000
 66
  1
  0
VERTEX
  8
gg1
 10
0.307500
 20
0.202000
  0
VERTEX
  8
gg1
 10
0.322500
 20
0.202000
  0
SEQEND
  8
gg1
  0
POLYLINE
  8
gg1
 62
1
 40
0.000000
 41
0.000000
 66
  1
  0
VERTEX
  8
gg1
 10
0.315000
 20
0.194500
  0
VERTEX
  8
gg1
 10
0.315000
 20
0.209500
  0
SEQEND
  8
gg1
  0
POLYLINE
  8
gg1
 62
1
 40
0.000000
 41
0.000000
 66
  1
  0
VERTEX
  8
gg1
 10
0.261500
 20
0.156000
  0
VERTEX
  8
gg1
 10
0.276500
 20
0.156000
  0
SEQEND
  8
gg1
  0
POLYLINE
  8
gg1
 62
1
 40
0.000000
 41
0.000000
 66
  1
  0
VERTEX
  8
gg1
 10
0.269000
 20
0.148500
  0
VERTEX
  8
gg1
 10
0.269000
 20
0.163500
  0
SEQEND
  8
gg1
  0
POLYLINE
  8
gg1
 62
1
 40
0.000000
 41
0.000000
 66
  1
  0
VERTEX
  8
gg1
 10
0.747500
 20
0.050000
  0
VERTEX
  8
gg1
 10
0.762500
 20
0.050000
  0
SEQEND
  8
gg1
  0
POLYLINE
  8
gg1
 62
1
 40
0.000000
 41
0.000000
 66
  1
  0
VERTEX
  8
gg1
 10
0.755000
 20
0.042500
  0
VERTEX
  8
gg1
 10
0.755000
 20
0.057500
  0
SEQEND
  8
gg1
  0
POLYLINE
  8
gg1
 62
1
 40
0.000000
 41
0.000000
 66
  1
  0
VERTEX
  8
gg1
 10
0.747500
 20
0.290000
  0
VERTEX
  8
gg1
 10
0.762500
 20
0.290000
  0
SEQEND
  8
gg1
  0
POLYLINE
  8
gg1
 62
1
 40
0.000000
 41
0.000000
 66
  1
  0
VERTEX
  8
gg1
 10
0.755000
 20
0.282500
  0
VERTEX
  8
gg1
 10
0.755000
 20
0.297500
  0
SEQEND
  8
gg1
  0
POLYLINE
  8
gg1
 62
1
 40
0.000000
 41
0.000000
 66
  1
  0
VERTEX
  8
gg1
 10
0.229000
 20
-0.326000
  0
VERTEX
  8
gg1
 10
0.239000
 20
-0.316000
  0
VERTEX
  8
gg1
 10
0.259000
 20
-0.316000
  0
VERTEX
  8
gg1
 10
0.269000
 20
-0.326000
  0
VERTEX
  8
gg1
 10
0.269000
 20
-0.336000
  0
VERTEX
  8
gg1
 10
0.259000
 20
-0.346000
  0
VERTEX
  8
gg1
 10
0.269000
 20
-0.356000
  0
VERTEX
  8
gg1
 10
0.269000
 20
-0.366000
  0
VERTEX
  8
gg1
 10
0.259000
 20
-0.376000
  0
VERTEX
  8
gg1
 10
0.239000
 20
-0.376000
  0
VERTEX
  8
gg1
 10
0.229000
 20
-0.366000
  0
VERTEX
  8
gg1
 10
0.229000
 20
-0.356000
  0
VERTEX
  8
gg1
 10
0.239000
 20
-0.346000
  0
VERTEX
  8
gg1
 10
0.229000
 20
-0.336000
  0
VERTEX
  8
gg1
 10
0.229000
 20
-0.326000
  0
SEQEND
  8
gg1
  0
POLYLINE
  8
gg1
 62
1
 40
0.000000
 41
0.000000
 66
  1
  0
VERTEX
  8
gg1
 10
0.239000
 20
-0.346000
  0
VERTEX
  8
gg1
 10
0.259000
 20
-0.346000
  0
SEQEND
  8
gg1
  0
POLYLINE
  8
gg1
 62
1
 40
0.000000
 41
0.000000
 66
  1
  0
VERTEX
  8
gg1
 10
0.289000
 20
-0.326000
  0
VERTEX
  8
gg1
 10
0.299000
 20
-0.316000
  0
VERTEX
  8
gg1
 10
0.319000
 20
-0.316000
  0
VERTEX
  8
gg1
 10
0.329000
 20
-0.326000
  0
VERTEX
  8
gg1
 10
0.329000
 20
-0.366000
  0
VERTEX
  8
gg1
 10
0.319000
 20
-0.376000
  0
VERTEX
  8
gg1
 10
0.299000
 20
-0.376000
  0
VERTEX
  8
gg1
 10
0.289000
 20
-0.366000
  0
VERTEX
  8
gg1
 10
0.289000
 20
-0.326000
  0
SEQEND
  8
gg1
  0
POLYLINE
  8
gg1
 62
1
 40
0.000000
 41
0.000000
 66
  1
  0
VERTEX
  8
gg1
 10
0.349000
 20
-0.326000
  0
VERTEX
  8
gg1
 10
0.359000
 20
-0.316000
  0
VERTEX
  8
gg1
 10
0.379000
 20
-0.316000
  0
VERTEX
  8
gg1
 10
0.389000
 20
-0.326000
  0
VERTEX
  8
gg1
 10
0.389000
 20
-0.366000
  0
VERTEX
  8
gg1
 10
0.379000
 20
-0.376000
  0
VERTEX
  8
gg1
 10
0.359000
 20
-0.376000
  0
VERTEX
  8
gg1
 10
0.349000
 20
-0.366000
  0
VERTEX
  8
gg1
 10
0.349000
 20
-0.326000
  0
SEQEND
  8
gg1
  0
POLYLINE
  8
gg1
 62
1
 40
0.000000
 41
0.000000
 66
  1
  0
VERTEX
  8
gg1
 10
0.409000
 20
-0.376000
  0
VERTEX
  8
gg1
 10
0.409000
 20
-0.336000
  0
VERTEX
  8
gg1
 10
0.419000
 20
-0.336000
  0
VERTEX
  8
gg1
 10
0.429000
 20
-0.346000
  0
VERTEX
  8
gg1
 10
0.429000
 20
-0.376000
  0
VERTEX
  8
gg1
 10
0.429000
 20
-0.346000
  0
VERTEX
  8
gg1
 10
0.439000
 20
-0.336000
  0
VERTEX
  8
gg1
 10
0.449000
 20
-0.346000
  0
VERTEX
  8
gg1
 10
0.449000
 20
-0.376000
  0
SEQEND
  8
gg1
  0
POLYLINE
  8
gg1
 62
1
 40
0.000000
 41
0.000000
 66
  1
  0
VERTEX
  8
gg1
 10
0.469000
 20
-0.376000
  0
VERTEX
  8
gg1
 10
0.489000
 20
-0.376000
  0
VERTEX
  8
gg1
 10
0.479000
 20
-0.376000
  0
VERTEX
  8
gg1
 10
0.479000
 20
-0.336000
  0
VERTEX
  8
gg1
 10
0.469000
 20
-0.336000
  0
SEQEND
  8
gg1
  0
POLYLINE
  8
gg1
 62
1
 40
0.000000
 41
0.000000
 66
  1
  0
VERTEX
  8
gg1
 10
0.519000
 20
-0.376000
  0
VERTEX
  8
gg1
 10
0.538900
 20
-0.376000
  0
VERTEX
  8
gg1
 10
0.529000
 20
-0.376000
  0
VERTEX
  8
gg1
 10
0.529000
 20
-0.316000
  0
VERTEX
  8
gg1
 10
0.519000
 20
-0.316000
  0
SEQEND
  8
gg1
  0
POLYLINE
  8
gg1
 62
1
 40
0.000000
 41
0.000000
 66
  1
  0
VERTEX
  8
gg1
 10
-0.124000
 20
0.119000
  0
VERTEX
  8
gg1
 10
-0.124000
 20
0.079000
  0
VERTEX
  8
gg1
 10
-0.094000
 20
0.079000
  0
VERTEX
  8
gg1
 10
-0.104000
 20
0.099000
  0
VERTEX
  8
gg1
 10
-0.104000
 20
0.109000
  0
VERTEX
  8
gg1
 10
-0.094000
 20
0.119000
  0
VERTEX
  8
gg1
 10
-0.074000
 20
0.119000
  0
VERTEX
  8
gg1
 10
-0.064000
 20
0.109000
  0
VERTEX
  8
gg1
 10
-0.064000
 20
0.089000
  0
VERTEX
  8
gg1
 10
-0.074000
 20
0.079000
  0
SEQEND
  8
gg1
  0
POLYLINE
  8
gg1
 62
1
 40
0.000000
 41
0.000000
 66
  1
  0
VERTEX
  8
gg1
 10
-0.114000
 20
0.139000
  0
VERTEX
  8
gg1
 10
-0.124000
 20
0.149000
  0
VERTEX
  8
gg1
 10
-0.124000
 20
0.169000
  0
VERTEX
  8
gg1
 10
-0.114000
 20
0.179000
  0
VERTEX
  8
gg1
 10
-0.074000
 20
0.179000
  0
VERTEX
  8
gg1
 10
-0.064000
 20
0.169000
  0
VERTEX
  8
gg1
 10
-0.064000
 20
0.149000
  0
VERTEX
  8
gg1
 10
-0.074000
 20
0.139000
  0
VERTEX
  8
gg1
 10
-0.114000
 20
0.139000
  0
SEQEND
  8
gg1
  0
POLYLINE
  8
gg1
 62
1
 40
0.000000
 41
0.000000
 66
  1
  0
VERTEX
  8
gg1
 10
-0.114000
 20
0.199000
  0
VERTEX
  8
gg1
 10
-0.124000
 20
0.209000
  0
VERTEX
  8
gg1
 10
-0.124000
 20
0.229000
  0
VERTEX
  8
gg1
 10
-0.114000
 20
0.239000
  0
VERTEX
  8
gg1
 10
-0.074000
 20
0.239000
  0
VERTEX
  8
gg1
 10
-0.064000
 20
0.229000
  0
VERTEX
  8
gg1
 10
-0.064000
 20
0.209000
  0
VERTEX
  8
gg1
 10
-0.074000
 20
0.199000
  0
VERTEX
  8
gg1
 10
-0.114000
 20
0.199000
  0
SEQEND
  8
gg1
  0
POLYLINE
  8
gg1
 62
1
 40
0.000000
 41
0.000000
 66
  1
  0
VERTEX
  8
gg1
 10
-0.064000
 20
0.259000
  0
VERTEX
  8
gg1
 10
-0.104000
 20
0.259000
  0
VERTEX
  8
gg1
 10
-0.104000
 20
0.269000
  0
VERTEX
  8
gg1
 10
-0.094000
 20
0.279000
  0
VERTEX
  8
gg1
 10
-0.064000
 20
0.279000
  0
VERTEX
  8
gg1
 10
-0.094000
 20
0.279000
  0
VERTEX
  8
gg1
 10
-0.104000
 20
0.289000
  0
VERTEX
  8
gg1
 10
-0.094000
 20
0.299000
  0
VERTEX
  8
gg1
 10
-0.064000
 20
0.299000
  0
SEQEND
  8
gg1
  0
POLYLINE
  8
gg1
 62
1
 40
0.000000
 41
0.000000
 66
  1
  0
VERTEX
  8
gg1
 10
-0.064000
 20
0.319000
  0
VERTEX
  8
gg1
 10
-0.064000
 20
0.339000
  0
VERTEX
  8
gg1
 10
-0.064000
 20
0.329000
  0
VERTEX
  8
gg1
 10
-0.104000
 20
0.329000
  0
VERTEX
  8
gg1
 10
-0.104000
 20
0.319000
  0
SEQEND
  8
gg1
  0
POLYLINE
  8
gg1
 62
1
 40
0.000000
 41
0.000000
 66
  1
  0
VERTEX
  8
gg1
 10
-0.064000
 20
0.369000
  0
VERTEX
  8
gg1
 10
-0.064000
 20
0.388900
  0
VERTEX
  8
gg1
 10
-0.064000
 20
0.379000
  0
VERTEX
  8
gg1
 10
-0.124000
 20
0.379000
  0
VERTEX
  8
gg1
 10
-0.124000
 20
0.369000
  0
SEQEND
  8
gg1
  0
ENDSEC
  0
EOF
