  0
SECTION
  2
HEADER
  9
$EXTMIN
 10
-0.127000
 20
-0.399000
  9
$EXTMAX
 10
0.805000
 20
1.805000
  9
$LIMMIN
 10
-0.127000
 20
-0.399000
  9
$LIMMAX
 10
0.805000
 20
1.805000
  9
$FILLMODE
 70
  1
  0
ENDSEC
  0
SECTION
  2
TABLES
  0
TABLE
  2
LTYPE
 70
  1
  0
LTYPE
  2
CONTINUOUS
 70
 64
  3
Solid line
 72
 65
 73
  0
 40
0.0
  0
ENDTAB
  0
TABLE
  2
LAYER
 70
 1
  0
LAYER
  2
0
 70
  0
 62
7
  6
CONTINUOUS
  0
LAYER
  2
gg1
 70
  0
 62
1
  6
CONTINUOUS
  0
ENDTAB
  0
TABLE
  2
STYLE
 70
  1
  0
STYLE
  2
STANDARD
 70
  0
 40
0.0
 41
1.0
 50
0.0
 71
  0
 42
0.2
  3
txt
  4

  0
ENDTAB
  0
ENDSEC
  0
SECTION
  2
BLOCKS
  0
BLOCK
  8
0
  2
D10
 70
64
 10
0.0
 20
0.0
  3
D10
  0
CIRCLE
  8
0
 10
0.000000
 20
0.000000
 40
0.005000
 0
ENDBLK
  8
0
  0
BLOCK
  8
0
  2
D11
 70
64
 10
0.0
 20
0.0
  3
D11
  0
CIRCLE
  8
0
 10
0.000000
 20
0.000000
 40
0.003000
 0
ENDBLK
  8
0
  0
BLOCK
  8
0
  2
D12
 70
64
 10
0.0
 20
0.0
  3
D12
  0
CIRCLE
  8
0
 10
0.000000
 20
0.000000
 40
0.002500
 0
ENDBLK
  8
0
  0
ENDSEC
  0
SECTION
  2
ENTITIES
  0
POLYLINE
  8
gg1
 62
1
 40
0.000000
 41
0.000000
 66
  1
  0
VERTEX
  8
gg1
 10
-0.110000
 20
1.800000
  0
VERTEX
  8
gg1
 10
-0.015000
 20
1.800000
  0
SEQEND
  8
gg1
  0
POLYLINE
  8
gg1
 62
1
 40
0.000000
 41
0.000000
 66
  1
  0
VERTEX
  8
gg1
 10
-0.110000
 20
0.000000
  0
VERTEX
  8
gg1
 10
-0.015000
 20
0.000000
  0
SEQEND
  8
gg1
  0
POLYLINE
  8
gg1
 62
1
 40
0.000000
 41
0.000000
 66
  1
  0
VERTEX
  8
gg1
 10
-0.100000
 20
1.079900
  0
VERTEX
  8
gg1
 10
-0.100000
 20
1.800000
  0
SEQEND
  8
gg1
  0
POLYLINE
  8
gg1
 62
1
 40
0.000000
 41
0.000000
 66
  1
  0
VERTEX
  8
gg1
 10
-0.100000
 20
0.000000
  0
VERTEX
  8
gg1
 10
-0.100000
 20
0.688100
  0
SEQEND
  8
gg1
  0
POLYLINE
  8
gg1
 62
1
 40
0.000000
 41
0.000000
 66
  1
  0
VERTEX
  8
gg1
 10
-0.120000
 20
1.740000
  0
VERTEX
  8
gg1
 10
-0.100000
 20
1.800000
  0
VERTEX
  8
gg1
 10
-0.080000
 20
1.740000
  0
SEQEND
  8
gg1
  0
POLYLINE
  8
gg1
 62
1
 40
0.000000
 41
0.000000
 66
  1
  0
VERTEX
  8
gg1
 10
-0.100000
 20
0.000000
  0
VERTEX
  8
gg1
 10
-0.080000
 20
0.060000
  0
SEQEND
  8
gg1
  0
POLYLINE
  8
gg1
 62
1
 40
0.000000
 41
0.000000
 66
  1
  0
VERTEX
  8
gg1
 10
-0.120000
 20
0.060000
  0
VERTEX
  8
gg1
 10
-0.100000
 20
0.000000
  0
SEQEND
  8
gg1
  0
POLYLINE
  8
gg1
 62
1
 40
0.000000
 41
0.000000
 66
  1
  0
VERTEX
  8
gg1
 10
0.800000
 20
-0.370000
  0
VERTEX
  8
gg1
 10
0.800000
 20
-0.015000
  0
SEQEND
  8
gg1
  0
POLYLINE
  8
gg1
 62
1
 40
0.000000
 41
0.000000
 66
  1
  0
VERTEX
  8
gg1
 10
0.000000
 20
-0.370000
  0
VERTEX
  8
gg1
 10
0.000000
 20
-0.015000
  0
SEQEND
  8
gg1
  0
POLYLINE
  8
gg1
 62
1
 40
0.000000
 41
0.000000
 66
  1
  0
VERTEX
  8
gg1
 10
0.554900
 20
-0.360000
  0
VERTEX
  8
gg1
 10
0.800000
 20
-0.360000
  0
SEQEND
  8
gg1
  0
POLYLINE
  8
gg1
 62
1
 40
0.000000
 41
0.000000
 66
  1
  0
VERTEX
  8
gg1
 10
0.000000
 20
-0.360000
  0
VERTEX
  8
gg1
 10
0.213000
 20
-0.360000
  0
SEQEND
  8
gg1
  0
POLYLINE
  8
gg1
 62
1
 40
0.000000
 41
0.000000
 66
  1
  0
VERTEX
  8
gg1
 10
0.740000
 20
-0.340000
  0
VERTEX
  8
gg1
 10
0.800000
 20
-0.360000
  0
SEQEND
  8
gg1
  0
POLYLINE
  8
gg1
 62
1
 40
0.000000
 41
0.000000
 66
  1
  0
VERTEX
  8
gg1
 10
0.740000
 20
-0.380000
  0
VERTEX
  8
gg1
 10
0.800000
 20
-0.360000
  0
SEQEND
  8
gg1
  0
POLYLINE
  8
gg1
 62
1
 40
0.000000
 41
0.000000
 66
  1
  0
VERTEX
  8
gg1
 10
0.000000
 20
-0.360000
  0
VERTEX
  8
gg1
 10
0.060000
 20
-0.380000
  0
SEQEND
  8
gg1
  0
POLYLINE
  8
gg1
 62
1
 40
0.000000
 41
0.000000
 66
  1
  0
VERTEX
  8
gg1
 10
0.000000
 20
-0.360000
  0
VERTEX
  8
gg1
 10
0.060000
 20
-0.340000
  0
SEQEND
  8
gg1
  0
POLYLINE
  8
gg1
 62
1
 40
0.000000
 41
0.000000
 66
  1
  0
VERTEX
  8
gg1
 10
0.000000
 20
0.000000
  0
VERTEX
  8
gg1
 10
0.800000
 20
0.000000
  0
VERTEX
  8
gg1
 10
0.800000
 20
1.800000
  0
SEQEND
  8
gg1
  0
POLYLINE
  8
gg1
 62
1
 40
0.000000
 41
0.000000
 66
  1
  0
VERTEX
  8
gg1
 10
0.000000
 20
1.800000
  0
VERTEX
  8
gg1
 10
0.800000
 20
1.800000
  0
SEQEND
  8
gg1
  0
POLYLINE
  8
gg1
 62
1
 40
0.000000
 41
0.000000
 66
  1
  0
VERTEX
  8
gg1
 10
0.000000
 20
0.000000
  0
VERTEX
  8
gg1
 10
0.000000
 20
1.800000
  0
SEQEND
  8
gg1
  0
POLYLINE
  8
gg1
 62
1
 40
0.000000
 41
0.000000
 66
  1
  0
VERTEX
  8
gg1
 10
-0.064000
 20
0.704100
  0
VERTEX
  8
gg1
 10
-0.064000
 20
0.724100
  0
VERTEX
  8
gg1
 10
-0.064000
 20
0.714100
  0
VERTEX
  8
gg1
 10
-0.124000
 20
0.714100
  0
VERTEX
  8
gg1
 10
-0.114000
 20
0.704100
  0
SEQEND
  8
gg1
  0
POLYLINE
  8
gg1
 62
1
 40
0.000000
 41
0.000000
 66
  1
  0
VERTEX
  8
gg1
 10
-0.114000
 20
0.754000
  0
VERTEX
  8
gg1
 10
-0.124000
 20
0.764000
  0
VERTEX
  8
gg1
 10
-0.124000
 20
0.784000
  0
VERTEX
  8
gg1
 10
-0.114000
 20
0.794000
  0
VERTEX
  8
gg1
 10
-0.104000
 20
0.794000
  0
VERTEX
  8
gg1
 10
-0.094000
 20
0.784000
  0
VERTEX
  8
gg1
 10
-0.084000
 20
0.794000
  0
VERTEX
  8
gg1
 10
-0.074000
 20
0.794000
  0
VERTEX
  8
gg1
 10
-0.064000
 20
0.784000
  0
VERTEX
  8
gg1
 10
-0.064000
 20
0.764000
  0
VERTEX
  8
gg1
 10
-0.074000
 20
0.754000
  0
VERTEX
  8
gg1
 10
-0.084000
 20
0.754000
  0
VERTEX
  8
gg1
 10
-0.094000
 20
0.764000
  0
VERTEX
  8
gg1
 10
-0.104000
 20
0.754000
  0
VERTEX
  8
gg1
 10
-0.114000
 20
0.754000
  0
SEQEND
  8
gg1
  0
POLYLINE
  8
gg1
 62
1
 40
0.000000
 41
0.000000
 66
  1
  0
VERTEX
  8
gg1
 10
-0.094000
 20
0.764000
  0
VERTEX
  8
gg1
 10
-0.094000
 20
0.784000
  0
SEQEND
  8
gg1
  0
POLYLINE
  8
gg1
 62
1
 40
0.000000
 41
0.000000
 66
  1
  0
VERTEX
  8
gg1
 10
-0.114000
 20
0.814000
  0
VERTEX
  8
gg1
 10
-0.124000
 20
0.824000
  0
VERTEX
  8
gg1
 10
-0.124000
 20
0.844000
  0
VERTEX
  8
gg1
 10
-0.114000
 20
0.854000
  0
VERTEX
  8
gg1
 10
-0.074000
 20
0.854000
  0
VERTEX
  8
gg1
 10
-0.064000
 20
0.844000
  0
VERTEX
  8
gg1
 10
-0.064000
 20
0.824000
  0
VERTEX
  8
gg1
 10
-0.074000
 20
0.814000
  0
VERTEX
  8
gg1
 10
-0.114000
 20
0.814000
  0
SEQEND
  8
gg1
  0
POLYLINE
  8
gg1
 62
1
 40
0.000000
 41
0.000000
 66
  1
  0
VERTEX
  8
gg1
 10
-0.114000
 20
0.874000
  0
VERTEX
  8
gg1
 10
-0.124000
 20
0.884000
  0
VERTEX
  8
gg1
 10
-0.124000
 20
0.904000
  0
VERTEX
  8
gg1
 10
-0.114000
 20
0.914000
  0
VERTEX
  8
gg1
 10
-0.074000
 20
0.914000
  0
VERTEX
  8
gg1
 10
-0.064000
 20
0.904000
  0
VERTEX
  8
gg1
 10
-0.064000
 20
0.884000
  0
VERTEX
  8
gg1
 10
-0.074000
 20
0.874000
  0
VERTEX
  8
gg1
 10
-0.114000
 20
0.874000
  0
SEQEND
  8
gg1
  0
POLYLINE
  8
gg1
 62
1
 40
0.000000
 41
0.000000
 66
  1
  0
VERTEX
  8
gg1
 10
-0.064000
 20
0.934000
  0
VERTEX
  8
gg1
 10
-0.104000
 20
0.934000
  0
VERTEX
  8
gg1
 10
-0.104000
 20
0.944000
  0
VERTEX
  8
gg1
 10
-0.094000
 20
0.954000
  0
VERTEX
  8
gg1
 10
-0.064000
 20
0.954000
  0
VERTEX
  8
gg1
 10
-0.094000
 20
0.954000
  0
VERTEX
  8
gg1
 10
-0.104000
 20
0.964000
  0
VERTEX
  8
gg1
 10
-0.094000
 20
0.974000
  0
VERTEX
  8
gg1
 10
-0.064000
 20
0.974000
  0
SEQEND
  8
gg1
  0
POLYLINE
  8
gg1
 62
1
 40
0.000000
 41
0.000000
 66
  1
  0
VERTEX
  8
gg1
 10
-0.064000
 20
0.994000
  0
VERTEX
  8
gg1
 10
-0.064000
 20
1.014000
  0
VERTEX
  8
gg1
 10
-0.064000
 20
1.004000
  0
VERTEX
  8
gg1
 10
-0.104000
 20
1.004000
  0
VERTEX
  8
gg1
 10
-0.104000
 20
0.994000
  0
SEQEND
  8
gg1
  0
POLYLINE
  8
gg1
 62
1
 40
0.000000
 41
0.000000
 66
  1
  0
VERTEX
  8
gg1
 10
-0.064000
 20
1.043900
  0
VERTEX
  8
gg1
 10
-0.064000
 20
1.063900
  0
VERTEX
  8
gg1
 10
-0.064000
 20
1.053900
  0
VERTEX
  8
gg1
 10
-0.124000
 20
1.053900
  0
VERTEX
  8
gg1
 10
-0.124000
 20
1.043900
  0
SEQEND
  8
gg1
  0
POLYLINE
  8
gg1
 62
1
 40
0.000000
 41
0.000000
 66
  1
  0
VERTEX
  8
gg1
 10
0.229000
 20
-0.346000
  0
VERTEX
  8
gg1
 10
0.239000
 20
-0.336000
  0
VERTEX
  8
gg1
 10
0.259000
 20
-0.336000
  0
VERTEX
  8
gg1
 10
0.269000
 20
-0.346000
  0
VERTEX
  8
gg1
 10
0.269000
 20
-0.356000
  0
VERTEX
  8
gg1
 10
0.259000
 20
-0.366000
  0
VERTEX
  8
gg1
 10
0.269000
 20
-0.376000
  0
VERTEX
  8
gg1
 10
0.269000
 20
-0.386000
  0
VERTEX
  8
gg1
 10
0.259000
 20
-0.396000
  0
VERTEX
  8
gg1
 10
0.239000
 20
-0.396000
  0
VERTEX
  8
gg1
 10
0.229000
 20
-0.386000
  0
VERTEX
  8
gg1
 10
0.229000
 20
-0.376000
  0
VERTEX
  8
gg1
 10
0.239000
 20
-0.366000
  0
VERTEX
  8
gg1
 10
0.229000
 20
-0.356000
  0
VERTEX
  8
gg1
 10
0.229000
 20
-0.346000
  0
SEQEND
  8
gg1
  0
POLYLINE
  8
gg1
 62
1
 40
0.000000
 41
0.000000
 66
  1
  0
VERTEX
  8
gg1
 10
0.239000
 20
-0.366000
  0
VERTEX
  8
gg1
 10
0.259000
 20
-0.366000
  0
SEQEND
  8
gg1
  0
POLYLINE
  8
gg1
 62
1
 40
0.000000
 41
0.000000
 66
  1
  0
VERTEX
  8
gg1
 10
0.289000
 20
-0.346000
  0
VERTEX
  8
gg1
 10
0.299000
 20
-0.336000
  0
VERTEX
  8
gg1
 10
0.319000
 20
-0.336000
  0
VERTEX
  8
gg1
 10
0.329000
 20
-0.346000
  0
VERTEX
  8
gg1
 10
0.329000
 20
-0.386000
  0
VERTEX
  8
gg1
 10
0.319000
 20
-0.396000
  0
VERTEX
  8
gg1
 10
0.299000
 20
-0.396000
  0
VERTEX
  8
gg1
 10
0.289000
 20
-0.386000
  0
VERTEX
  8
gg1
 10
0.289000
 20
-0.346000
  0
SEQEND
  8
gg1
  0
POLYLINE
  8
gg1
 62
1
 40
0.000000
 41
0.000000
 66
  1
  0
VERTEX
  8
gg1
 10
0.349000
 20
-0.346000
  0
VERTEX
  8
gg1
 10
0.359000
 20
-0.336000
  0
VERTEX
  8
gg1
 10
0.379000
 20
-0.336000
  0
VERTEX
  8
gg1
 10
0.389000
 20
-0.346000
  0
VERTEX
  8
gg1
 10
0.389000
 20
-0.386000
  0
VERTEX
  8
gg1
 10
0.379000
 20
-0.396000
  0
VERTEX
  8
gg1
 10
0.359000
 20
-0.396000
  0
VERTEX
  8
gg1
 10
0.349000
 20
-0.386000
  0
VERTEX
  8
gg1
 10
0.349000
 20
-0.346000
  0
SEQEND
  8
gg1
  0
POLYLINE
  8
gg1
 62
1
 40
0.000000
 41
0.000000
 66
  1
  0
VERTEX
  8
gg1
 10
0.409000
 20
-0.396000
  0
VERTEX
  8
gg1
 10
0.409000
 20
-0.356000
  0
VERTEX
  8
gg1
 10
0.419000
 20
-0.356000
  0
VERTEX
  8
gg1
 10
0.429000
 20
-0.366000
  0
VERTEX
  8
gg1
 10
0.429000
 20
-0.396000
  0
VERTEX
  8
gg1
 10
0.429000
 20
-0.366000
  0
VERTEX
  8
gg1
 10
0.439000
 20
-0.356000
  0
VERTEX
  8
gg1
 10
0.449000
 20
-0.366000
  0
VERTEX
  8
gg1
 10
0.449000
 20
-0.396000
  0
SEQEND
  8
gg1
  0
POLYLINE
  8
gg1
 62
1
 40
0.000000
 41
0.000000
 66
  1
  0
VERTEX
  8
gg1
 10
0.469000
 20
-0.396000
  0
VERTEX
  8
gg1
 10
0.489000
 20
-0.396000
  0
VERTEX
  8
gg1
 10
0.479000
 20
-0.396000
  0
VERTEX
  8
gg1
 10
0.479000
 20
-0.356000
  0
VERTEX
  8
gg1
 10
0.469000
 20
-0.356000
  0
SEQEND
  8
gg1
  0
POLYLINE
  8
gg1
 62
1
 40
0.000000
 41
0.000000
 66
  1
  0
VERTEX
  8
gg1
 10
0.519000
 20
-0.396000
  0
VERTEX
  8
gg1
 10
0.539000
 20
-0.396000
  0
VERTEX
  8
gg1
 10
0.529000
 20
-0.396000
  0
VERTEX
  8
gg1
 10
0.529000
 20
-0.336000
  0
VERTEX
  8
gg1
 10
0.519000
 20
-0.336000
  0
SEQEND
  8
gg1
  0
POLYLINE
  8
gg1
 62
1
 40
0.000000
 41
0.000000
 66
  1
  0
VERTEX
  8
gg1
 10
0.032500
 20
1.170000
  0
VERTEX
  8
gg1
 10
0.077500
 20
1.170000
  0
SEQEND
  8
gg1
  0
POLYLINE
  8
gg1
 62
1
 40
0.000000
 41
0.000000
 66
  1
  0
VERTEX
  8
gg1
 10
0.055000
 20
1.147500
  0
VERTEX
  8
gg1
 10
0.055000
 20
1.192500
  0
SEQEND
  8
gg1
  0
POLYLINE
  8
gg1
 62
1
 40
0.000000
 41
0.000000
 66
  1
  0
VERTEX
  8
gg1
 10
0.722500
 20
1.060000
  0
VERTEX
  8
gg1
 10
0.767500
 20
1.060000
  0
SEQEND
  8
gg1
  0
POLYLINE
  8
gg1
 62
1
 40
0.000000
 41
0.000000
 66
  1
  0
VERTEX
  8
gg1
 10
0.745000
 20
1.037500
  0
VERTEX
  8
gg1
 10
0.745000
 20
1.082500
  0
SEQEND
  8
gg1
  0
POLYLINE
  8
gg1
 62
1
 40
0.000000
 41
0.000000
 66
  1
  0
VERTEX
  8
gg1
 10
0.652300
 20
1.710000
  0
VERTEX
  8
gg1
 10
0.738300
 20
1.710000
  0
SEQEND
  8
gg1
  0
POLYLINE
  8
gg1
 62
1
 40
0.000000
 41
0.000000
 66
  1
  0
VERTEX
  8
gg1
 10
0.695300
 20
1.667000
  0
VERTEX
  8
gg1
 10
0.695300
 20
1.753000
  0
SEQEND
  8
gg1
  0
POLYLINE
  8
gg1
 62
1
 40
0.000000
 41
0.000000
 66
  1
  0
VERTEX
  8
gg1
 10
0.455400
 20
1.710000
  0
VERTEX
  8
gg1
 10
0.541400
 20
1.710000
  0
SEQEND
  8
gg1
  0
POLYLINE
  8
gg1
 62
1
 40
0.000000
 41
0.000000
 66
  1
  0
VERTEX
  8
gg1
 10
0.498400
 20
1.667000
  0
VERTEX
  8
gg1
 10
0.498400
 20
1.753000
  0
SEQEND
  8
gg1
  0
POLYLINE
  8
gg1
 62
1
 40
0.000000
 41
0.000000
 66
  1
  0
VERTEX
  8
gg1
 10
0.258600
 20
1.710000
  0
VERTEX
  8
gg1
 10
0.344600
 20
1.710000
  0
SEQEND
  8
gg1
  0
POLYLINE
  8
gg1
 62
1
 40
0.000000
 41
0.000000
 66
  1
  0
VERTEX
  8
gg1
 10
0.301600
 20
1.667000
  0
VERTEX
  8
gg1
 10
0.301600
 20
1.753000
  0
SEQEND
  8
gg1
  0
POLYLINE
  8
gg1
 62
1
 40
0.000000
 41
0.000000
 66
  1
  0
VERTEX
  8
gg1
 10
0.061700
 20
1.710000
  0
VERTEX
  8
gg1
 10
0.147700
 20
1.710000
  0
SEQEND
  8
gg1
  0
POLYLINE
  8
gg1
 62
1
 40
0.000000
 41
0.000000
 66
  1
  0
VERTEX
  8
gg1
 10
0.104700
 20
1.667000
  0
VERTEX
  8
gg1
 10
0.104700
 20
1.753000
  0
SEQEND
  8
gg1
  0
POLYLINE
  8
gg1
 62
1
 40
0.000000
 41
0.000000
 66
  1
  0
VERTEX
  8
gg1
 10
0.430000
 20
0.050000
  0
VERTEX
  8
gg1
 10
0.470000
 20
0.050000
  0
SEQEND
  8
gg1
  0
POLYLINE
  8
gg1
 62
1
 40
0.000000
 41
0.000000
 66
  1
  0
VERTEX
  8
gg1
 10
0.450000
 20
0.030000
  0
VERTEX
  8
gg1
 10
0.450000
 20
0.070000
  0
SEQEND
  8
gg1
  0
POLYLINE
  8
gg1
 62
1
 40
0.000000
 41
0.000000
 66
  1
  0
VERTEX
  8
gg1
 10
0.330000
 20
0.050000
  0
VERTEX
  8
gg1
 10
0.370000
 20
0.050000
  0
SEQEND
  8
gg1
  0
POLYLINE
  8
gg1
 62
1
 40
0.000000
 41
0.000000
 66
  1
  0
VERTEX
  8
gg1
 10
0.350000
 20
0.030000
  0
VERTEX
  8
gg1
 10
0.350000
 20
0.070000
  0
SEQEND
  8
gg1
  0
POLYLINE
  8
gg1
 62
1
 40
0.000000
 41
0.000000
 66
  1
  0
VERTEX
  8
gg1
 10
0.230000
 20
0.050000
  0
VERTEX
  8
gg1
 10
0.270000
 20
0.050000
  0
SEQEND
  8
gg1
  0
POLYLINE
  8
gg1
 62
1
 40
0.000000
 41
0.000000
 66
  1
  0
VERTEX
  8
gg1
 10
0.250000
 20
0.030000
  0
VERTEX
  8
gg1
 10
0.250000
 20
0.070000
  0
SEQEND
  8
gg1
  0
POLYLINE
  8
gg1
 62
1
 40
0.000000
 41
0.000000
 66
  1
  0
VERTEX
  8
gg1
 10
0.130000
 20
0.050000
  0
VERTEX
  8
gg1
 10
0.170000
 20
0.050000
  0
SEQEND
  8
gg1
  0
POLYLINE
  8
gg1
 62
1
 40
0.000000
 41
0.000000
 66
  1
  0
VERTEX
  8
gg1
 10
0.150000
 20
0.030000
  0
VERTEX
  8
gg1
 10
0.150000
 20
0.070000
  0
SEQEND
  8
gg1
  0
POLYLINE
  8
gg1
 62
1
 40
0.000000
 41
0.000000
 66
  1
  0
VERTEX
  8
gg1
 10
0.030000
 20
0.050000
  0
VERTEX
  8
gg1
 10
0.070000
 20
0.050000
  0
SEQEND
  8
gg1
  0
POLYLINE
  8
gg1
 62
1
 40
0.000000
 41
0.000000
 66
  1
  0
VERTEX
  8
gg1
 10
0.050000
 20
0.030000
  0
VERTEX
  8
gg1
 10
0.050000
 20
0.070000
  0
SEQEND
  8
gg1
  0
POLYLINE
  8
gg1
 62
1
 40
0.000000
 41
0.000000
 66
  1
  0
VERTEX
  8
gg1
 10
0.530000
 20
0.050000
  0
VERTEX
  8
gg1
 10
0.570000
 20
0.050000
  0
SEQEND
  8
gg1
  0
POLYLINE
  8
gg1
 62
1
 40
0.000000
 41
0.000000
 66
  1
  0
VERTEX
  8
gg1
 10
0.550000
 20
0.030000
  0
VERTEX
  8
gg1
 10
0.550000
 20
0.070000
  0
SEQEND
  8
gg1
  0
POLYLINE
  8
gg1
 62
1
 40
0.000000
 41
0.000000
 66
  1
  0
VERTEX
  8
gg1
 10
0.630000
 20
0.050000
  0
VERTEX
  8
gg1
 10
0.670000
 20
0.050000
  0
SEQEND
  8
gg1
  0
POLYLINE
  8
gg1
 62
1
 40
0.000000
 41
0.000000
 66
  1
  0
VERTEX
  8
gg1
 10
0.650000
 20
0.030000
  0
VERTEX
  8
gg1
 10
0.650000
 20
0.070000
  0
SEQEND
  8
gg1
  0
POLYLINE
  8
gg1
 62
1
 40
0.000000
 41
0.000000
 66
  1
  0
VERTEX
  8
gg1
 10
0.730000
 20
0.050000
  0
VERTEX
  8
gg1
 10
0.770000
 20
0.050000
  0
SEQEND
  8
gg1
  0
POLYLINE
  8
gg1
 62
1
 40
0.000000
 41
0.000000
 66
  1
  0
VERTEX
  8
gg1
 10
0.750000
 20
0.030000
  0
VERTEX
  8
gg1
 10
0.750000
 20
0.070000
  0
SEQEND
  8
gg1
  0
POLYLINE
  8
gg1
 62
1
 40
0.000000
 41
0.000000
 66
  1
  0
VERTEX
  8
gg1
 10
0.727500
 20
1.650000
  0
VERTEX
  8
gg1
 10
0.772500
 20
1.650000
  0
SEQEND
  8
gg1
  0
POLYLINE
  8
gg1
 62
1
 40
0.000000
 41
0.000000
 66
  1
  0
VERTEX
  8
gg1
 10
0.750000
 20
1.627500
  0
VERTEX
  8
gg1
 10
0.750000
 20
1.672500
  0
SEQEND
  8
gg1
  0
POLYLINE
  8
gg1
 62
1
 40
0.000000
 41
0.000000
 66
  1
  0
VERTEX
  8
gg1
 10
0.627500
 20
1.650000
  0
VERTEX
  8
gg1
 10
0.672500
 20
1.650000
  0
SEQEND
  8
gg1
  0
POLYLINE
  8
gg1
 62
1
 40
0.000000
 41
0.000000
 66
  1
  0
VERTEX
  8
gg1
 10
0.650000
 20
1.627500
  0
VERTEX
  8
gg1
 10
0.650000
 20
1.672500
  0
SEQEND
  8
gg1
  0
POLYLINE
  8
gg1
 62
1
 40
0.000000
 41
0.000000
 66
  1
  0
VERTEX
  8
gg1
 10
0.527500
 20
1.650000
  0
VERTEX
  8
gg1
 10
0.572500
 20
1.650000
  0
SEQEND
  8
gg1
  0
POLYLINE
  8
gg1
 62
1
 40
0.000000
 41
0.000000
 66
  1
  0
VERTEX
  8
gg1
 10
0.550000
 20
1.627500
  0
VERTEX
  8
gg1
 10
0.550000
 20
1.672500
  0
SEQEND
  8
gg1
  0
POLYLINE
  8
gg1
 62
1
 40
0.000000
 41
0.000000
 66
  1
  0
VERTEX
  8
gg1
 10
0.427500
 20
1.650000
  0
VERTEX
  8
gg1
 10
0.472500
 20
1.650000
  0
SEQEND
  8
gg1
  0
POLYLINE
  8
gg1
 62
1
 40
0.000000
 41
0.000000
 66
  1
  0
VERTEX
  8
gg1
 10
0.450000
 20
1.627500
  0
VERTEX
  8
gg1
 10
0.450000
 20
1.672500
  0
SEQEND
  8
gg1
  0
POLYLINE
  8
gg1
 62
1
 40
0.000000
 41
0.000000
 66
  1
  0
VERTEX
  8
gg1
 10
0.327500
 20
1.650000
  0
VERTEX
  8
gg1
 10
0.372500
 20
1.650000
  0
SEQEND
  8
gg1
  0
POLYLINE
  8
gg1
 62
1
 40
0.000000
 41
0.000000
 66
  1
  0
VERTEX
  8
gg1
 10
0.350000
 20
1.627500
  0
VERTEX
  8
gg1
 10
0.350000
 20
1.672500
  0
SEQEND
  8
gg1
  0
POLYLINE
  8
gg1
 62
1
 40
0.000000
 41
0.000000
 66
  1
  0
VERTEX
  8
gg1
 10
0.227500
 20
1.650000
  0
VERTEX
  8
gg1
 10
0.272500
 20
1.650000
  0
SEQEND
  8
gg1
  0
POLYLINE
  8
gg1
 62
1
 40
0.000000
 41
0.000000
 66
  1
  0
VERTEX
  8
gg1
 10
0.250000
 20
1.627500
  0
VERTEX
  8
gg1
 10
0.250000
 20
1.672500
  0
SEQEND
  8
gg1
  0
POLYLINE
  8
gg1
 62
1
 40
0.000000
 41
0.000000
 66
  1
  0
VERTEX
  8
gg1
 10
0.127500
 20
1.650000
  0
VERTEX
  8
gg1
 10
0.172500
 20
1.650000
  0
SEQEND
  8
gg1
  0
POLYLINE
  8
gg1
 62
1
 40
0.000000
 41
0.000000
 66
  1
  0
VERTEX
  8
gg1
 10
0.150000
 20
1.627500
  0
VERTEX
  8
gg1
 10
0.150000
 20
1.672500
  0
SEQEND
  8
gg1
  0
POLYLINE
  8
gg1
 62
1
 40
0.000000
 41
0.000000
 66
  1
  0
VERTEX
  8
gg1
 10
0.027500
 20
1.650000
  0
VERTEX
  8
gg1
 10
0.072500
 20
1.650000
  0
SEQEND
  8
gg1
  0
POLYLINE
  8
gg1
 62
1
 40
0.000000
 41
0.000000
 66
  1
  0
VERTEX
  8
gg1
 10
0.050000
 20
1.627500
  0
VERTEX
  8
gg1
 10
0.050000
 20
1.672500
  0
SEQEND
  8
gg1
  0
POLYLINE
  8
gg1
 62
1
 40
0.000000
 41
0.000000
 66
  1
  0
VERTEX
  8
gg1
 10
0.722500
 20
0.610000
  0
VERTEX
  8
gg1
 10
0.767500
 20
0.610000
  0
SEQEND
  8
gg1
  0
POLYLINE
  8
gg1
 62
1
 40
0.000000
 41
0.000000
 66
  1
  0
VERTEX
  8
gg1
 10
0.745000
 20
0.587500
  0
VERTEX
  8
gg1
 10
0.745000
 20
0.632500
  0
SEQEND
  8
gg1
  0
POLYLINE
  8
gg1
 62
1
 40
0.000000
 41
0.000000
 66
  1
  0
VERTEX
  8
gg1
 10
0.032500
 20
0.610000
  0
VERTEX
  8
gg1
 10
0.077500
 20
0.610000
  0
SEQEND
  8
gg1
  0
POLYLINE
  8
gg1
 62
1
 40
0.000000
 41
0.000000
 66
  1
  0
VERTEX
  8
gg1
 10
0.055000
 20
0.587500
  0
VERTEX
  8
gg1
 10
0.055000
 20
0.632500
  0
SEQEND
  8
gg1
  0
POLYLINE
  8
gg1
 62
1
 40
0.000000
 41
0.000000
 66
  1
  0
VERTEX
  8
gg1
 10
0.667000
 20
0.350000
  0
VERTEX
  8
gg1
 10
0.753000
 20
0.350000
  0
SEQEND
  8
gg1
  0
POLYLINE
  8
gg1
 62
1
 40
0.000000
 41
0.000000
 66
  1
  0
VERTEX
  8
gg1
 10
0.710000
 20
0.307000
  0
VERTEX
  8
gg1
 10
0.710000
 20
0.393000
  0
SEQEND
  8
gg1
  0
POLYLINE
  8
gg1
 62
1
 40
0.000000
 41
0.000000
 66
  1
  0
VERTEX
  8
gg1
 10
0.047000
 20
1.450000
  0
VERTEX
  8
gg1
 10
0.133000
 20
1.450000
  0
SEQEND
  8
gg1
  0
POLYLINE
  8
gg1
 62
1
 40
0.000000
 41
0.000000
 66
  1
  0
VERTEX
  8
gg1
 10
0.090000
 20
1.407000
  0
VERTEX
  8
gg1
 10
0.090000
 20
1.493000
  0
SEQEND
  8
gg1
  0
POLYLINE
  8
gg1
 62
1
 40
0.000000
 41
0.000000
 66
  1
  0
VERTEX
  8
gg1
 10
0.577500
 20
0.595000
  0
VERTEX
  8
gg1
 10
0.592500
 20
0.595000
  0
SEQEND
  8
gg1
  0
POLYLINE
  8
gg1
 62
1
 40
0.000000
 41
0.000000
 66
  1
  0
VERTEX
  8
gg1
 10
0.585000
 20
0.587500
  0
VERTEX
  8
gg1
 10
0.585000
 20
0.602500
  0
SEQEND
  8
gg1
  0
POLYLINE
  8
gg1
 62
1
 40
0.000000
 41
0.000000
 66
  1
  0
VERTEX
  8
gg1
 10
0.577500
 20
0.560000
  0
VERTEX
  8
gg1
 10
0.592500
 20
0.560000
  0
SEQEND
  8
gg1
  0
POLYLINE
  8
gg1
 62
1
 40
0.000000
 41
0.000000
 66
  1
  0
VERTEX
  8
gg1
 10
0.585000
 20
0.552500
  0
VERTEX
  8
gg1
 10
0.585000
 20
0.567500
  0
SEQEND
  8
gg1
  0
POLYLINE
  8
gg1
 62
1
 40
0.000000
 41
0.000000
 66
  1
  0
VERTEX
  8
gg1
 10
0.501500
 20
0.470000
  0
VERTEX
  8
gg1
 10
0.516500
 20
0.470000
  0
SEQEND
  8
gg1
  0
POLYLINE
  8
gg1
 62
1
 40
0.000000
 41
0.000000
 66
  1
  0
VERTEX
  8
gg1
 10
0.509000
 20
0.462500
  0
VERTEX
  8
gg1
 10
0.509000
 20
0.477500
  0
SEQEND
  8
gg1
  0
POLYLINE
  8
gg1
 62
1
 40
0.000000
 41
0.000000
 66
  1
  0
VERTEX
  8
gg1
 10
0.439500
 20
0.532000
  0
VERTEX
  8
gg1
 10
0.454500
 20
0.532000
  0
SEQEND
  8
gg1
  0
POLYLINE
  8
gg1
 62
1
 40
0.000000
 41
0.000000
 66
  1
  0
VERTEX
  8
gg1
 10
0.447000
 20
0.524500
  0
VERTEX
  8
gg1
 10
0.447000
 20
0.539500
  0
SEQEND
  8
gg1
  0
POLYLINE
  8
gg1
 62
1
 40
0.000000
 41
0.000000
 66
  1
  0
VERTEX
  8
gg1
 10
0.441500
 20
0.678000
  0
VERTEX
  8
gg1
 10
0.456500
 20
0.678000
  0
SEQEND
  8
gg1
  0
POLYLINE
  8
gg1
 62
1
 40
0.000000
 41
0.000000
 66
  1
  0
VERTEX
  8
gg1
 10
0.449000
 20
0.670500
  0
VERTEX
  8
gg1
 10
0.449000
 20
0.685500
  0
SEQEND
  8
gg1
  0
POLYLINE
  8
gg1
 62
1
 40
0.000000
 41
0.000000
 66
  1
  0
VERTEX
  8
gg1
 10
0.347500
 20
0.579000
  0
VERTEX
  8
gg1
 10
0.362500
 20
0.579000
  0
SEQEND
  8
gg1
  0
POLYLINE
  8
gg1
 62
1
 40
0.000000
 41
0.000000
 66
  1
  0
VERTEX
  8
gg1
 10
0.355000
 20
0.571500
  0
VERTEX
  8
gg1
 10
0.355000
 20
0.586500
  0
SEQEND
  8
gg1
  0
POLYLINE
  8
gg1
 62
1
 40
0.000000
 41
0.000000
 66
  1
  0
VERTEX
  8
gg1
 10
0.483500
 20
1.135000
  0
VERTEX
  8
gg1
 10
0.498500
 20
1.135000
  0
SEQEND
  8
gg1
  0
POLYLINE
  8
gg1
 62
1
 40
0.000000
 41
0.000000
 66
  1
  0
VERTEX
  8
gg1
 10
0.491000
 20
1.127500
  0
VERTEX
  8
gg1
 10
0.491000
 20
1.142500
  0
SEQEND
  8
gg1
  0
POLYLINE
  8
gg1
 62
1
 40
0.000000
 41
0.000000
 66
  1
  0
VERTEX
  8
gg1
 10
0.192500
 20
1.290000
  0
VERTEX
  8
gg1
 10
0.207500
 20
1.290000
  0
SEQEND
  8
gg1
  0
POLYLINE
  8
gg1
 62
1
 40
0.000000
 41
0.000000
 66
  1
  0
VERTEX
  8
gg1
 10
0.200000
 20
1.282500
  0
VERTEX
  8
gg1
 10
0.200000
 20
1.297500
  0
SEQEND
  8
gg1
  0
POLYLINE
  8
gg1
 62
1
 40
0.000000
 41
0.000000
 66
  1
  0
VERTEX
  8
gg1
 10
0.192500
 20
1.190000
  0
VERTEX
  8
gg1
 10
0.207500
 20
1.190000
  0
SEQEND
  8
gg1
  0
POLYLINE
  8
gg1
 62
1
 40
0.000000
 41
0.000000
 66
  1
  0
VERTEX
  8
gg1
 10
0.200000
 20
1.182500
  0
VERTEX
  8
gg1
 10
0.200000
 20
1.197500
  0
SEQEND
  8
gg1
  0
POLYLINE
  8
gg1
 62
1
 40
0.000000
 41
0.000000
 66
  1
  0
VERTEX
  8
gg1
 10
0.367500
 20
1.145000
  0
VERTEX
  8
gg1
 10
0.382500
 20
1.145000
  0
SEQEND
  8
gg1
  0
POLYLINE
  8
gg1
 62
1
 40
0.000000
 41
0.000000
 66
  1
  0
VERTEX
  8
gg1
 10
0.375000
 20
1.137500
  0
VERTEX
  8
gg1
 10
0.375000
 20
1.152500
  0
SEQEND
  8
gg1
  0
POLYLINE
  8
gg1
 62
1
 40
0.000000
 41
0.000000
 66
  1
  0
VERTEX
  8
gg1
 10
0.367500
 20
1.325000
  0
VERTEX
  8
gg1
 10
0.382500
 20
1.325000
  0
SEQEND
  8
gg1
  0
POLYLINE
  8
gg1
 62
1
 40
0.000000
 41
0.000000
 66
  1
  0
VERTEX
  8
gg1
 10
0.375000
 20
1.317500
  0
VERTEX
  8
gg1
 10
0.375000
 20
1.332500
  0
SEQEND
  8
gg1
  0
POLYLINE
  8
gg1
 62
1
 40
0.000000
 41
0.000000
 66
  1
  0
VERTEX
  8
gg1
 10
0.178500
 20
1.364000
  0
VERTEX
  8
gg1
 10
0.193500
 20
1.364000
  0
SEQEND
  8
gg1
  0
POLYLINE
  8
gg1
 62
1
 40
0.000000
 41
0.000000
 66
  1
  0
VERTEX
  8
gg1
 10
0.186000
 20
1.356500
  0
VERTEX
  8
gg1
 10
0.186000
 20
1.371500
  0
SEQEND
  8
gg1
  0
POLYLINE
  8
gg1
 62
1
 40
0.000000
 41
0.000000
 66
  1
  0
VERTEX
  8
gg1
 10
0.162500
 20
1.315000
  0
VERTEX
  8
gg1
 10
0.177500
 20
1.315000
  0
SEQEND
  8
gg1
  0
POLYLINE
  8
gg1
 62
1
 40
0.000000
 41
0.000000
 66
  1
  0
VERTEX
  8
gg1
 10
0.170000
 20
1.307500
  0
VERTEX
  8
gg1
 10
0.170000
 20
1.322500
  0
SEQEND
  8
gg1
  0
POLYLINE
  8
gg1
 62
1
 40
0.000000
 41
0.000000
 66
  1
  0
VERTEX
  8
gg1
 10
0.317500
 20
1.230000
  0
VERTEX
  8
gg1
 10
0.332500
 20
1.230000
  0
SEQEND
  8
gg1
  0
POLYLINE
  8
gg1
 62
1
 40
0.000000
 41
0.000000
 66
  1
  0
VERTEX
  8
gg1
 10
0.325000
 20
1.222500
  0
VERTEX
  8
gg1
 10
0.325000
 20
1.237500
  0
SEQEND
  8
gg1
  0
POLYLINE
  8
gg1
 62
1
 40
0.000000
 41
0.000000
 66
  1
  0
VERTEX
  8
gg1
 10
0.558500
 20
0.293000
  0
VERTEX
  8
gg1
 10
0.573500
 20
0.293000
  0
SEQEND
  8
gg1
  0
POLYLINE
  8
gg1
 62
1
 40
0.000000
 41
0.000000
 66
  1
  0
VERTEX
  8
gg1
 10
0.566000
 20
0.285500
  0
VERTEX
  8
gg1
 10
0.566000
 20
0.300500
  0
SEQEND
  8
gg1
  0
POLYLINE
  8
gg1
 62
1
 40
0.000000
 41
0.000000
 66
  1
  0
VERTEX
  8
gg1
 10
0.412500
 20
0.295000
  0
VERTEX
  8
gg1
 10
0.427500
 20
0.295000
  0
SEQEND
  8
gg1
  0
POLYLINE
  8
gg1
 62
1
 40
0.000000
 41
0.000000
 66
  1
  0
VERTEX
  8
gg1
 10
0.420000
 20
0.287500
  0
VERTEX
  8
gg1
 10
0.420000
 20
0.302500
  0
SEQEND
  8
gg1
  0
POLYLINE
  8
gg1
 62
1
 40
0.000000
 41
0.000000
 66
  1
  0
VERTEX
  8
gg1
 10
0.107500
 20
0.345000
  0
VERTEX
  8
gg1
 10
0.122500
 20
0.345000
  0
SEQEND
  8
gg1
  0
POLYLINE
  8
gg1
 62
1
 40
0.000000
 41
0.000000
 66
  1
  0
VERTEX
  8
gg1
 10
0.115000
 20
0.337500
  0
VERTEX
  8
gg1
 10
0.115000
 20
0.352500
  0
SEQEND
  8
gg1
  0
POLYLINE
  8
gg1
 62
1
 40
0.000000
 41
0.000000
 66
  1
  0
VERTEX
  8
gg1
 10
0.167500
 20
0.270000
  0
VERTEX
  8
gg1
 10
0.182500
 20
0.270000
  0
SEQEND
  8
gg1
  0
POLYLINE
  8
gg1
 62
1
 40
0.000000
 41
0.000000
 66
  1
  0
VERTEX
  8
gg1
 10
0.175000
 20
0.262500
  0
VERTEX
  8
gg1
 10
0.175000
 20
0.277500
  0
SEQEND
  8
gg1
  0
POLYLINE
  8
gg1
 62
1
 40
0.000000
 41
0.000000
 66
  1
  0
VERTEX
  8
gg1
 10
0.152500
 20
0.340000
  0
VERTEX
  8
gg1
 10
0.167500
 20
0.340000
  0
SEQEND
  8
gg1
  0
POLYLINE
  8
gg1
 62
1
 40
0.000000
 41
0.000000
 66
  1
  0
VERTEX
  8
gg1
 10
0.160000
 20
0.332500
  0
VERTEX
  8
gg1
 10
0.160000
 20
0.347500
  0
SEQEND
  8
gg1
  0
POLYLINE
  8
gg1
 62
1
 40
0.000000
 41
0.000000
 66
  1
  0
VERTEX
  8
gg1
 10
0.412500
 20
0.345000
  0
VERTEX
  8
gg1
 10
0.427500
 20
0.345000
  0
SEQEND
  8
gg1
  0
POLYLINE
  8
gg1
 62
1
 40
0.000000
 41
0.000000
 66
  1
  0
VERTEX
  8
gg1
 10
0.420000
 20
0.337500
  0
VERTEX
  8
gg1
 10
0.420000
 20
0.352500
  0
SEQEND
  8
gg1
  0
POLYLINE
  8
gg1
 62
1
 40
0.000000
 41
0.000000
 66
  1
  0
VERTEX
  8
gg1
 10
0.142500
 20
0.295000
  0
VERTEX
  8
gg1
 10
0.157500
 20
0.295000
  0
SEQEND
  8
gg1
  0
POLYLINE
  8
gg1
 62
1
 40
0.000000
 41
0.000000
 66
  1
  0
VERTEX
  8
gg1
 10
0.150000
 20
0.287500
  0
VERTEX
  8
gg1
 10
0.150000
 20
0.302500
  0
SEQEND
  8
gg1
  0
POLYLINE
  8
gg1
 62
1
 40
0.000000
 41
0.000000
 66
  1
  0
VERTEX
  8
gg1
 10
0.107500
 20
0.305000
  0
VERTEX
  8
gg1
 10
0.122500
 20
0.305000
  0
SEQEND
  8
gg1
  0
POLYLINE
  8
gg1
 62
1
 40
0.000000
 41
0.000000
 66
  1
  0
VERTEX
  8
gg1
 10
0.115000
 20
0.297500
  0
VERTEX
  8
gg1
 10
0.115000
 20
0.312500
  0
SEQEND
  8
gg1
  0
POLYLINE
  8
gg1
 62
1
 40
0.000000
 41
0.000000
 66
  1
  0
VERTEX
  8
gg1
 10
0.437500
 20
0.320000
  0
VERTEX
  8
gg1
 10
0.452500
 20
0.320000
  0
SEQEND
  8
gg1
  0
POLYLINE
  8
gg1
 62
1
 40
0.000000
 41
0.000000
 66
  1
  0
VERTEX
  8
gg1
 10
0.445000
 20
0.312500
  0
VERTEX
  8
gg1
 10
0.445000
 20
0.327500
  0
SEQEND
  8
gg1
  0
POLYLINE
  8
gg1
 62
1
 40
0.000000
 41
0.000000
 66
  1
  0
VERTEX
  8
gg1
 10
0.462500
 20
0.345000
  0
VERTEX
  8
gg1
 10
0.477500
 20
0.345000
  0
SEQEND
  8
gg1
  0
POLYLINE
  8
gg1
 62
1
 40
0.000000
 41
0.000000
 66
  1
  0
VERTEX
  8
gg1
 10
0.470000
 20
0.337500
  0
VERTEX
  8
gg1
 10
0.470000
 20
0.352500
  0
SEQEND
  8
gg1
  0
POLYLINE
  8
gg1
 62
1
 40
0.000000
 41
0.000000
 66
  1
  0
VERTEX
  8
gg1
 10
0.212500
 20
0.641000
  0
VERTEX
  8
gg1
 10
0.227500
 20
0.641000
  0
SEQEND
  8
gg1
  0
POLYLINE
  8
gg1
 62
1
 40
0.000000
 41
0.000000
 66
  1
  0
VERTEX
  8
gg1
 10
0.220000
 20
0.633500
  0
VERTEX
  8
gg1
 10
0.220000
 20
0.648500
  0
SEQEND
  8
gg1
  0
POLYLINE
  8
gg1
 62
1
 40
0.000000
 41
0.000000
 66
  1
  0
VERTEX
  8
gg1
 10
0.304500
 20
0.713000
  0
VERTEX
  8
gg1
 10
0.319500
 20
0.713000
  0
SEQEND
  8
gg1
  0
POLYLINE
  8
gg1
 62
1
 40
0.000000
 41
0.000000
 66
  1
  0
VERTEX
  8
gg1
 10
0.312000
 20
0.705500
  0
VERTEX
  8
gg1
 10
0.312000
 20
0.720500
  0
SEQEND
  8
gg1
  0
POLYLINE
  8
gg1
 62
1
 40
0.000000
 41
0.000000
 66
  1
  0
VERTEX
  8
gg1
 10
0.303500
 20
0.865000
  0
VERTEX
  8
gg1
 10
0.318500
 20
0.865000
  0
SEQEND
  8
gg1
  0
POLYLINE
  8
gg1
 62
1
 40
0.000000
 41
0.000000
 66
  1
  0
VERTEX
  8
gg1
 10
0.311000
 20
0.857500
  0
VERTEX
  8
gg1
 10
0.311000
 20
0.872500
  0
SEQEND
  8
gg1
  0
POLYLINE
  8
gg1
 62
1
 40
0.000000
 41
0.000000
 66
  1
  0
VERTEX
  8
gg1
 10
0.317500
 20
0.835000
  0
VERTEX
  8
gg1
 10
0.332500
 20
0.835000
  0
SEQEND
  8
gg1
  0
POLYLINE
  8
gg1
 62
1
 40
0.000000
 41
0.000000
 66
  1
  0
VERTEX
  8
gg1
 10
0.325000
 20
0.827500
  0
VERTEX
  8
gg1
 10
0.325000
 20
0.842500
  0
SEQEND
  8
gg1
  0
POLYLINE
  8
gg1
 62
1
 40
0.000000
 41
0.000000
 66
  1
  0
VERTEX
  8
gg1
 10
0.303500
 20
0.805000
  0
VERTEX
  8
gg1
 10
0.318500
 20
0.805000
  0
SEQEND
  8
gg1
  0
POLYLINE
  8
gg1
 62
1
 40
0.000000
 41
0.000000
 66
  1
  0
VERTEX
  8
gg1
 10
0.311000
 20
0.797500
  0
VERTEX
  8
gg1
 10
0.311000
 20
0.812500
  0
SEQEND
  8
gg1
  0
POLYLINE
  8
gg1
 62
1
 40
0.000000
 41
0.000000
 66
  1
  0
VERTEX
  8
gg1
 10
0.317500
 20
0.775000
  0
VERTEX
  8
gg1
 10
0.332500
 20
0.775000
  0
SEQEND
  8
gg1
  0
POLYLINE
  8
gg1
 62
1
 40
0.000000
 41
0.000000
 66
  1
  0
VERTEX
  8
gg1
 10
0.325000
 20
0.767500
  0
VERTEX
  8
gg1
 10
0.325000
 20
0.782500
  0
SEQEND
  8
gg1
  0
POLYLINE
  8
gg1
 62
1
 40
0.000000
 41
0.000000
 66
  1
  0
VERTEX
  8
gg1
 10
0.304500
 20
0.745000
  0
VERTEX
  8
gg1
 10
0.319500
 20
0.745000
  0
SEQEND
  8
gg1
  0
POLYLINE
  8
gg1
 62
1
 40
0.000000
 41
0.000000
 66
  1
  0
VERTEX
  8
gg1
 10
0.312000
 20
0.737500
  0
VERTEX
  8
gg1
 10
0.312000
 20
0.752500
  0
SEQEND
  8
gg1
  0
POLYLINE
  8
gg1
 62
1
 40
0.000000
 41
0.000000
 66
  1
  0
VERTEX
  8
gg1
 10
0.303500
 20
0.900000
  0
VERTEX
  8
gg1
 10
0.318500
 20
0.900000
  0
SEQEND
  8
gg1
  0
POLYLINE
  8
gg1
 62
1
 40
0.000000
 41
0.000000
 66
  1
  0
VERTEX
  8
gg1
 10
0.311000
 20
0.892500
  0
VERTEX
  8
gg1
 10
0.311000
 20
0.907500
  0
SEQEND
  8
gg1
  0
POLYLINE
  8
gg1
 62
1
 40
0.000000
 41
0.000000
 66
  1
  0
VERTEX
  8
gg1
 10
0.316500
 20
0.960000
  0
VERTEX
  8
gg1
 10
0.331500
 20
0.960000
  0
SEQEND
  8
gg1
  0
POLYLINE
  8
gg1
 62
1
 40
0.000000
 41
0.000000
 66
  1
  0
VERTEX
  8
gg1
 10
0.324000
 20
0.952500
  0
VERTEX
  8
gg1
 10
0.324000
 20
0.967500
  0
SEQEND
  8
gg1
  0
POLYLINE
  8
gg1
 62
1
 40
0.000000
 41
0.000000
 66
  1
  0
VERTEX
  8
gg1
 10
0.317500
 20
1.020000
  0
VERTEX
  8
gg1
 10
0.332500
 20
1.020000
  0
SEQEND
  8
gg1
  0
POLYLINE
  8
gg1
 62
1
 40
0.000000
 41
0.000000
 66
  1
  0
VERTEX
  8
gg1
 10
0.325000
 20
1.012500
  0
VERTEX
  8
gg1
 10
0.325000
 20
1.027500
  0
SEQEND
  8
gg1
  0
POLYLINE
  8
gg1
 62
1
 40
0.000000
 41
0.000000
 66
  1
  0
VERTEX
  8
gg1
 10
0.303500
 20
1.050000
  0
VERTEX
  8
gg1
 10
0.318500
 20
1.050000
  0
SEQEND
  8
gg1
  0
POLYLINE
  8
gg1
 62
1
 40
0.000000
 41
0.000000
 66
  1
  0
VERTEX
  8
gg1
 10
0.311000
 20
1.042500
  0
VERTEX
  8
gg1
 10
0.311000
 20
1.057500
  0
SEQEND
  8
gg1
  0
POLYLINE
  8
gg1
 62
1
 40
0.000000
 41
0.000000
 66
  1
  0
VERTEX
  8
gg1
 10
0.303500
 20
0.990000
  0
VERTEX
  8
gg1
 10
0.318500
 20
0.990000
  0
SEQEND
  8
gg1
  0
POLYLINE
  8
gg1
 62
1
 40
0.000000
 41
0.000000
 66
  1
  0
VERTEX
  8
gg1
 10
0.311000
 20
0.982500
  0
VERTEX
  8
gg1
 10
0.311000
 20
0.997500
  0
SEQEND
  8
gg1
  0
POLYLINE
  8
gg1
 62
1
 40
0.000000
 41
0.000000
 66
  1
  0
VERTEX
  8
gg1
 10
0.303500
 20
0.930000
  0
VERTEX
  8
gg1
 10
0.318500
 20
0.930000
  0
SEQEND
  8
gg1
  0
POLYLINE
  8
gg1
 62
1
 40
0.000000
 41
0.000000
 66
  1
  0
VERTEX
  8
gg1
 10
0.311000
 20
0.922500
  0
VERTEX
  8
gg1
 10
0.311000
 20
0.937500
  0
SEQEND
  8
gg1
  0
POLYLINE
  8
gg1
 62
1
 40
0.000000
 41
0.000000
 66
  1
  0
VERTEX
  8
gg1
 10
0.557500
 20
0.885000
  0
VERTEX
  8
gg1
 10
0.572500
 20
0.885000
  0
SEQEND
  8
gg1
  0
POLYLINE
  8
gg1
 62
1
 40
0.000000
 41
0.000000
 66
  1
  0
VERTEX
  8
gg1
 10
0.565000
 20
0.877500
  0
VERTEX
  8
gg1
 10
0.565000
 20
0.892500
  0
SEQEND
  8
gg1
  0
POLYLINE
  8
gg1
 62
1
 40
0.000000
 41
0.000000
 66
  1
  0
VERTEX
  8
gg1
 10
0.507500
 20
0.725000
  0
VERTEX
  8
gg1
 10
0.522500
 20
0.725000
  0
SEQEND
  8
gg1
  0
POLYLINE
  8
gg1
 62
1
 40
0.000000
 41
0.000000
 66
  1
  0
VERTEX
  8
gg1
 10
0.515000
 20
0.717500
  0
VERTEX
  8
gg1
 10
0.515000
 20
0.732500
  0
SEQEND
  8
gg1
  0
POLYLINE
  8
gg1
 62
1
 40
0.000000
 41
0.000000
 66
  1
  0
VERTEX
  8
gg1
 10
0.507500
 20
0.830000
  0
VERTEX
  8
gg1
 10
0.522500
 20
0.830000
  0
SEQEND
  8
gg1
  0
POLYLINE
  8
gg1
 62
1
 40
0.000000
 41
0.000000
 66
  1
  0
VERTEX
  8
gg1
 10
0.515000
 20
0.822500
  0
VERTEX
  8
gg1
 10
0.515000
 20
0.837500
  0
SEQEND
  8
gg1
  0
POLYLINE
  8
gg1
 62
1
 40
0.000000
 41
0.000000
 66
  1
  0
VERTEX
  8
gg1
 10
0.507500
 20
0.795000
  0
VERTEX
  8
gg1
 10
0.522500
 20
0.795000
  0
SEQEND
  8
gg1
  0
POLYLINE
  8
gg1
 62
1
 40
0.000000
 41
0.000000
 66
  1
  0
VERTEX
  8
gg1
 10
0.515000
 20
0.787500
  0
VERTEX
  8
gg1
 10
0.515000
 20
0.802500
  0
SEQEND
  8
gg1
  0
POLYLINE
  8
gg1
 62
1
 40
0.000000
 41
0.000000
 66
  1
  0
VERTEX
  8
gg1
 10
0.507500
 20
0.760000
  0
VERTEX
  8
gg1
 10
0.522500
 20
0.760000
  0
SEQEND
  8
gg1
  0
POLYLINE
  8
gg1
 62
1
 40
0.000000
 41
0.000000
 66
  1
  0
VERTEX
  8
gg1
 10
0.515000
 20
0.752500
  0
VERTEX
  8
gg1
 10
0.515000
 20
0.767500
  0
SEQEND
  8
gg1
  0
POLYLINE
  8
gg1
 62
1
 40
0.000000
 41
0.000000
 66
  1
  0
VERTEX
  8
gg1
 10
0.417500
 20
0.850000
  0
VERTEX
  8
gg1
 10
0.432500
 20
0.850000
  0
SEQEND
  8
gg1
  0
POLYLINE
  8
gg1
 62
1
 40
0.000000
 41
0.000000
 66
  1
  0
VERTEX
  8
gg1
 10
0.425000
 20
0.842500
  0
VERTEX
  8
gg1
 10
0.425000
 20
0.857500
  0
SEQEND
  8
gg1
  0
POLYLINE
  8
gg1
 62
1
 40
0.000000
 41
0.000000
 66
  1
  0
VERTEX
  8
gg1
 10
0.417500
 20
0.800000
  0
VERTEX
  8
gg1
 10
0.432500
 20
0.800000
  0
SEQEND
  8
gg1
  0
POLYLINE
  8
gg1
 62
1
 40
0.000000
 41
0.000000
 66
  1
  0
VERTEX
  8
gg1
 10
0.425000
 20
0.792500
  0
VERTEX
  8
gg1
 10
0.425000
 20
0.807500
  0
SEQEND
  8
gg1
  0
POLYLINE
  8
gg1
 62
1
 40
0.000000
 41
0.000000
 66
  1
  0
VERTEX
  8
gg1
 10
0.417500
 20
0.750000
  0
VERTEX
  8
gg1
 10
0.432500
 20
0.750000
  0
SEQEND
  8
gg1
  0
POLYLINE
  8
gg1
 62
1
 40
0.000000
 41
0.000000
 66
  1
  0
VERTEX
  8
gg1
 10
0.425000
 20
0.742500
  0
VERTEX
  8
gg1
 10
0.425000
 20
0.757500
  0
SEQEND
  8
gg1
  0
POLYLINE
  8
gg1
 62
1
 40
0.000000
 41
0.000000
 66
  1
  0
VERTEX
  8
gg1
 10
0.752500
 20
0.805000
  0
VERTEX
  8
gg1
 10
0.767500
 20
0.805000
  0
SEQEND
  8
gg1
  0
POLYLINE
  8
gg1
 62
1
 40
0.000000
 41
0.000000
 66
  1
  0
VERTEX
  8
gg1
 10
0.760000
 20
0.797500
  0
VERTEX
  8
gg1
 10
0.760000
 20
0.812500
  0
SEQEND
  8
gg1
  0
POLYLINE
  8
gg1
 62
1
 40
0.000000
 41
0.000000
 66
  1
  0
VERTEX
  8
gg1
 10
0.608500
 20
0.850000
  0
VERTEX
  8
gg1
 10
0.623500
 20
0.850000
  0
SEQEND
  8
gg1
  0
POLYLINE
  8
gg1
 62
1
 40
0.000000
 41
0.000000
 66
  1
  0
VERTEX
  8
gg1
 10
0.616000
 20
0.842500
  0
VERTEX
  8
gg1
 10
0.616000
 20
0.857500
  0
SEQEND
  8
gg1
  0
POLYLINE
  8
gg1
 62
1
 40
0.000000
 41
0.000000
 66
  1
  0
VERTEX
  8
gg1
 10
0.608500
 20
0.800000
  0
VERTEX
  8
gg1
 10
0.623500
 20
0.800000
  0
SEQEND
  8
gg1
  0
POLYLINE
  8
gg1
 62
1
 40
0.000000
 41
0.000000
 66
  1
  0
VERTEX
  8
gg1
 10
0.616000
 20
0.792500
  0
VERTEX
  8
gg1
 10
0.616000
 20
0.807500
  0
SEQEND
  8
gg1
  0
POLYLINE
  8
gg1
 62
1
 40
0.000000
 41
0.000000
 66
  1
  0
VERTEX
  8
gg1
 10
0.608500
 20
0.920000
  0
VERTEX
  8
gg1
 10
0.623500
 20
0.920000
  0
SEQEND
  8
gg1
  0
POLYLINE
  8
gg1
 62
1
 40
0.000000
 41
0.000000
 66
  1
  0
VERTEX
  8
gg1
 10
0.616000
 20
0.912500
  0
VERTEX
  8
gg1
 10
0.616000
 20
0.927500
  0
SEQEND
  8
gg1
  0
POLYLINE
  8
gg1
 62
1
 40
0.000000
 41
0.000000
 66
  1
  0
VERTEX
  8
gg1
 10
0.608500
 20
0.970000
  0
VERTEX
  8
gg1
 10
0.623500
 20
0.970000
  0
SEQEND
  8
gg1
  0
POLYLINE
  8
gg1
 62
1
 40
0.000000
 41
0.000000
 66
  1
  0
VERTEX
  8
gg1
 10
0.616000
 20
0.962500
  0
VERTEX
  8
gg1
 10
0.616000
 20
0.977500
  0
SEQEND
  8
gg1
  0
POLYLINE
  8
gg1
 62
1
 40
0.000000
 41
0.000000
 66
  1
  0
VERTEX
  8
gg1
 10
0.507500
 20
0.920000
  0
VERTEX
  8
gg1
 10
0.522500
 20
0.920000
  0
SEQEND
  8
gg1
  0
POLYLINE
  8
gg1
 62
1
 40
0.000000
 41
0.000000
 66
  1
  0
VERTEX
  8
gg1
 10
0.515000
 20
0.912500
  0
VERTEX
  8
gg1
 10
0.515000
 20
0.927500
  0
SEQEND
  8
gg1
  0
POLYLINE
  8
gg1
 62
1
 40
0.000000
 41
0.000000
 66
  1
  0
VERTEX
  8
gg1
 10
0.507500
 20
0.970000
  0
VERTEX
  8
gg1
 10
0.522500
 20
0.970000
  0
SEQEND
  8
gg1
  0
POLYLINE
  8
gg1
 62
1
 40
0.000000
 41
0.000000
 66
  1
  0
VERTEX
  8
gg1
 10
0.515000
 20
0.962500
  0
VERTEX
  8
gg1
 10
0.515000
 20
0.977500
  0
SEQEND
  8
gg1
  0
POLYLINE
  8
gg1
 62
1
 40
0.000000
 41
0.000000
 66
  1
  0
VERTEX
  8
gg1
 10
0.507500
 20
1.020000
  0
VERTEX
  8
gg1
 10
0.522500
 20
1.020000
  0
SEQEND
  8
gg1
  0
POLYLINE
  8
gg1
 62
1
 40
0.000000
 41
0.000000
 66
  1
  0
VERTEX
  8
gg1
 10
0.515000
 20
1.012500
  0
VERTEX
  8
gg1
 10
0.515000
 20
1.027500
  0
SEQEND
  8
gg1
  0
POLYLINE
  8
gg1
 62
1
 40
0.000000
 41
0.000000
 66
  1
  0
VERTEX
  8
gg1
 10
0.507500
 20
1.065000
  0
VERTEX
  8
gg1
 10
0.522500
 20
1.065000
  0
SEQEND
  8
gg1
  0
POLYLINE
  8
gg1
 62
1
 40
0.000000
 41
0.000000
 66
  1
  0
VERTEX
  8
gg1
 10
0.515000
 20
1.057500
  0
VERTEX
  8
gg1
 10
0.515000
 20
1.072500
  0
SEQEND
  8
gg1
  0
POLYLINE
  8
gg1
 62
1
 40
0.000000
 41
0.000000
 66
  1
  0
VERTEX
  8
gg1
 10
0.687500
 20
1.290000
  0
VERTEX
  8
gg1
 10
0.702500
 20
1.290000
  0
SEQEND
  8
gg1
  0
POLYLINE
  8
gg1
 62
1
 40
0.000000
 41
0.000000
 66
  1
  0
VERTEX
  8
gg1
 10
0.695000
 20
1.282500
  0
VERTEX
  8
gg1
 10
0.695000
 20
1.297500
  0
SEQEND
  8
gg1
  0
POLYLINE
  8
gg1
 62
1
 40
0.000000
 41
0.000000
 66
  1
  0
VERTEX
  8
gg1
 10
0.687500
 20
1.240000
  0
VERTEX
  8
gg1
 10
0.702500
 20
1.240000
  0
SEQEND
  8
gg1
  0
POLYLINE
  8
gg1
 62
1
 40
0.000000
 41
0.000000
 66
  1
  0
VERTEX
  8
gg1
 10
0.695000
 20
1.232500
  0
VERTEX
  8
gg1
 10
0.695000
 20
1.247500
  0
SEQEND
  8
gg1
  0
POLYLINE
  8
gg1
 62
1
 40
0.000000
 41
0.000000
 66
  1
  0
VERTEX
  8
gg1
 10
0.687500
 20
1.190000
  0
VERTEX
  8
gg1
 10
0.702500
 20
1.190000
  0
SEQEND
  8
gg1
  0
POLYLINE
  8
gg1
 62
1
 40
0.000000
 41
0.000000
 66
  1
  0
VERTEX
  8
gg1
 10
0.695000
 20
1.182500
  0
VERTEX
  8
gg1
 10
0.695000
 20
1.197500
  0
SEQEND
  8
gg1
  0
POLYLINE
  8
gg1
 62
1
 40
0.000000
 41
0.000000
 66
  1
  0
VERTEX
  8
gg1
 10
0.687500
 20
1.140000
  0
VERTEX
  8
gg1
 10
0.702500
 20
1.140000
  0
SEQEND
  8
gg1
  0
POLYLINE
  8
gg1
 62
1
 40
0.000000
 41
0.000000
 66
  1
  0
VERTEX
  8
gg1
 10
0.695000
 20
1.132500
  0
VERTEX
  8
gg1
 10
0.695000
 20
1.147500
  0
SEQEND
  8
gg1
  0
POLYLINE
  8
gg1
 62
1
 40
0.000000
 41
0.000000
 66
  1
  0
VERTEX
  8
gg1
 10
0.483500
 20
1.230000
  0
VERTEX
  8
gg1
 10
0.498500
 20
1.230000
  0
SEQEND
  8
gg1
  0
POLYLINE
  8
gg1
 62
1
 40
0.000000
 41
0.000000
 66
  1
  0
VERTEX
  8
gg1
 10
0.491000
 20
1.222500
  0
VERTEX
  8
gg1
 10
0.491000
 20
1.237500
  0
SEQEND
  8
gg1
  0
POLYLINE
  8
gg1
 62
1
 40
0.000000
 41
0.000000
 66
  1
  0
VERTEX
  8
gg1
 10
0.483500
 20
1.170000
  0
VERTEX
  8
gg1
 10
0.498500
 20
1.170000
  0
SEQEND
  8
gg1
  0
POLYLINE
  8
gg1
 62
1
 40
0.000000
 41
0.000000
 66
  1
  0
VERTEX
  8
gg1
 10
0.491000
 20
1.162500
  0
VERTEX
  8
gg1
 10
0.491000
 20
1.177500
  0
SEQEND
  8
gg1
  0
POLYLINE
  8
gg1
 62
1
 40
0.000000
 41
0.000000
 66
  1
  0
VERTEX
  8
gg1
 10
0.532500
 20
1.545000
  0
VERTEX
  8
gg1
 10
0.547500
 20
1.545000
  0
SEQEND
  8
gg1
  0
POLYLINE
  8
gg1
 62
1
 40
0.000000
 41
0.000000
 66
  1
  0
VERTEX
  8
gg1
 10
0.540000
 20
1.537500
  0
VERTEX
  8
gg1
 10
0.540000
 20
1.552500
  0
SEQEND
  8
gg1
  0
POLYLINE
  8
gg1
 62
1
 40
0.000000
 41
0.000000
 66
  1
  0
VERTEX
  8
gg1
 10
0.482500
 20
1.495000
  0
VERTEX
  8
gg1
 10
0.497500
 20
1.495000
  0
SEQEND
  8
gg1
  0
POLYLINE
  8
gg1
 62
1
 40
0.000000
 41
0.000000
 66
  1
  0
VERTEX
  8
gg1
 10
0.490000
 20
1.487500
  0
VERTEX
  8
gg1
 10
0.490000
 20
1.502500
  0
SEQEND
  8
gg1
  0
POLYLINE
  8
gg1
 62
1
 40
0.000000
 41
0.000000
 66
  1
  0
VERTEX
  8
gg1
 10
0.497500
 20
1.465000
  0
VERTEX
  8
gg1
 10
0.512500
 20
1.465000
  0
SEQEND
  8
gg1
  0
POLYLINE
  8
gg1
 62
1
 40
0.000000
 41
0.000000
 66
  1
  0
VERTEX
  8
gg1
 10
0.505000
 20
1.457500
  0
VERTEX
  8
gg1
 10
0.505000
 20
1.472500
  0
SEQEND
  8
gg1
  0
POLYLINE
  8
gg1
 62
1
 40
0.000000
 41
0.000000
 66
  1
  0
VERTEX
  8
gg1
 10
0.497500
 20
1.405000
  0
VERTEX
  8
gg1
 10
0.512500
 20
1.405000
  0
SEQEND
  8
gg1
  0
POLYLINE
  8
gg1
 62
1
 40
0.000000
 41
0.000000
 66
  1
  0
VERTEX
  8
gg1
 10
0.505000
 20
1.397500
  0
VERTEX
  8
gg1
 10
0.505000
 20
1.412500
  0
SEQEND
  8
gg1
  0
POLYLINE
  8
gg1
 62
1
 40
0.000000
 41
0.000000
 66
  1
  0
VERTEX
  8
gg1
 10
0.483500
 20
1.340000
  0
VERTEX
  8
gg1
 10
0.498500
 20
1.340000
  0
SEQEND
  8
gg1
  0
POLYLINE
  8
gg1
 62
1
 40
0.000000
 41
0.000000
 66
  1
  0
VERTEX
  8
gg1
 10
0.491000
 20
1.332500
  0
VERTEX
  8
gg1
 10
0.491000
 20
1.347500
  0
SEQEND
  8
gg1
  0
POLYLINE
  8
gg1
 62
1
 40
0.000000
 41
0.000000
 66
  1
  0
VERTEX
  8
gg1
 10
0.367500
 20
1.510000
  0
VERTEX
  8
gg1
 10
0.382500
 20
1.510000
  0
SEQEND
  8
gg1
  0
POLYLINE
  8
gg1
 62
1
 40
0.000000
 41
0.000000
 66
  1
  0
VERTEX
  8
gg1
 10
0.375000
 20
1.502500
  0
VERTEX
  8
gg1
 10
0.375000
 20
1.517500
  0
SEQEND
  8
gg1
  0
POLYLINE
  8
gg1
 62
1
 40
0.000000
 41
0.000000
 66
  1
  0
VERTEX
  8
gg1
 10
0.302500
 20
1.410000
  0
VERTEX
  8
gg1
 10
0.317500
 20
1.410000
  0
SEQEND
  8
gg1
  0
POLYLINE
  8
gg1
 62
1
 40
0.000000
 41
0.000000
 66
  1
  0
VERTEX
  8
gg1
 10
0.310000
 20
1.402500
  0
VERTEX
  8
gg1
 10
0.310000
 20
1.417500
  0
SEQEND
  8
gg1
  0
POLYLINE
  8
gg1
 62
1
 40
0.000000
 41
0.000000
 66
  1
  0
VERTEX
  8
gg1
 10
0.192500
 20
1.240000
  0
VERTEX
  8
gg1
 10
0.207500
 20
1.240000
  0
SEQEND
  8
gg1
  0
POLYLINE
  8
gg1
 62
1
 40
0.000000
 41
0.000000
 66
  1
  0
VERTEX
  8
gg1
 10
0.200000
 20
1.232500
  0
VERTEX
  8
gg1
 10
0.200000
 20
1.247500
  0
SEQEND
  8
gg1
  0
POLYLINE
  8
gg1
 62
1
 40
0.000000
 41
0.000000
 66
  1
  0
VERTEX
  8
gg1
 10
0.112500
 20
1.025000
  0
VERTEX
  8
gg1
 10
0.127500
 20
1.025000
  0
SEQEND
  8
gg1
  0
POLYLINE
  8
gg1
 62
1
 40
0.000000
 41
0.000000
 66
  1
  0
VERTEX
  8
gg1
 10
0.120000
 20
1.017500
  0
VERTEX
  8
gg1
 10
0.120000
 20
1.032500
  0
SEQEND
  8
gg1
  0
POLYLINE
  8
gg1
 62
1
 40
0.000000
 41
0.000000
 66
  1
  0
VERTEX
  8
gg1
 10
0.112500
 20
0.970000
  0
VERTEX
  8
gg1
 10
0.127500
 20
0.970000
  0
SEQEND
  8
gg1
  0
POLYLINE
  8
gg1
 62
1
 40
0.000000
 41
0.000000
 66
  1
  0
VERTEX
  8
gg1
 10
0.120000
 20
0.962500
  0
VERTEX
  8
gg1
 10
0.120000
 20
0.977500
  0
SEQEND
  8
gg1
  0
POLYLINE
  8
gg1
 62
1
 40
0.000000
 41
0.000000
 66
  1
  0
VERTEX
  8
gg1
 10
0.112500
 20
0.749000
  0
VERTEX
  8
gg1
 10
0.127500
 20
0.749000
  0
SEQEND
  8
gg1
  0
POLYLINE
  8
gg1
 62
1
 40
0.000000
 41
0.000000
 66
  1
  0
VERTEX
  8
gg1
 10
0.120000
 20
0.741500
  0
VERTEX
  8
gg1
 10
0.120000
 20
0.756500
  0
SEQEND
  8
gg1
  0
POLYLINE
  8
gg1
 62
1
 40
0.000000
 41
0.000000
 66
  1
  0
VERTEX
  8
gg1
 10
0.112500
 20
0.800000
  0
VERTEX
  8
gg1
 10
0.127500
 20
0.800000
  0
SEQEND
  8
gg1
  0
POLYLINE
  8
gg1
 62
1
 40
0.000000
 41
0.000000
 66
  1
  0
VERTEX
  8
gg1
 10
0.120000
 20
0.792500
  0
VERTEX
  8
gg1
 10
0.120000
 20
0.807500
  0
SEQEND
  8
gg1
  0
POLYLINE
  8
gg1
 62
1
 40
0.000000
 41
0.000000
 66
  1
  0
VERTEX
  8
gg1
 10
0.112500
 20
0.850000
  0
VERTEX
  8
gg1
 10
0.127500
 20
0.850000
  0
SEQEND
  8
gg1
  0
POLYLINE
  8
gg1
 62
1
 40
0.000000
 41
0.000000
 66
  1
  0
VERTEX
  8
gg1
 10
0.120000
 20
0.842500
  0
VERTEX
  8
gg1
 10
0.120000
 20
0.857500
  0
SEQEND
  8
gg1
  0
POLYLINE
  8
gg1
 62
1
 40
0.000000
 41
0.000000
 66
  1
  0
VERTEX
  8
gg1
 10
0.176500
 20
0.952000
  0
VERTEX
  8
gg1
 10
0.191500
 20
0.952000
  0
SEQEND
  8
gg1
  0
POLYLINE
  8
gg1
 62
1
 40
0.000000
 41
0.000000
 66
  1
  0
VERTEX
  8
gg1
 10
0.184000
 20
0.944500
  0
VERTEX
  8
gg1
 10
0.184000
 20
0.959500
  0
SEQEND
  8
gg1
  0
POLYLINE
  8
gg1
 62
1
 40
0.000000
 41
0.000000
 66
  1
  0
VERTEX
  8
gg1
 10
0.142500
 20
0.951000
  0
VERTEX
  8
gg1
 10
0.157500
 20
0.951000
  0
SEQEND
  8
gg1
  0
POLYLINE
  8
gg1
 62
1
 40
0.000000
 41
0.000000
 66
  1
  0
VERTEX
  8
gg1
 10
0.150000
 20
0.943500
  0
VERTEX
  8
gg1
 10
0.150000
 20
0.958500
  0
SEQEND
  8
gg1
  0
POLYLINE
  8
gg1
 62
1
 40
0.000000
 41
0.000000
 66
  1
  0
VERTEX
  8
gg1
 10
0.167500
 20
1.215000
  0
VERTEX
  8
gg1
 10
0.182500
 20
1.215000
  0
SEQEND
  8
gg1
  0
POLYLINE
  8
gg1
 62
1
 40
0.000000
 41
0.000000
 66
  1
  0
VERTEX
  8
gg1
 10
0.175000
 20
1.207500
  0
VERTEX
  8
gg1
 10
0.175000
 20
1.222500
  0
SEQEND
  8
gg1
  0
POLYLINE
  8
gg1
 62
1
 40
0.000000
 41
0.000000
 66
  1
  0
VERTEX
  8
gg1
 10
0.167500
 20
1.265000
  0
VERTEX
  8
gg1
 10
0.182500
 20
1.265000
  0
SEQEND
  8
gg1
  0
POLYLINE
  8
gg1
 62
1
 40
0.000000
 41
0.000000
 66
  1
  0
VERTEX
  8
gg1
 10
0.175000
 20
1.257500
  0
VERTEX
  8
gg1
 10
0.175000
 20
1.272500
  0
SEQEND
  8
gg1
  0
POLYLINE
  8
gg1
 62
1
 40
0.000000
 41
0.000000
 66
  1
  0
VERTEX
  8
gg1
 10
0.188500
 20
1.512000
  0
VERTEX
  8
gg1
 10
0.203500
 20
1.512000
  0
SEQEND
  8
gg1
  0
POLYLINE
  8
gg1
 62
1
 40
0.000000
 41
0.000000
 66
  1
  0
VERTEX
  8
gg1
 10
0.196000
 20
1.504500
  0
VERTEX
  8
gg1
 10
0.196000
 20
1.519500
  0
SEQEND
  8
gg1
  0
POLYLINE
  8
gg1
 62
1
 40
0.000000
 41
0.000000
 66
  1
  0
VERTEX
  8
gg1
 10
0.117500
 20
1.590000
  0
VERTEX
  8
gg1
 10
0.132500
 20
1.590000
  0
SEQEND
  8
gg1
  0
POLYLINE
  8
gg1
 62
1
 40
0.000000
 41
0.000000
 66
  1
  0
VERTEX
  8
gg1
 10
0.125000
 20
1.582500
  0
VERTEX
  8
gg1
 10
0.125000
 20
1.597500
  0
SEQEND
  8
gg1
  0
POLYLINE
  8
gg1
 62
1
 40
0.000000
 41
0.000000
 66
  1
  0
VERTEX
  8
gg1
 10
0.077500
 20
1.590000
  0
VERTEX
  8
gg1
 10
0.092500
 20
1.590000
  0
SEQEND
  8
gg1
  0
POLYLINE
  8
gg1
 62
1
 40
0.000000
 41
0.000000
 66
  1
  0
VERTEX
  8
gg1
 10
0.085000
 20
1.582500
  0
VERTEX
  8
gg1
 10
0.085000
 20
1.597500
  0
SEQEND
  8
gg1
  0
POLYLINE
  8
gg1
 62
1
 40
0.000000
 41
0.000000
 66
  1
  0
VERTEX
  8
gg1
 10
0.037500
 20
1.590000
  0
VERTEX
  8
gg1
 10
0.052500
 20
1.590000
  0
SEQEND
  8
gg1
  0
POLYLINE
  8
gg1
 62
1
 40
0.000000
 41
0.000000
 66
  1
  0
VERTEX
  8
gg1
 10
0.045000
 20
1.582500
  0
VERTEX
  8
gg1
 10
0.045000
 20
1.597500
  0
SEQEND
  8
gg1
  0
POLYLINE
  8
gg1
 62
1
 40
0.000000
 41
0.000000
 66
  1
  0
VERTEX
  8
gg1
 10
0.242500
 20
1.590000
  0
VERTEX
  8
gg1
 10
0.257500
 20
1.590000
  0
SEQEND
  8
gg1
  0
POLYLINE
  8
gg1
 62
1
 40
0.000000
 41
0.000000
 66
  1
  0
VERTEX
  8
gg1
 10
0.250000
 20
1.582500
  0
VERTEX
  8
gg1
 10
0.250000
 20
1.597500
  0
SEQEND
  8
gg1
  0
POLYLINE
  8
gg1
 62
1
 40
0.000000
 41
0.000000
 66
  1
  0
VERTEX
  8
gg1
 10
0.292500
 20
1.590000
  0
VERTEX
  8
gg1
 10
0.307500
 20
1.590000
  0
SEQEND
  8
gg1
  0
POLYLINE
  8
gg1
 62
1
 40
0.000000
 41
0.000000
 66
  1
  0
VERTEX
  8
gg1
 10
0.300000
 20
1.582500
  0
VERTEX
  8
gg1
 10
0.300000
 20
1.597500
  0
SEQEND
  8
gg1
  0
POLYLINE
  8
gg1
 62
1
 40
0.000000
 41
0.000000
 66
  1
  0
VERTEX
  8
gg1
 10
0.367500
 20
1.590000
  0
VERTEX
  8
gg1
 10
0.382500
 20
1.590000
  0
SEQEND
  8
gg1
  0
POLYLINE
  8
gg1
 62
1
 40
0.000000
 41
0.000000
 66
  1
  0
VERTEX
  8
gg1
 10
0.375000
 20
1.582500
  0
VERTEX
  8
gg1
 10
0.375000
 20
1.597500
  0
SEQEND
  8
gg1
  0
POLYLINE
  8
gg1
 62
1
 40
0.000000
 41
0.000000
 66
  1
  0
VERTEX
  8
gg1
 10
0.492500
 20
1.590000
  0
VERTEX
  8
gg1
 10
0.507500
 20
1.590000
  0
SEQEND
  8
gg1
  0
POLYLINE
  8
gg1
 62
1
 40
0.000000
 41
0.000000
 66
  1
  0
VERTEX
  8
gg1
 10
0.500000
 20
1.582500
  0
VERTEX
  8
gg1
 10
0.500000
 20
1.597500
  0
SEQEND
  8
gg1
  0
POLYLINE
  8
gg1
 62
1
 40
0.000000
 41
0.000000
 66
  1
  0
VERTEX
  8
gg1
 10
0.572500
 20
1.590000
  0
VERTEX
  8
gg1
 10
0.587500
 20
1.590000
  0
SEQEND
  8
gg1
  0
POLYLINE
  8
gg1
 62
1
 40
0.000000
 41
0.000000
 66
  1
  0
VERTEX
  8
gg1
 10
0.580000
 20
1.582500
  0
VERTEX
  8
gg1
 10
0.580000
 20
1.597500
  0
SEQEND
  8
gg1
  0
POLYLINE
  8
gg1
 62
1
 40
0.000000
 41
0.000000
 66
  1
  0
VERTEX
  8
gg1
 10
0.747500
 20
1.590000
  0
VERTEX
  8
gg1
 10
0.762500
 20
1.590000
  0
SEQEND
  8
gg1
  0
POLYLINE
  8
gg1
 62
1
 40
0.000000
 41
0.000000
 66
  1
  0
VERTEX
  8
gg1
 10
0.755000
 20
1.582500
  0
VERTEX
  8
gg1
 10
0.755000
 20
1.597500
  0
SEQEND
  8
gg1
  0
POLYLINE
  8
gg1
 62
1
 40
0.000000
 41
0.000000
 66
  1
  0
VERTEX
  8
gg1
 10
0.697500
 20
1.590000
  0
VERTEX
  8
gg1
 10
0.712500
 20
1.590000
  0
SEQEND
  8
gg1
  0
POLYLINE
  8
gg1
 62
1
 40
0.000000
 41
0.000000
 66
  1
  0
VERTEX
  8
gg1
 10
0.705000
 20
1.582500
  0
VERTEX
  8
gg1
 10
0.705000
 20
1.597500
  0
SEQEND
  8
gg1
  0
POLYLINE
  8
gg1
 62
1
 40
0.000000
 41
0.000000
 66
  1
  0
VERTEX
  8
gg1
 10
0.637500
 20
1.590000
  0
VERTEX
  8
gg1
 10
0.652500
 20
1.590000
  0
SEQEND
  8
gg1
  0
POLYLINE
  8
gg1
 62
1
 40
0.000000
 41
0.000000
 66
  1
  0
VERTEX
  8
gg1
 10
0.645000
 20
1.582500
  0
VERTEX
  8
gg1
 10
0.645000
 20
1.597500
  0
SEQEND
  8
gg1
  0
POLYLINE
  8
gg1
 62
1
 40
0.000000
 41
0.000000
 66
  1
  0
VERTEX
  8
gg1
 10
0.687500
 20
1.360000
  0
VERTEX
  8
gg1
 10
0.702500
 20
1.360000
  0
SEQEND
  8
gg1
  0
POLYLINE
  8
gg1
 62
1
 40
0.000000
 41
0.000000
 66
  1
  0
VERTEX
  8
gg1
 10
0.695000
 20
1.352500
  0
VERTEX
  8
gg1
 10
0.695000
 20
1.367500
  0
SEQEND
  8
gg1
  0
POLYLINE
  8
gg1
 62
1
 40
0.000000
 41
0.000000
 66
  1
  0
VERTEX
  8
gg1
 10
0.687500
 20
1.410000
  0
VERTEX
  8
gg1
 10
0.702500
 20
1.410000
  0
SEQEND
  8
gg1
  0
POLYLINE
  8
gg1
 62
1
 40
0.000000
 41
0.000000
 66
  1
  0
VERTEX
  8
gg1
 10
0.695000
 20
1.402500
  0
VERTEX
  8
gg1
 10
0.695000
 20
1.417500
  0
SEQEND
  8
gg1
  0
POLYLINE
  8
gg1
 62
1
 40
0.000000
 41
0.000000
 66
  1
  0
VERTEX
  8
gg1
 10
0.687500
 20
1.460000
  0
VERTEX
  8
gg1
 10
0.702500
 20
1.460000
  0
SEQEND
  8
gg1
  0
POLYLINE
  8
gg1
 62
1
 40
0.000000
 41
0.000000
 66
  1
  0
VERTEX
  8
gg1
 10
0.695000
 20
1.452500
  0
VERTEX
  8
gg1
 10
0.695000
 20
1.467500
  0
SEQEND
  8
gg1
  0
POLYLINE
  8
gg1
 62
1
 40
0.000000
 41
0.000000
 66
  1
  0
VERTEX
  8
gg1
 10
0.687500
 20
1.510000
  0
VERTEX
  8
gg1
 10
0.702500
 20
1.510000
  0
SEQEND
  8
gg1
  0
POLYLINE
  8
gg1
 62
1
 40
0.000000
 41
0.000000
 66
  1
  0
VERTEX
  8
gg1
 10
0.695000
 20
1.502500
  0
VERTEX
  8
gg1
 10
0.695000
 20
1.517500
  0
SEQEND
  8
gg1
  0
POLYLINE
  8
gg1
 62
1
 40
0.000000
 41
0.000000
 66
  1
  0
VERTEX
  8
gg1
 10
0.486500
 20
0.260000
  0
VERTEX
  8
gg1
 10
0.501500
 20
0.260000
  0
SEQEND
  8
gg1
  0
POLYLINE
  8
gg1
 62
1
 40
0.000000
 41
0.000000
 66
  1
  0
VERTEX
  8
gg1
 10
0.494000
 20
0.252500
  0
VERTEX
  8
gg1
 10
0.494000
 20
0.267500
  0
SEQEND
  8
gg1
  0
POLYLINE
  8
gg1
 62
1
 40
0.000000
 41
0.000000
 66
  1
  0
VERTEX
  8
gg1
 10
0.097500
 20
0.470000
  0
VERTEX
  8
gg1
 10
0.112500
 20
0.470000
  0
SEQEND
  8
gg1
  0
POLYLINE
  8
gg1
 62
1
 40
0.000000
 41
0.000000
 66
  1
  0
VERTEX
  8
gg1
 10
0.105000
 20
0.462500
  0
VERTEX
  8
gg1
 10
0.105000
 20
0.477500
  0
SEQEND
  8
gg1
  0
POLYLINE
  8
gg1
 62
1
 40
0.000000
 41
0.000000
 66
  1
  0
VERTEX
  8
gg1
 10
0.097500
 20
0.440000
  0
VERTEX
  8
gg1
 10
0.112500
 20
0.440000
  0
SEQEND
  8
gg1
  0
POLYLINE
  8
gg1
 62
1
 40
0.000000
 41
0.000000
 66
  1
  0
VERTEX
  8
gg1
 10
0.105000
 20
0.432500
  0
VERTEX
  8
gg1
 10
0.105000
 20
0.447500
  0
SEQEND
  8
gg1
  0
POLYLINE
  8
gg1
 62
1
 40
0.000000
 41
0.000000
 66
  1
  0
VERTEX
  8
gg1
 10
0.097500
 20
0.410000
  0
VERTEX
  8
gg1
 10
0.112500
 20
0.410000
  0
SEQEND
  8
gg1
  0
POLYLINE
  8
gg1
 62
1
 40
0.000000
 41
0.000000
 66
  1
  0
VERTEX
  8
gg1
 10
0.105000
 20
0.402500
  0
VERTEX
  8
gg1
 10
0.105000
 20
0.417500
  0
SEQEND
  8
gg1
  0
POLYLINE
  8
gg1
 62
1
 40
0.000000
 41
0.000000
 66
  1
  0
VERTEX
  8
gg1
 10
0.122500
 20
0.390000
  0
VERTEX
  8
gg1
 10
0.137500
 20
0.390000
  0
SEQEND
  8
gg1
  0
POLYLINE
  8
gg1
 62
1
 40
0.000000
 41
0.000000
 66
  1
  0
VERTEX
  8
gg1
 10
0.130000
 20
0.382500
  0
VERTEX
  8
gg1
 10
0.130000
 20
0.397500
  0
SEQEND
  8
gg1
  0
POLYLINE
  8
gg1
 62
1
 40
0.000000
 41
0.000000
 66
  1
  0
VERTEX
  8
gg1
 10
0.152500
 20
0.390000
  0
VERTEX
  8
gg1
 10
0.167500
 20
0.390000
  0
SEQEND
  8
gg1
  0
POLYLINE
  8
gg1
 62
1
 40
0.000000
 41
0.000000
 66
  1
  0
VERTEX
  8
gg1
 10
0.160000
 20
0.382500
  0
VERTEX
  8
gg1
 10
0.160000
 20
0.397500
  0
SEQEND
  8
gg1
  0
POLYLINE
  8
gg1
 62
1
 40
0.000000
 41
0.000000
 66
  1
  0
VERTEX
  8
gg1
 10
0.294500
 20
0.528000
  0
VERTEX
  8
gg1
 10
0.309500
 20
0.528000
  0
SEQEND
  8
gg1
  0
POLYLINE
  8
gg1
 62
1
 40
0.000000
 41
0.000000
 66
  1
  0
VERTEX
  8
gg1
 10
0.302000
 20
0.520500
  0
VERTEX
  8
gg1
 10
0.302000
 20
0.535500
  0
SEQEND
  8
gg1
  0
POLYLINE
  8
gg1
 62
1
 40
0.000000
 41
0.000000
 66
  1
  0
VERTEX
  8
gg1
 10
0.294500
 20
0.498000
  0
VERTEX
  8
gg1
 10
0.309500
 20
0.498000
  0
SEQEND
  8
gg1
  0
POLYLINE
  8
gg1
 62
1
 40
0.000000
 41
0.000000
 66
  1
  0
VERTEX
  8
gg1
 10
0.302000
 20
0.490500
  0
VERTEX
  8
gg1
 10
0.302000
 20
0.505500
  0
SEQEND
  8
gg1
  0
POLYLINE
  8
gg1
 62
1
 40
0.000000
 41
0.000000
 66
  1
  0
VERTEX
  8
gg1
 10
0.292500
 20
0.285000
  0
VERTEX
  8
gg1
 10
0.307500
 20
0.285000
  0
SEQEND
  8
gg1
  0
POLYLINE
  8
gg1
 62
1
 40
0.000000
 41
0.000000
 66
  1
  0
VERTEX
  8
gg1
 10
0.300000
 20
0.277500
  0
VERTEX
  8
gg1
 10
0.300000
 20
0.292500
  0
SEQEND
  8
gg1
  0
POLYLINE
  8
gg1
 62
1
 40
0.000000
 41
0.000000
 66
  1
  0
VERTEX
  8
gg1
 10
0.292500
 20
0.365000
  0
VERTEX
  8
gg1
 10
0.307500
 20
0.365000
  0
SEQEND
  8
gg1
  0
POLYLINE
  8
gg1
 62
1
 40
0.000000
 41
0.000000
 66
  1
  0
VERTEX
  8
gg1
 10
0.300000
 20
0.357500
  0
VERTEX
  8
gg1
 10
0.300000
 20
0.372500
  0
SEQEND
  8
gg1
  0
POLYLINE
  8
gg1
 62
1
 40
0.000000
 41
0.000000
 66
  1
  0
VERTEX
  8
gg1
 10
0.252500
 20
0.325000
  0
VERTEX
  8
gg1
 10
0.267500
 20
0.325000
  0
SEQEND
  8
gg1
  0
POLYLINE
  8
gg1
 62
1
 40
0.000000
 41
0.000000
 66
  1
  0
VERTEX
  8
gg1
 10
0.260000
 20
0.317500
  0
VERTEX
  8
gg1
 10
0.260000
 20
0.332500
  0
SEQEND
  8
gg1
  0
POLYLINE
  8
gg1
 62
1
 40
0.000000
 41
0.000000
 66
  1
  0
VERTEX
  8
gg1
 10
0.207500
 20
0.325000
  0
VERTEX
  8
gg1
 10
0.222500
 20
0.325000
  0
SEQEND
  8
gg1
  0
POLYLINE
  8
gg1
 62
1
 40
0.000000
 41
0.000000
 66
  1
  0
VERTEX
  8
gg1
 10
0.215000
 20
0.317500
  0
VERTEX
  8
gg1
 10
0.215000
 20
0.332500
  0
SEQEND
  8
gg1
  0
POLYLINE
  8
gg1
 62
1
 40
0.000000
 41
0.000000
 66
  1
  0
VERTEX
  8
gg1
 10
0.332500
 20
0.325000
  0
VERTEX
  8
gg1
 10
0.347500
 20
0.325000
  0
SEQEND
  8
gg1
  0
POLYLINE
  8
gg1
 62
1
 40
0.000000
 41
0.000000
 66
  1
  0
VERTEX
  8
gg1
 10
0.340000
 20
0.317500
  0
VERTEX
  8
gg1
 10
0.340000
 20
0.332500
  0
SEQEND
  8
gg1
  0
POLYLINE
  8
gg1
 62
1
 40
0.000000
 41
0.000000
 66
  1
  0
VERTEX
  8
gg1
 10
0.377500
 20
0.325000
  0
VERTEX
  8
gg1
 10
0.392500
 20
0.325000
  0
SEQEND
  8
gg1
  0
POLYLINE
  8
gg1
 62
1
 40
0.000000
 41
0.000000
 66
  1
  0
VERTEX
  8
gg1
 10
0.385000
 20
0.317500
  0
VERTEX
  8
gg1
 10
0.385000
 20
0.332500
  0
SEQEND
  8
gg1
  0
POLYLINE
  8
gg1
 62
1
 40
0.000000
 41
0.000000
 66
  1
  0
VERTEX
  8
gg1
 10
0.295000
 20
0.132500
  0
VERTEX
  8
gg1
 10
0.310000
 20
0.132500
  0
SEQEND
  8
gg1
  0
POLYLINE
  8
gg1
 62
1
 40
0.000000
 41
0.000000
 66
  1
  0
VERTEX
  8
gg1
 10
0.302500
 20
0.125000
  0
VERTEX
  8
gg1
 10
0.302500
 20
0.140000
  0
SEQEND
  8
gg1
  0
POLYLINE
  8
gg1
 62
1
 40
0.000000
 41
0.000000
 66
  1
  0
VERTEX
  8
gg1
 10
0.597500
 20
1.360000
  0
VERTEX
  8
gg1
 10
0.612500
 20
1.360000
  0
SEQEND
  8
gg1
  0
POLYLINE
  8
gg1
 62
1
 40
0.000000
 41
0.000000
 66
  1
  0
VERTEX
  8
gg1
 10
0.605000
 20
1.352500
  0
VERTEX
  8
gg1
 10
0.605000
 20
1.367500
  0
SEQEND
  8
gg1
  0
POLYLINE
  8
gg1
 62
1
 40
0.000000
 41
0.000000
 66
  1
  0
VERTEX
  8
gg1
 10
0.107500
 20
0.515000
  0
VERTEX
  8
gg1
 10
0.122500
 20
0.515000
  0
SEQEND
  8
gg1
  0
POLYLINE
  8
gg1
 62
1
 40
0.000000
 41
0.000000
 66
  1
  0
VERTEX
  8
gg1
 10
0.115000
 20
0.507500
  0
VERTEX
  8
gg1
 10
0.115000
 20
0.522500
  0
SEQEND
  8
gg1
  0
POLYLINE
  8
gg1
 62
1
 40
0.000000
 41
0.000000
 66
  1
  0
VERTEX
  8
gg1
 10
0.142500
 20
0.527000
  0
VERTEX
  8
gg1
 10
0.157500
 20
0.527000
  0
SEQEND
  8
gg1
  0
POLYLINE
  8
gg1
 62
1
 40
0.000000
 41
0.000000
 66
  1
  0
VERTEX
  8
gg1
 10
0.150000
 20
0.519500
  0
VERTEX
  8
gg1
 10
0.150000
 20
0.534500
  0
SEQEND
  8
gg1
  0
POLYLINE
  8
gg1
 62
1
 40
0.000000
 41
0.000000
 66
  1
  0
VERTEX
  8
gg1
 10
0.191500
 20
1.469000
  0
VERTEX
  8
gg1
 10
0.206500
 20
1.469000
  0
SEQEND
  8
gg1
  0
POLYLINE
  8
gg1
 62
1
 40
0.000000
 41
0.000000
 66
  1
  0
VERTEX
  8
gg1
 10
0.199000
 20
1.461500
  0
VERTEX
  8
gg1
 10
0.199000
 20
1.476500
  0
SEQEND
  8
gg1
  0
POLYLINE
  8
gg1
 62
1
 40
0.000000
 41
0.000000
 66
  1
  0
VERTEX
  8
gg1
 10
0.192500
 20
1.408000
  0
VERTEX
  8
gg1
 10
0.207500
 20
1.408000
  0
SEQEND
  8
gg1
  0
POLYLINE
  8
gg1
 62
1
 40
0.000000
 41
0.000000
 66
  1
  0
VERTEX
  8
gg1
 10
0.200000
 20
1.400500
  0
VERTEX
  8
gg1
 10
0.200000
 20
1.415500
  0
SEQEND
  8
gg1
  0
POLYLINE
  8
gg1
 62
1
 40
0.000000
 41
0.000000
 66
  1
  0
VERTEX
  8
gg1
 10
0.032500
 20
1.270000
  0
VERTEX
  8
gg1
 10
0.047500
 20
1.270000
  0
SEQEND
  8
gg1
  0
POLYLINE
  8
gg1
 62
1
 40
0.000000
 41
0.000000
 66
  1
  0
VERTEX
  8
gg1
 10
0.040000
 20
1.262500
  0
VERTEX
  8
gg1
 10
0.040000
 20
1.277500
  0
SEQEND
  8
gg1
  0
POLYLINE
  8
gg1
 62
1
 40
0.000000
 41
0.000000
 66
  1
  0
VERTEX
  8
gg1
 10
0.117500
 20
1.326000
  0
VERTEX
  8
gg1
 10
0.132500
 20
1.326000
  0
SEQEND
  8
gg1
  0
POLYLINE
  8
gg1
 62
1
 40
0.000000
 41
0.000000
 66
  1
  0
VERTEX
  8
gg1
 10
0.125000
 20
1.318500
  0
VERTEX
  8
gg1
 10
0.125000
 20
1.333500
  0
SEQEND
  8
gg1
  0
POLYLINE
  8
gg1
 62
1
 40
0.000000
 41
0.000000
 66
  1
  0
VERTEX
  8
gg1
 10
0.027500
 20
1.105000
  0
VERTEX
  8
gg1
 10
0.042500
 20
1.105000
  0
SEQEND
  8
gg1
  0
POLYLINE
  8
gg1
 62
1
 40
0.000000
 41
0.000000
 66
  1
  0
VERTEX
  8
gg1
 10
0.035000
 20
1.097500
  0
VERTEX
  8
gg1
 10
0.035000
 20
1.112500
  0
SEQEND
  8
gg1
  0
POLYLINE
  8
gg1
 62
1
 40
0.000000
 41
0.000000
 66
  1
  0
VERTEX
  8
gg1
 10
0.062500
 20
1.105000
  0
VERTEX
  8
gg1
 10
0.077500
 20
1.105000
  0
SEQEND
  8
gg1
  0
POLYLINE
  8
gg1
 62
1
 40
0.000000
 41
0.000000
 66
  1
  0
VERTEX
  8
gg1
 10
0.070000
 20
1.097500
  0
VERTEX
  8
gg1
 10
0.070000
 20
1.112500
  0
SEQEND
  8
gg1
  0
POLYLINE
  8
gg1
 62
1
 40
0.000000
 41
0.000000
 66
  1
  0
VERTEX
  8
gg1
 10
0.097500
 20
1.105000
  0
VERTEX
  8
gg1
 10
0.112500
 20
1.105000
  0
SEQEND
  8
gg1
  0
POLYLINE
  8
gg1
 62
1
 40
0.000000
 41
0.000000
 66
  1
  0
VERTEX
  8
gg1
 10
0.105000
 20
1.097500
  0
VERTEX
  8
gg1
 10
0.105000
 20
1.112500
  0
SEQEND
  8
gg1
  0
POLYLINE
  8
gg1
 62
1
 40
0.000000
 41
0.000000
 66
  1
  0
VERTEX
  8
gg1
 10
0.608500
 20
1.020000
  0
VERTEX
  8
gg1
 10
0.623500
 20
1.020000
  0
SEQEND
  8
gg1
  0
POLYLINE
  8
gg1
 62
1
 40
0.000000
 41
0.000000
 66
  1
  0
VERTEX
  8
gg1
 10
0.616000
 20
1.012500
  0
VERTEX
  8
gg1
 10
0.616000
 20
1.027500
  0
SEQEND
  8
gg1
  0
POLYLINE
  8
gg1
 62
1
 40
0.000000
 41
0.000000
 66
  1
  0
VERTEX
  8
gg1
 10
0.608500
 20
1.071000
  0
VERTEX
  8
gg1
 10
0.623500
 20
1.071000
  0
SEQEND
  8
gg1
  0
POLYLINE
  8
gg1
 62
1
 40
0.000000
 41
0.000000
 66
  1
  0
VERTEX
  8
gg1
 10
0.616000
 20
1.063500
  0
VERTEX
  8
gg1
 10
0.616000
 20
1.078500
  0
SEQEND
  8
gg1
  0
POLYLINE
  8
gg1
 62
1
 40
0.000000
 41
0.000000
 66
  1
  0
VERTEX
  8
gg1
 10
0.483500
 20
1.287000
  0
VERTEX
  8
gg1
 10
0.498500
 20
1.287000
  0
SEQEND
  8
gg1
  0
POLYLINE
  8
gg1
 62
1
 40
0.000000
 41
0.000000
 66
  1
  0
VERTEX
  8
gg1
 10
0.491000
 20
1.279500
  0
VERTEX
  8
gg1
 10
0.491000
 20
1.294500
  0
SEQEND
  8
gg1
  0
POLYLINE
  8
gg1
 62
1
 40
0.000000
 41
0.000000
 66
  1
  0
VERTEX
  8
gg1
 10
0.497500
 20
1.314000
  0
VERTEX
  8
gg1
 10
0.512500
 20
1.314000
  0
SEQEND
  8
gg1
  0
POLYLINE
  8
gg1
 62
1
 40
0.000000
 41
0.000000
 66
  1
  0
VERTEX
  8
gg1
 10
0.505000
 20
1.306500
  0
VERTEX
  8
gg1
 10
0.505000
 20
1.321500
  0
SEQEND
  8
gg1
  0
POLYLINE
  8
gg1
 62
1
 40
0.000000
 41
0.000000
 66
  1
  0
VERTEX
  8
gg1
 10
0.332500
 20
1.110000
  0
VERTEX
  8
gg1
 10
0.347500
 20
1.110000
  0
SEQEND
  8
gg1
  0
POLYLINE
  8
gg1
 62
1
 40
0.000000
 41
0.000000
 66
  1
  0
VERTEX
  8
gg1
 10
0.340000
 20
1.102500
  0
VERTEX
  8
gg1
 10
0.340000
 20
1.117500
  0
SEQEND
  8
gg1
  0
POLYLINE
  8
gg1
 62
1
 40
0.000000
 41
0.000000
 66
  1
  0
VERTEX
  8
gg1
 10
0.300500
 20
1.100000
  0
VERTEX
  8
gg1
 10
0.315500
 20
1.100000
  0
SEQEND
  8
gg1
  0
POLYLINE
  8
gg1
 62
1
 40
0.000000
 41
0.000000
 66
  1
  0
VERTEX
  8
gg1
 10
0.308000
 20
1.092500
  0
VERTEX
  8
gg1
 10
0.308000
 20
1.107500
  0
SEQEND
  8
gg1
  0
POLYLINE
  8
gg1
 62
1
 40
0.000000
 41
0.000000
 66
  1
  0
VERTEX
  8
gg1
 10
0.497500
 20
1.200000
  0
VERTEX
  8
gg1
 10
0.512500
 20
1.200000
  0
SEQEND
  8
gg1
  0
POLYLINE
  8
gg1
 62
1
 40
0.000000
 41
0.000000
 66
  1
  0
VERTEX
  8
gg1
 10
0.505000
 20
1.192500
  0
VERTEX
  8
gg1
 10
0.505000
 20
1.207500
  0
SEQEND
  8
gg1
  0
POLYLINE
  8
gg1
 62
1
 40
0.000000
 41
0.000000
 66
  1
  0
VERTEX
  8
gg1
 10
0.497500
 20
1.260000
  0
VERTEX
  8
gg1
 10
0.512500
 20
1.260000
  0
SEQEND
  8
gg1
  0
POLYLINE
  8
gg1
 62
1
 40
0.000000
 41
0.000000
 66
  1
  0
VERTEX
  8
gg1
 10
0.505000
 20
1.252500
  0
VERTEX
  8
gg1
 10
0.505000
 20
1.267500
  0
SEQEND
  8
gg1
  0
POLYLINE
  8
gg1
 62
1
 40
0.000000
 41
0.000000
 66
  1
  0
VERTEX
  8
gg1
 10
0.483500
 20
1.375000
  0
VERTEX
  8
gg1
 10
0.498500
 20
1.375000
  0
SEQEND
  8
gg1
  0
POLYLINE
  8
gg1
 62
1
 40
0.000000
 41
0.000000
 66
  1
  0
VERTEX
  8
gg1
 10
0.491000
 20
1.367500
  0
VERTEX
  8
gg1
 10
0.491000
 20
1.382500
  0
SEQEND
  8
gg1
  0
POLYLINE
  8
gg1
 62
1
 40
0.000000
 41
0.000000
 66
  1
  0
VERTEX
  8
gg1
 10
0.482500
 20
1.435000
  0
VERTEX
  8
gg1
 10
0.497500
 20
1.435000
  0
SEQEND
  8
gg1
  0
POLYLINE
  8
gg1
 62
1
 40
0.000000
 41
0.000000
 66
  1
  0
VERTEX
  8
gg1
 10
0.490000
 20
1.427500
  0
VERTEX
  8
gg1
 10
0.490000
 20
1.442500
  0
SEQEND
  8
gg1
  0
POLYLINE
  8
gg1
 62
1
 40
0.000000
 41
0.000000
 66
  1
  0
VERTEX
  8
gg1
 10
0.497500
 20
1.525000
  0
VERTEX
  8
gg1
 10
0.512500
 20
1.525000
  0
SEQEND
  8
gg1
  0
POLYLINE
  8
gg1
 62
1
 40
0.000000
 41
0.000000
 66
  1
  0
VERTEX
  8
gg1
 10
0.505000
 20
1.517500
  0
VERTEX
  8
gg1
 10
0.505000
 20
1.532500
  0
SEQEND
  8
gg1
  0
POLYLINE
  8
gg1
 62
1
 40
0.000000
 41
0.000000
 66
  1
  0
VERTEX
  8
gg1
 10
0.482500
 20
1.555000
  0
VERTEX
  8
gg1
 10
0.497500
 20
1.555000
  0
SEQEND
  8
gg1
  0
POLYLINE
  8
gg1
 62
1
 40
0.000000
 41
0.000000
 66
  1
  0
VERTEX
  8
gg1
 10
0.490000
 20
1.547500
  0
VERTEX
  8
gg1
 10
0.490000
 20
1.562500
  0
SEQEND
  8
gg1
  0
POLYLINE
  8
gg1
 62
1
 40
0.000000
 41
0.000000
 66
  1
  0
VERTEX
  8
gg1
 10
0.507500
 20
0.865000
  0
VERTEX
  8
gg1
 10
0.522500
 20
0.865000
  0
SEQEND
  8
gg1
  0
POLYLINE
  8
gg1
 62
1
 40
0.000000
 41
0.000000
 66
  1
  0
VERTEX
  8
gg1
 10
0.515000
 20
0.857500
  0
VERTEX
  8
gg1
 10
0.515000
 20
0.872500
  0
SEQEND
  8
gg1
  0
POLYLINE
  8
gg1
 62
1
 40
0.000000
 41
0.000000
 66
  1
  0
VERTEX
  8
gg1
 10
0.752500
 20
0.900000
  0
VERTEX
  8
gg1
 10
0.767500
 20
0.900000
  0
SEQEND
  8
gg1
  0
POLYLINE
  8
gg1
 62
1
 40
0.000000
 41
0.000000
 66
  1
  0
VERTEX
  8
gg1
 10
0.760000
 20
0.892500
  0
VERTEX
  8
gg1
 10
0.760000
 20
0.907500
  0
SEQEND
  8
gg1
  0
POLYLINE
  8
gg1
 62
1
 40
0.000000
 41
0.000000
 66
  1
  0
VERTEX
  8
gg1
 10
0.142500
 20
0.690000
  0
VERTEX
  8
gg1
 10
0.157500
 20
0.690000
  0
SEQEND
  8
gg1
  0
POLYLINE
  8
gg1
 62
1
 40
0.000000
 41
0.000000
 66
  1
  0
VERTEX
  8
gg1
 10
0.150000
 20
0.682500
  0
VERTEX
  8
gg1
 10
0.150000
 20
0.697500
  0
SEQEND
  8
gg1
  0
POLYLINE
  8
gg1
 62
1
 40
0.000000
 41
0.000000
 66
  1
  0
VERTEX
  8
gg1
 10
0.112500
 20
1.070000
  0
VERTEX
  8
gg1
 10
0.127500
 20
1.070000
  0
SEQEND
  8
gg1
  0
POLYLINE
  8
gg1
 62
1
 40
0.000000
 41
0.000000
 66
  1
  0
VERTEX
  8
gg1
 10
0.120000
 20
1.062500
  0
VERTEX
  8
gg1
 10
0.120000
 20
1.077500
  0
SEQEND
  8
gg1
  0
POLYLINE
  8
gg1
 62
1
 40
0.000000
 41
0.000000
 66
  1
  0
VERTEX
  8
gg1
 10
0.417500
 20
0.970000
  0
VERTEX
  8
gg1
 10
0.432500
 20
0.970000
  0
SEQEND
  8
gg1
  0
POLYLINE
  8
gg1
 62
1
 40
0.000000
 41
0.000000
 66
  1
  0
VERTEX
  8
gg1
 10
0.425000
 20
0.962500
  0
VERTEX
  8
gg1
 10
0.425000
 20
0.977500
  0
SEQEND
  8
gg1
  0
POLYLINE
  8
gg1
 62
1
 40
0.000000
 41
0.000000
 66
  1
  0
VERTEX
  8
gg1
 10
0.417500
 20
1.020000
  0
VERTEX
  8
gg1
 10
0.432500
 20
1.020000
  0
SEQEND
  8
gg1
  0
POLYLINE
  8
gg1
 62
1
 40
0.000000
 41
0.000000
 66
  1
  0
VERTEX
  8
gg1
 10
0.425000
 20
1.012500
  0
VERTEX
  8
gg1
 10
0.425000
 20
1.027500
  0
SEQEND
  8
gg1
  0
POLYLINE
  8
gg1
 62
1
 40
0.000000
 41
0.000000
 66
  1
  0
VERTEX
  8
gg1
 10
0.417500
 20
1.070000
  0
VERTEX
  8
gg1
 10
0.432500
 20
1.070000
  0
SEQEND
  8
gg1
  0
POLYLINE
  8
gg1
 62
1
 40
0.000000
 41
0.000000
 66
  1
  0
VERTEX
  8
gg1
 10
0.425000
 20
1.062500
  0
VERTEX
  8
gg1
 10
0.425000
 20
1.077500
  0
SEQEND
  8
gg1
  0
POLYLINE
  8
gg1
 62
1
 40
0.000000
 41
0.000000
 66
  1
  0
VERTEX
  8
gg1
 10
0.690000
 20
0.132500
  0
VERTEX
  8
gg1
 10
0.705000
 20
0.132500
  0
SEQEND
  8
gg1
  0
POLYLINE
  8
gg1
 62
1
 40
0.000000
 41
0.000000
 66
  1
  0
VERTEX
  8
gg1
 10
0.697500
 20
0.125000
  0
VERTEX
  8
gg1
 10
0.697500
 20
0.140000
  0
SEQEND
  8
gg1
  0
POLYLINE
  8
gg1
 62
1
 40
0.000000
 41
0.000000
 66
  1
  0
VERTEX
  8
gg1
 10
0.707500
 20
0.167500
  0
VERTEX
  8
gg1
 10
0.722500
 20
0.167500
  0
SEQEND
  8
gg1
  0
POLYLINE
  8
gg1
 62
1
 40
0.000000
 41
0.000000
 66
  1
  0
VERTEX
  8
gg1
 10
0.715000
 20
0.160000
  0
VERTEX
  8
gg1
 10
0.715000
 20
0.175000
  0
SEQEND
  8
gg1
  0
POLYLINE
  8
gg1
 62
1
 40
0.000000
 41
0.000000
 66
  1
  0
VERTEX
  8
gg1
 10
0.067500
 20
0.555000
  0
VERTEX
  8
gg1
 10
0.082500
 20
0.555000
  0
SEQEND
  8
gg1
  0
POLYLINE
  8
gg1
 62
1
 40
0.000000
 41
0.000000
 66
  1
  0
VERTEX
  8
gg1
 10
0.075000
 20
0.547500
  0
VERTEX
  8
gg1
 10
0.075000
 20
0.562500
  0
SEQEND
  8
gg1
  0
POLYLINE
  8
gg1
 62
1
 40
0.000000
 41
0.000000
 66
  1
  0
VERTEX
  8
gg1
 10
0.027500
 20
0.555000
  0
VERTEX
  8
gg1
 10
0.042500
 20
0.555000
  0
SEQEND
  8
gg1
  0
POLYLINE
  8
gg1
 62
1
 40
0.000000
 41
0.000000
 66
  1
  0
VERTEX
  8
gg1
 10
0.035000
 20
0.547500
  0
VERTEX
  8
gg1
 10
0.035000
 20
0.562500
  0
SEQEND
  8
gg1
  0
POLYLINE
  8
gg1
 62
1
 40
0.000000
 41
0.000000
 66
  1
  0
VERTEX
  8
gg1
 10
0.047500
 20
0.530000
  0
VERTEX
  8
gg1
 10
0.062500
 20
0.530000
  0
SEQEND
  8
gg1
  0
POLYLINE
  8
gg1
 62
1
 40
0.000000
 41
0.000000
 66
  1
  0
VERTEX
  8
gg1
 10
0.055000
 20
0.522500
  0
VERTEX
  8
gg1
 10
0.055000
 20
0.537500
  0
SEQEND
  8
gg1
  0
POLYLINE
  8
gg1
 62
1
 40
0.000000
 41
0.000000
 66
  1
  0
VERTEX
  8
gg1
 10
0.262500
 20
0.885000
  0
VERTEX
  8
gg1
 10
0.277500
 20
0.885000
  0
SEQEND
  8
gg1
  0
POLYLINE
  8
gg1
 62
1
 40
0.000000
 41
0.000000
 66
  1
  0
VERTEX
  8
gg1
 10
0.270000
 20
0.877500
  0
VERTEX
  8
gg1
 10
0.270000
 20
0.892500
  0
SEQEND
  8
gg1
  0
POLYLINE
  8
gg1
 62
1
 40
0.000000
 41
0.000000
 66
  1
  0
VERTEX
  8
gg1
 10
0.737500
 20
1.325000
  0
VERTEX
  8
gg1
 10
0.752500
 20
1.325000
  0
SEQEND
  8
gg1
  0
POLYLINE
  8
gg1
 62
1
 40
0.000000
 41
0.000000
 66
  1
  0
VERTEX
  8
gg1
 10
0.745000
 20
1.317500
  0
VERTEX
  8
gg1
 10
0.745000
 20
1.332500
  0
SEQEND
  8
gg1
  0
POLYLINE
  8
gg1
 62
1
 40
0.000000
 41
0.000000
 66
  1
  0
VERTEX
  8
gg1
 10
0.617500
 20
0.748000
  0
VERTEX
  8
gg1
 10
0.632500
 20
0.748000
  0
SEQEND
  8
gg1
  0
POLYLINE
  8
gg1
 62
1
 40
0.000000
 41
0.000000
 66
  1
  0
VERTEX
  8
gg1
 10
0.625000
 20
0.740500
  0
VERTEX
  8
gg1
 10
0.625000
 20
0.755500
  0
SEQEND
  8
gg1
  0
POLYLINE
  8
gg1
 62
1
 40
0.000000
 41
0.000000
 66
  1
  0
VERTEX
  8
gg1
 10
0.157500
 20
0.725000
  0
VERTEX
  8
gg1
 10
0.172500
 20
0.725000
  0
SEQEND
  8
gg1
  0
POLYLINE
  8
gg1
 62
1
 40
0.000000
 41
0.000000
 66
  1
  0
VERTEX
  8
gg1
 10
0.165000
 20
0.717500
  0
VERTEX
  8
gg1
 10
0.165000
 20
0.732500
  0
SEQEND
  8
gg1
  0
POLYLINE
  8
gg1
 62
1
 40
0.000000
 41
0.000000
 66
  1
  0
VERTEX
  8
gg1
 10
0.156500
 20
0.826000
  0
VERTEX
  8
gg1
 10
0.171500
 20
0.826000
  0
SEQEND
  8
gg1
  0
POLYLINE
  8
gg1
 62
1
 40
0.000000
 41
0.000000
 66
  1
  0
VERTEX
  8
gg1
 10
0.164000
 20
0.818500
  0
VERTEX
  8
gg1
 10
0.164000
 20
0.833500
  0
SEQEND
  8
gg1
  0
POLYLINE
  8
gg1
 62
1
 40
0.000000
 41
0.000000
 66
  1
  0
VERTEX
  8
gg1
 10
0.154500
 20
0.886000
  0
VERTEX
  8
gg1
 10
0.169500
 20
0.886000
  0
SEQEND
  8
gg1
  0
POLYLINE
  8
gg1
 62
1
 40
0.000000
 41
0.000000
 66
  1
  0
VERTEX
  8
gg1
 10
0.162000
 20
0.878500
  0
VERTEX
  8
gg1
 10
0.162000
 20
0.893500
  0
SEQEND
  8
gg1
  0
POLYLINE
  8
gg1
 62
1
 40
0.000000
 41
0.000000
 66
  1
  0
VERTEX
  8
gg1
 10
0.155500
 20
0.778000
  0
VERTEX
  8
gg1
 10
0.170500
 20
0.778000
  0
SEQEND
  8
gg1
  0
POLYLINE
  8
gg1
 62
1
 40
0.000000
 41
0.000000
 66
  1
  0
VERTEX
  8
gg1
 10
0.163000
 20
0.770500
  0
VERTEX
  8
gg1
 10
0.163000
 20
0.785500
  0
SEQEND
  8
gg1
  0
POLYLINE
  8
gg1
 62
1
 40
0.000000
 41
0.000000
 66
  1
  0
VERTEX
  8
gg1
 10
0.174500
 20
1.089000
  0
VERTEX
  8
gg1
 10
0.189500
 20
1.089000
  0
SEQEND
  8
gg1
  0
POLYLINE
  8
gg1
 62
1
 40
0.000000
 41
0.000000
 66
  1
  0
VERTEX
  8
gg1
 10
0.182000
 20
1.081500
  0
VERTEX
  8
gg1
 10
0.182000
 20
1.096500
  0
SEQEND
  8
gg1
  0
POLYLINE
  8
gg1
 62
1
 40
0.000000
 41
0.000000
 66
  1
  0
VERTEX
  8
gg1
 10
0.138500
 20
1.150000
  0
VERTEX
  8
gg1
 10
0.153500
 20
1.150000
  0
SEQEND
  8
gg1
  0
POLYLINE
  8
gg1
 62
1
 40
0.000000
 41
0.000000
 66
  1
  0
VERTEX
  8
gg1
 10
0.146000
 20
1.142500
  0
VERTEX
  8
gg1
 10
0.146000
 20
1.157500
  0
SEQEND
  8
gg1
  0
POLYLINE
  8
gg1
 62
1
 40
0.000000
 41
0.000000
 66
  1
  0
VERTEX
  8
gg1
 10
0.076500
 20
1.257000
  0
VERTEX
  8
gg1
 10
0.091500
 20
1.257000
  0
SEQEND
  8
gg1
  0
POLYLINE
  8
gg1
 62
1
 40
0.000000
 41
0.000000
 66
  1
  0
VERTEX
  8
gg1
 10
0.084000
 20
1.249500
  0
VERTEX
  8
gg1
 10
0.084000
 20
1.264500
  0
SEQEND
  8
gg1
  0
POLYLINE
  8
gg1
 62
1
 40
0.000000
 41
0.000000
 66
  1
  0
VERTEX
  8
gg1
 10
0.159500
 20
1.025000
  0
VERTEX
  8
gg1
 10
0.174500
 20
1.025000
  0
SEQEND
  8
gg1
  0
POLYLINE
  8
gg1
 62
1
 40
0.000000
 41
0.000000
 66
  1
  0
VERTEX
  8
gg1
 10
0.167000
 20
1.017500
  0
VERTEX
  8
gg1
 10
0.167000
 20
1.032500
  0
SEQEND
  8
gg1
  0
POLYLINE
  8
gg1
 62
1
 40
0.000000
 41
0.000000
 66
  1
  0
VERTEX
  8
gg1
 10
0.292500
 20
1.360000
  0
VERTEX
  8
gg1
 10
0.307500
 20
1.360000
  0
SEQEND
  8
gg1
  0
POLYLINE
  8
gg1
 62
1
 40
0.000000
 41
0.000000
 66
  1
  0
VERTEX
  8
gg1
 10
0.300000
 20
1.352500
  0
VERTEX
  8
gg1
 10
0.300000
 20
1.367500
  0
SEQEND
  8
gg1
  0
POLYLINE
  8
gg1
 62
1
 40
0.000000
 41
0.000000
 66
  1
  0
VERTEX
  8
gg1
 10
0.607500
 20
0.595000
  0
VERTEX
  8
gg1
 10
0.622500
 20
0.595000
  0
SEQEND
  8
gg1
  0
POLYLINE
  8
gg1
 62
1
 40
0.000000
 41
0.000000
 66
  1
  0
VERTEX
  8
gg1
 10
0.615000
 20
0.587500
  0
VERTEX
  8
gg1
 10
0.615000
 20
0.602500
  0
SEQEND
  8
gg1
  0
POLYLINE
  8
gg1
 62
1
 40
0.000000
 41
0.000000
 66
  1
  0
VERTEX
  8
gg1
 10
0.607500
 20
0.560000
  0
VERTEX
  8
gg1
 10
0.622500
 20
0.560000
  0
SEQEND
  8
gg1
  0
POLYLINE
  8
gg1
 62
1
 40
0.000000
 41
0.000000
 66
  1
  0
VERTEX
  8
gg1
 10
0.615000
 20
0.552500
  0
VERTEX
  8
gg1
 10
0.615000
 20
0.567500
  0
SEQEND
  8
gg1
  0
POLYLINE
  8
gg1
 62
1
 40
0.000000
 41
0.000000
 66
  1
  0
VERTEX
  8
gg1
 10
0.167500
 20
1.590000
  0
VERTEX
  8
gg1
 10
0.182500
 20
1.590000
  0
SEQEND
  8
gg1
  0
POLYLINE
  8
gg1
 62
1
 40
0.000000
 41
0.000000
 66
  1
  0
VERTEX
  8
gg1
 10
0.175000
 20
1.582500
  0
VERTEX
  8
gg1
 10
0.175000
 20
1.597500
  0
SEQEND
  8
gg1
  0
POLYLINE
  8
gg1
 62
1
 40
0.000000
 41
0.000000
 66
  1
  0
VERTEX
  8
gg1
 10
0.332500
 20
1.590000
  0
VERTEX
  8
gg1
 10
0.347500
 20
1.590000
  0
SEQEND
  8
gg1
  0
POLYLINE
  8
gg1
 62
1
 40
0.000000
 41
0.000000
 66
  1
  0
VERTEX
  8
gg1
 10
0.340000
 20
1.582500
  0
VERTEX
  8
gg1
 10
0.340000
 20
1.597500
  0
SEQEND
  8
gg1
  0
POLYLINE
  8
gg1
 62
1
 40
0.000000
 41
0.000000
 66
  1
  0
VERTEX
  8
gg1
 10
0.442500
 20
1.590000
  0
VERTEX
  8
gg1
 10
0.457500
 20
1.590000
  0
SEQEND
  8
gg1
  0
POLYLINE
  8
gg1
 62
1
 40
0.000000
 41
0.000000
 66
  1
  0
VERTEX
  8
gg1
 10
0.450000
 20
1.582500
  0
VERTEX
  8
gg1
 10
0.450000
 20
1.597500
  0
SEQEND
  8
gg1
  0
POLYLINE
  8
gg1
 62
1
 40
0.000000
 41
0.000000
 66
  1
  0
VERTEX
  8
gg1
 10
0.532500
 20
1.590000
  0
VERTEX
  8
gg1
 10
0.547500
 20
1.590000
  0
SEQEND
  8
gg1
  0
POLYLINE
  8
gg1
 62
1
 40
0.000000
 41
0.000000
 66
  1
  0
VERTEX
  8
gg1
 10
0.540000
 20
1.582500
  0
VERTEX
  8
gg1
 10
0.540000
 20
1.597500
  0
SEQEND
  8
gg1
  0
POLYLINE
  8
gg1
 62
1
 40
0.000000
 41
0.000000
 66
  1
  0
VERTEX
  8
gg1
 10
0.617500
 20
1.560000
  0
VERTEX
  8
gg1
 10
0.632500
 20
1.560000
  0
SEQEND
  8
gg1
  0
POLYLINE
  8
gg1
 62
1
 40
0.000000
 41
0.000000
 66
  1
  0
VERTEX
  8
gg1
 10
0.625000
 20
1.552500
  0
VERTEX
  8
gg1
 10
0.625000
 20
1.567500
  0
SEQEND
  8
gg1
  0
POLYLINE
  8
gg1
 62
1
 40
0.000000
 41
0.000000
 66
  1
  0
VERTEX
  8
gg1
 10
0.667500
 20
1.550000
  0
VERTEX
  8
gg1
 10
0.682500
 20
1.550000
  0
SEQEND
  8
gg1
  0
POLYLINE
  8
gg1
 62
1
 40
0.000000
 41
0.000000
 66
  1
  0
VERTEX
  8
gg1
 10
0.675000
 20
1.542500
  0
VERTEX
  8
gg1
 10
0.675000
 20
1.557500
  0
SEQEND
  8
gg1
  0
POLYLINE
  8
gg1
 62
1
 40
0.000000
 41
0.000000
 66
  1
  0
VERTEX
  8
gg1
 10
0.722500
 20
1.545000
  0
VERTEX
  8
gg1
 10
0.737500
 20
1.545000
  0
SEQEND
  8
gg1
  0
POLYLINE
  8
gg1
 62
1
 40
0.000000
 41
0.000000
 66
  1
  0
VERTEX
  8
gg1
 10
0.730000
 20
1.537500
  0
VERTEX
  8
gg1
 10
0.730000
 20
1.552500
  0
SEQEND
  8
gg1
  0
POLYLINE
  8
gg1
 62
1
 40
0.000000
 41
0.000000
 66
  1
  0
VERTEX
  8
gg1
 10
0.752500
 20
1.545000
  0
VERTEX
  8
gg1
 10
0.767500
 20
1.545000
  0
SEQEND
  8
gg1
  0
POLYLINE
  8
gg1
 62
1
 40
0.000000
 41
0.000000
 66
  1
  0
VERTEX
  8
gg1
 10
0.760000
 20
1.537500
  0
VERTEX
  8
gg1
 10
0.760000
 20
1.552500
  0
SEQEND
  8
gg1
  0
POLYLINE
  8
gg1
 62
1
 40
0.000000
 41
0.000000
 66
  1
  0
VERTEX
  8
gg1
 10
0.367500
 20
1.265000
  0
VERTEX
  8
gg1
 10
0.382500
 20
1.265000
  0
SEQEND
  8
gg1
  0
POLYLINE
  8
gg1
 62
1
 40
0.000000
 41
0.000000
 66
  1
  0
VERTEX
  8
gg1
 10
0.375000
 20
1.257500
  0
VERTEX
  8
gg1
 10
0.375000
 20
1.272500
  0
SEQEND
  8
gg1
  0
POLYLINE
  8
gg1
 62
1
 40
0.000000
 41
0.000000
 66
  1
  0
VERTEX
  8
gg1
 10
0.317500
 20
1.290000
  0
VERTEX
  8
gg1
 10
0.332500
 20
1.290000
  0
SEQEND
  8
gg1
  0
POLYLINE
  8
gg1
 62
1
 40
0.000000
 41
0.000000
 66
  1
  0
VERTEX
  8
gg1
 10
0.325000
 20
1.282500
  0
VERTEX
  8
gg1
 10
0.325000
 20
1.297500
  0
SEQEND
  8
gg1
  0
POLYLINE
  8
gg1
 62
1
 40
0.000000
 41
0.000000
 66
  1
  0
VERTEX
  8
gg1
 10
0.317500
 20
1.175000
  0
VERTEX
  8
gg1
 10
0.332500
 20
1.175000
  0
SEQEND
  8
gg1
  0
POLYLINE
  8
gg1
 62
1
 40
0.000000
 41
0.000000
 66
  1
  0
VERTEX
  8
gg1
 10
0.325000
 20
1.167500
  0
VERTEX
  8
gg1
 10
0.325000
 20
1.182500
  0
SEQEND
  8
gg1
  0
POLYLINE
  8
gg1
 62
1
 40
0.000000
 41
0.000000
 66
  1
  0
VERTEX
  8
gg1
 10
0.367500
 20
1.200000
  0
VERTEX
  8
gg1
 10
0.382500
 20
1.200000
  0
SEQEND
  8
gg1
  0
POLYLINE
  8
gg1
 62
1
 40
0.000000
 41
0.000000
 66
  1
  0
VERTEX
  8
gg1
 10
0.375000
 20
1.192500
  0
VERTEX
  8
gg1
 10
0.375000
 20
1.207500
  0
SEQEND
  8
gg1
  0
POLYLINE
  8
gg1
 62
1
 40
0.000000
 41
0.000000
 66
  1
  0
VERTEX
  8
gg1
 10
0.367500
 20
1.380000
  0
VERTEX
  8
gg1
 10
0.382500
 20
1.380000
  0
SEQEND
  8
gg1
  0
POLYLINE
  8
gg1
 62
1
 40
0.000000
 41
0.000000
 66
  1
  0
VERTEX
  8
gg1
 10
0.375000
 20
1.372500
  0
VERTEX
  8
gg1
 10
0.375000
 20
1.387500
  0
SEQEND
  8
gg1
  0
POLYLINE
  8
gg1
 62
1
 40
0.000000
 41
0.000000
 66
  1
  0
VERTEX
  8
gg1
 10
0.367500
 20
1.445000
  0
VERTEX
  8
gg1
 10
0.382500
 20
1.445000
  0
SEQEND
  8
gg1
  0
POLYLINE
  8
gg1
 62
1
 40
0.000000
 41
0.000000
 66
  1
  0
VERTEX
  8
gg1
 10
0.375000
 20
1.437500
  0
VERTEX
  8
gg1
 10
0.375000
 20
1.452500
  0
SEQEND
  8
gg1
  0
POLYLINE
  8
gg1
 62
1
 40
0.000000
 41
0.000000
 66
  1
  0
VERTEX
  8
gg1
 10
0.302500
 20
1.485000
  0
VERTEX
  8
gg1
 10
0.317500
 20
1.485000
  0
SEQEND
  8
gg1
  0
POLYLINE
  8
gg1
 62
1
 40
0.000000
 41
0.000000
 66
  1
  0
VERTEX
  8
gg1
 10
0.310000
 20
1.477500
  0
VERTEX
  8
gg1
 10
0.310000
 20
1.492500
  0
SEQEND
  8
gg1
  0
POLYLINE
  8
gg1
 62
1
 40
0.000000
 41
0.000000
 66
  1
  0
VERTEX
  8
gg1
 10
0.302500
 20
1.540000
  0
VERTEX
  8
gg1
 10
0.317500
 20
1.540000
  0
SEQEND
  8
gg1
  0
POLYLINE
  8
gg1
 62
1
 40
0.000000
 41
0.000000
 66
  1
  0
VERTEX
  8
gg1
 10
0.310000
 20
1.532500
  0
VERTEX
  8
gg1
 10
0.310000
 20
1.547500
  0
SEQEND
  8
gg1
  0
POLYLINE
  8
gg1
 62
1
 40
0.000000
 41
0.000000
 66
  1
  0
VERTEX
  8
gg1
 10
0.367500
 20
1.110000
  0
VERTEX
  8
gg1
 10
0.382500
 20
1.110000
  0
SEQEND
  8
gg1
  0
POLYLINE
  8
gg1
 62
1
 40
0.000000
 41
0.000000
 66
  1
  0
VERTEX
  8
gg1
 10
0.375000
 20
1.102500
  0
VERTEX
  8
gg1
 10
0.375000
 20
1.117500
  0
SEQEND
  8
gg1
  0
POLYLINE
  8
gg1
 62
1
 40
0.000000
 41
0.000000
 66
  1
  0
VERTEX
  8
gg1
 10
0.567500
 20
1.545000
  0
VERTEX
  8
gg1
 10
0.582500
 20
1.545000
  0
SEQEND
  8
gg1
  0
POLYLINE
  8
gg1
 62
1
 40
0.000000
 41
0.000000
 66
  1
  0
VERTEX
  8
gg1
 10
0.575000
 20
1.537500
  0
VERTEX
  8
gg1
 10
0.575000
 20
1.552500
  0
SEQEND
  8
gg1
  0
POLYLINE
  8
gg1
 62
1
 40
0.000000
 41
0.000000
 66
  1
  0
VERTEX
  8
gg1
 10
0.682500
 20
0.830000
  0
VERTEX
  8
gg1
 10
0.697500
 20
0.830000
  0
SEQEND
  8
gg1
  0
POLYLINE
  8
gg1
 62
1
 40
0.000000
 41
0.000000
 66
  1
  0
VERTEX
  8
gg1
 10
0.690000
 20
0.822500
  0
VERTEX
  8
gg1
 10
0.690000
 20
0.837500
  0
SEQEND
  8
gg1
  0
POLYLINE
  8
gg1
 62
1
 40
0.000000
 41
0.000000
 66
  1
  0
VERTEX
  8
gg1
 10
0.697500
 20
0.935000
  0
VERTEX
  8
gg1
 10
0.712500
 20
0.935000
  0
SEQEND
  8
gg1
  0
POLYLINE
  8
gg1
 62
1
 40
0.000000
 41
0.000000
 66
  1
  0
VERTEX
  8
gg1
 10
0.705000
 20
0.927500
  0
VERTEX
  8
gg1
 10
0.705000
 20
0.942500
  0
SEQEND
  8
gg1
  0
POLYLINE
  8
gg1
 62
1
 40
0.000000
 41
0.000000
 66
  1
  0
VERTEX
  8
gg1
 10
0.672500
 20
1.005000
  0
VERTEX
  8
gg1
 10
0.687500
 20
1.005000
  0
SEQEND
  8
gg1
  0
POLYLINE
  8
gg1
 62
1
 40
0.000000
 41
0.000000
 66
  1
  0
VERTEX
  8
gg1
 10
0.680000
 20
0.997500
  0
VERTEX
  8
gg1
 10
0.680000
 20
1.012500
  0
SEQEND
  8
gg1
  0
POLYLINE
  8
gg1
 62
1
 40
0.000000
 41
0.000000
 66
  1
  0
VERTEX
  8
gg1
 10
0.481500
 20
0.532000
  0
VERTEX
  8
gg1
 10
0.496500
 20
0.532000
  0
SEQEND
  8
gg1
  0
POLYLINE
  8
gg1
 62
1
 40
0.000000
 41
0.000000
 66
  1
  0
VERTEX
  8
gg1
 10
0.489000
 20
0.524500
  0
VERTEX
  8
gg1
 10
0.489000
 20
0.539500
  0
SEQEND
  8
gg1
  0
POLYLINE
  8
gg1
 62
1
 40
0.000000
 41
0.000000
 66
  1
  0
VERTEX
  8
gg1
 10
0.501500
 20
0.499000
  0
VERTEX
  8
gg1
 10
0.516500
 20
0.499000
  0
SEQEND
  8
gg1
  0
POLYLINE
  8
gg1
 62
1
 40
0.000000
 41
0.000000
 66
  1
  0
VERTEX
  8
gg1
 10
0.509000
 20
0.491500
  0
VERTEX
  8
gg1
 10
0.509000
 20
0.506500
  0
SEQEND
  8
gg1
  0
POLYLINE
  8
gg1
 62
1
 40
0.000000
 41
0.000000
 66
  1
  0
VERTEX
  8
gg1
 10
0.310500
 20
0.674000
  0
VERTEX
  8
gg1
 10
0.325500
 20
0.674000
  0
SEQEND
  8
gg1
  0
POLYLINE
  8
gg1
 62
1
 40
0.000000
 41
0.000000
 66
  1
  0
VERTEX
  8
gg1
 10
0.318000
 20
0.666500
  0
VERTEX
  8
gg1
 10
0.318000
 20
0.681500
  0
SEQEND
  8
gg1
  0
ENDSEC
  0
EOF
