  0
SECTION
  2
HEADER
  9
$EXTMIN
 10
-0.182000
 20
-0.189000
  9
$EXTMAX
 10
0.705000
 20
1.905000
  9
$LIMMIN
 10
-0.182000
 20
-0.189000
  9
$LIMMAX
 10
0.705000
 20
1.905000
  9
$FILLMODE
 70
  1
  0
ENDSEC
  0
SECTION
  2
TABLES
  0
TABLE
  2
LTYPE
 70
  1
  0
LTYPE
  2
CONTINUOUS
 70
 64
  3
Solid line
 72
 65
 73
  0
 40
0.0
  0
ENDTAB
  0
TABLE
  2
LAYER
 70
 1
  0
LAYER
  2
0
 70
  0
 62
7
  6
CONTINUOUS
  0
LAYER
  2
gg1
 70
  0
 62
1
  6
CONTINUOUS
  0
ENDTAB
  0
TABLE
  2
STYLE
 70
  1
  0
STYLE
  2
STANDARD
 70
  0
 40
0.0
 41
1.0
 50
0.0
 71
  0
 42
0.2
  3
txt
  4

  0
ENDTAB
  0
ENDSEC
  0
SECTION
  2
BLOCKS
  0
BLOCK
  8
0
  2
D10
 70
64
 10
0.0
 20
0.0
  3
D10
  0
CIRCLE
  8
0
 10
0.000000
 20
0.000000
 40
0.005000
 0
ENDBLK
  8
0
  0
BLOCK
  8
0
  2
D11
 70
64
 10
0.0
 20
0.0
  3
D11
  0
CIRCLE
  8
0
 10
0.000000
 20
0.000000
 40
0.002500
 0
ENDBLK
  8
0
  0
BLOCK
  8
0
  2
D12
 70
64
 10
0.0
 20
0.0
  3
D12
  0
CIRCLE
  8
0
 10
0.000000
 20
0.000000
 40
0.003000
 0
ENDBLK
  8
0
  0
ENDSEC
  0
SECTION
  2
ENTITIES
  0
POLYLINE
  8
gg1
 62
1
 40
0.000000
 41
0.000000
 66
  1
  0
VERTEX
  8
gg1
 10
0.700000
 20
-0.160000
  0
VERTEX
  8
gg1
 10
0.700000
 20
-0.010000
  0
SEQEND
  8
gg1
  0
POLYLINE
  8
gg1
 62
1
 40
0.000000
 41
0.000000
 66
  1
  0
VERTEX
  8
gg1
 10
0.000000
 20
-0.160000
  0
VERTEX
  8
gg1
 10
0.000000
 20
-0.010000
  0
SEQEND
  8
gg1
  0
POLYLINE
  8
gg1
 62
1
 40
0.000000
 41
0.000000
 66
  1
  0
VERTEX
  8
gg1
 10
0.504900
 20
-0.150000
  0
VERTEX
  8
gg1
 10
0.700000
 20
-0.150000
  0
SEQEND
  8
gg1
  0
POLYLINE
  8
gg1
 62
1
 40
0.000000
 41
0.000000
 66
  1
  0
VERTEX
  8
gg1
 10
0.000000
 20
-0.150000
  0
VERTEX
  8
gg1
 10
0.163000
 20
-0.150000
  0
SEQEND
  8
gg1
  0
POLYLINE
  8
gg1
 62
1
 40
0.000000
 41
0.000000
 66
  1
  0
VERTEX
  8
gg1
 10
0.640000
 20
-0.130000
  0
VERTEX
  8
gg1
 10
0.700000
 20
-0.150000
  0
SEQEND
  8
gg1
  0
POLYLINE
  8
gg1
 62
1
 40
0.000000
 41
0.000000
 66
  1
  0
VERTEX
  8
gg1
 10
0.640000
 20
-0.170000
  0
VERTEX
  8
gg1
 10
0.700000
 20
-0.150000
  0
SEQEND
  8
gg1
  0
POLYLINE
  8
gg1
 62
1
 40
0.000000
 41
0.000000
 66
  1
  0
VERTEX
  8
gg1
 10
0.000000
 20
-0.150000
  0
VERTEX
  8
gg1
 10
0.060000
 20
-0.170000
  0
SEQEND
  8
gg1
  0
POLYLINE
  8
gg1
 62
1
 40
0.000000
 41
0.000000
 66
  1
  0
VERTEX
  8
gg1
 10
0.000000
 20
-0.150000
  0
VERTEX
  8
gg1
 10
0.060000
 20
-0.130000
  0
SEQEND
  8
gg1
  0
POLYLINE
  8
gg1
 62
1
 40
0.000000
 41
0.000000
 66
  1
  0
VERTEX
  8
gg1
 10
-0.165000
 20
1.900000
  0
VERTEX
  8
gg1
 10
-0.010000
 20
1.900000
  0
SEQEND
  8
gg1
  0
POLYLINE
  8
gg1
 62
1
 40
0.000000
 41
0.000000
 66
  1
  0
VERTEX
  8
gg1
 10
-0.165000
 20
0.000000
  0
VERTEX
  8
gg1
 10
-0.010000
 20
0.000000
  0
SEQEND
  8
gg1
  0
POLYLINE
  8
gg1
 62
1
 40
0.000000
 41
0.000000
 66
  1
  0
VERTEX
  8
gg1
 10
-0.155000
 20
1.129900
  0
VERTEX
  8
gg1
 10
-0.155000
 20
1.900000
  0
SEQEND
  8
gg1
  0
POLYLINE
  8
gg1
 62
1
 40
0.000000
 41
0.000000
 66
  1
  0
VERTEX
  8
gg1
 10
-0.155000
 20
0.000000
  0
VERTEX
  8
gg1
 10
-0.155000
 20
0.738100
  0
SEQEND
  8
gg1
  0
POLYLINE
  8
gg1
 62
1
 40
0.000000
 41
0.000000
 66
  1
  0
VERTEX
  8
gg1
 10
-0.175000
 20
1.840000
  0
VERTEX
  8
gg1
 10
-0.155000
 20
1.900000
  0
VERTEX
  8
gg1
 10
-0.135000
 20
1.840000
  0
SEQEND
  8
gg1
  0
POLYLINE
  8
gg1
 62
1
 40
0.000000
 41
0.000000
 66
  1
  0
VERTEX
  8
gg1
 10
-0.155000
 20
0.000000
  0
VERTEX
  8
gg1
 10
-0.135000
 20
0.060000
  0
SEQEND
  8
gg1
  0
POLYLINE
  8
gg1
 62
1
 40
0.000000
 41
0.000000
 66
  1
  0
VERTEX
  8
gg1
 10
-0.175000
 20
0.060000
  0
VERTEX
  8
gg1
 10
-0.155000
 20
0.000000
  0
SEQEND
  8
gg1
  0
POLYLINE
  8
gg1
 62
1
 40
0.000000
 41
0.000000
 66
  1
  0
VERTEX
  8
gg1
 10
0.000000
 20
0.000000
  0
VERTEX
  8
gg1
 10
0.000000
 20
1.900000
  0
VERTEX
  8
gg1
 10
0.700000
 20
1.900000
  0
VERTEX
  8
gg1
 10
0.700000
 20
1.900000
  0
SEQEND
  8
gg1
  0
POLYLINE
  8
gg1
 62
1
 40
0.000000
 41
0.000000
 66
  1
  0
VERTEX
  8
gg1
 10
0.700000
 20
0.000000
  0
VERTEX
  8
gg1
 10
0.700000
 20
1.900000
  0
SEQEND
  8
gg1
  0
POLYLINE
  8
gg1
 62
1
 40
0.000000
 41
0.000000
 66
  1
  0
VERTEX
  8
gg1
 10
0.000000
 20
0.000000
  0
VERTEX
  8
gg1
 10
0.700000
 20
0.000000
  0
SEQEND
  8
gg1
  0
POLYLINE
  8
gg1
 62
1
 40
0.000000
 41
0.000000
 66
  1
  0
VERTEX
  8
gg1
 10
0.630000
 20
0.850000
  0
VERTEX
  8
gg1
 10
0.670000
 20
0.850000
  0
SEQEND
  8
gg1
  0
POLYLINE
  8
gg1
 62
1
 40
0.000000
 41
0.000000
 66
  1
  0
VERTEX
  8
gg1
 10
0.650000
 20
0.830000
  0
VERTEX
  8
gg1
 10
0.650000
 20
0.870000
  0
SEQEND
  8
gg1
  0
POLYLINE
  8
gg1
 62
1
 40
0.000000
 41
0.000000
 66
  1
  0
VERTEX
  8
gg1
 10
0.057000
 20
1.800000
  0
VERTEX
  8
gg1
 10
0.143000
 20
1.800000
  0
SEQEND
  8
gg1
  0
POLYLINE
  8
gg1
 62
1
 40
0.000000
 41
0.000000
 66
  1
  0
VERTEX
  8
gg1
 10
0.100000
 20
1.757000
  0
VERTEX
  8
gg1
 10
0.100000
 20
1.843000
  0
SEQEND
  8
gg1
  0
POLYLINE
  8
gg1
 62
1
 40
0.000000
 41
0.000000
 66
  1
  0
VERTEX
  8
gg1
 10
0.557000
 20
0.100000
  0
VERTEX
  8
gg1
 10
0.643000
 20
0.100000
  0
SEQEND
  8
gg1
  0
POLYLINE
  8
gg1
 62
1
 40
0.000000
 41
0.000000
 66
  1
  0
VERTEX
  8
gg1
 10
0.600000
 20
0.057000
  0
VERTEX
  8
gg1
 10
0.600000
 20
0.143000
  0
SEQEND
  8
gg1
  0
POLYLINE
  8
gg1
 62
1
 40
0.000000
 41
0.000000
 66
  1
  0
VERTEX
  8
gg1
 10
0.030000
 20
0.450000
  0
VERTEX
  8
gg1
 10
0.070000
 20
0.450000
  0
SEQEND
  8
gg1
  0
POLYLINE
  8
gg1
 62
1
 40
0.000000
 41
0.000000
 66
  1
  0
VERTEX
  8
gg1
 10
0.050000
 20
0.430000
  0
VERTEX
  8
gg1
 10
0.050000
 20
0.470000
  0
SEQEND
  8
gg1
  0
POLYLINE
  8
gg1
 62
1
 40
0.000000
 41
0.000000
 66
  1
  0
VERTEX
  8
gg1
 10
0.030000
 20
0.550000
  0
VERTEX
  8
gg1
 10
0.070000
 20
0.550000
  0
SEQEND
  8
gg1
  0
POLYLINE
  8
gg1
 62
1
 40
0.000000
 41
0.000000
 66
  1
  0
VERTEX
  8
gg1
 10
0.050000
 20
0.530000
  0
VERTEX
  8
gg1
 10
0.050000
 20
0.570000
  0
SEQEND
  8
gg1
  0
POLYLINE
  8
gg1
 62
1
 40
0.000000
 41
0.000000
 66
  1
  0
VERTEX
  8
gg1
 10
0.030000
 20
0.650000
  0
VERTEX
  8
gg1
 10
0.070000
 20
0.650000
  0
SEQEND
  8
gg1
  0
POLYLINE
  8
gg1
 62
1
 40
0.000000
 41
0.000000
 66
  1
  0
VERTEX
  8
gg1
 10
0.050000
 20
0.630000
  0
VERTEX
  8
gg1
 10
0.050000
 20
0.670000
  0
SEQEND
  8
gg1
  0
POLYLINE
  8
gg1
 62
1
 40
0.000000
 41
0.000000
 66
  1
  0
VERTEX
  8
gg1
 10
0.030000
 20
0.750000
  0
VERTEX
  8
gg1
 10
0.070000
 20
0.750000
  0
SEQEND
  8
gg1
  0
POLYLINE
  8
gg1
 62
1
 40
0.000000
 41
0.000000
 66
  1
  0
VERTEX
  8
gg1
 10
0.050000
 20
0.730000
  0
VERTEX
  8
gg1
 10
0.050000
 20
0.770000
  0
SEQEND
  8
gg1
  0
POLYLINE
  8
gg1
 62
1
 40
0.000000
 41
0.000000
 66
  1
  0
VERTEX
  8
gg1
 10
0.030000
 20
0.850000
  0
VERTEX
  8
gg1
 10
0.070000
 20
0.850000
  0
SEQEND
  8
gg1
  0
POLYLINE
  8
gg1
 62
1
 40
0.000000
 41
0.000000
 66
  1
  0
VERTEX
  8
gg1
 10
0.050000
 20
0.830000
  0
VERTEX
  8
gg1
 10
0.050000
 20
0.870000
  0
SEQEND
  8
gg1
  0
POLYLINE
  8
gg1
 62
1
 40
0.000000
 41
0.000000
 66
  1
  0
VERTEX
  8
gg1
 10
0.630000
 20
0.250000
  0
VERTEX
  8
gg1
 10
0.670000
 20
0.250000
  0
SEQEND
  8
gg1
  0
POLYLINE
  8
gg1
 62
1
 40
0.000000
 41
0.000000
 66
  1
  0
VERTEX
  8
gg1
 10
0.650000
 20
0.230000
  0
VERTEX
  8
gg1
 10
0.650000
 20
0.270000
  0
SEQEND
  8
gg1
  0
POLYLINE
  8
gg1
 62
1
 40
0.000000
 41
0.000000
 66
  1
  0
VERTEX
  8
gg1
 10
0.630000
 20
1.250000
  0
VERTEX
  8
gg1
 10
0.670000
 20
1.250000
  0
SEQEND
  8
gg1
  0
POLYLINE
  8
gg1
 62
1
 40
0.000000
 41
0.000000
 66
  1
  0
VERTEX
  8
gg1
 10
0.650000
 20
1.230000
  0
VERTEX
  8
gg1
 10
0.650000
 20
1.270000
  0
SEQEND
  8
gg1
  0
POLYLINE
  8
gg1
 62
1
 40
0.000000
 41
0.000000
 66
  1
  0
VERTEX
  8
gg1
 10
0.630000
 20
1.150000
  0
VERTEX
  8
gg1
 10
0.670000
 20
1.150000
  0
SEQEND
  8
gg1
  0
POLYLINE
  8
gg1
 62
1
 40
0.000000
 41
0.000000
 66
  1
  0
VERTEX
  8
gg1
 10
0.650000
 20
1.130000
  0
VERTEX
  8
gg1
 10
0.650000
 20
1.170000
  0
SEQEND
  8
gg1
  0
POLYLINE
  8
gg1
 62
1
 40
0.000000
 41
0.000000
 66
  1
  0
VERTEX
  8
gg1
 10
0.630000
 20
1.350000
  0
VERTEX
  8
gg1
 10
0.670000
 20
1.350000
  0
SEQEND
  8
gg1
  0
POLYLINE
  8
gg1
 62
1
 40
0.000000
 41
0.000000
 66
  1
  0
VERTEX
  8
gg1
 10
0.650000
 20
1.330000
  0
VERTEX
  8
gg1
 10
0.650000
 20
1.370000
  0
SEQEND
  8
gg1
  0
POLYLINE
  8
gg1
 62
1
 40
0.000000
 41
0.000000
 66
  1
  0
VERTEX
  8
gg1
 10
0.630000
 20
0.750000
  0
VERTEX
  8
gg1
 10
0.670000
 20
0.750000
  0
SEQEND
  8
gg1
  0
POLYLINE
  8
gg1
 62
1
 40
0.000000
 41
0.000000
 66
  1
  0
VERTEX
  8
gg1
 10
0.650000
 20
0.730000
  0
VERTEX
  8
gg1
 10
0.650000
 20
0.770000
  0
SEQEND
  8
gg1
  0
POLYLINE
  8
gg1
 62
1
 40
0.000000
 41
0.000000
 66
  1
  0
VERTEX
  8
gg1
 10
0.630000
 20
1.050000
  0
VERTEX
  8
gg1
 10
0.670000
 20
1.050000
  0
SEQEND
  8
gg1
  0
POLYLINE
  8
gg1
 62
1
 40
0.000000
 41
0.000000
 66
  1
  0
VERTEX
  8
gg1
 10
0.650000
 20
1.030000
  0
VERTEX
  8
gg1
 10
0.650000
 20
1.070000
  0
SEQEND
  8
gg1
  0
POLYLINE
  8
gg1
 62
1
 40
0.000000
 41
0.000000
 66
  1
  0
VERTEX
  8
gg1
 10
0.630000
 20
0.650000
  0
VERTEX
  8
gg1
 10
0.670000
 20
0.650000
  0
SEQEND
  8
gg1
  0
POLYLINE
  8
gg1
 62
1
 40
0.000000
 41
0.000000
 66
  1
  0
VERTEX
  8
gg1
 10
0.650000
 20
0.630000
  0
VERTEX
  8
gg1
 10
0.650000
 20
0.670000
  0
SEQEND
  8
gg1
  0
POLYLINE
  8
gg1
 62
1
 40
0.000000
 41
0.000000
 66
  1
  0
VERTEX
  8
gg1
 10
0.630000
 20
0.950000
  0
VERTEX
  8
gg1
 10
0.670000
 20
0.950000
  0
SEQEND
  8
gg1
  0
POLYLINE
  8
gg1
 62
1
 40
0.000000
 41
0.000000
 66
  1
  0
VERTEX
  8
gg1
 10
0.650000
 20
0.930000
  0
VERTEX
  8
gg1
 10
0.650000
 20
0.970000
  0
SEQEND
  8
gg1
  0
POLYLINE
  8
gg1
 62
1
 40
0.000000
 41
0.000000
 66
  1
  0
VERTEX
  8
gg1
 10
0.030000
 20
1.550000
  0
VERTEX
  8
gg1
 10
0.070000
 20
1.550000
  0
SEQEND
  8
gg1
  0
POLYLINE
  8
gg1
 62
1
 40
0.000000
 41
0.000000
 66
  1
  0
VERTEX
  8
gg1
 10
0.050000
 20
1.530000
  0
VERTEX
  8
gg1
 10
0.050000
 20
1.570000
  0
SEQEND
  8
gg1
  0
POLYLINE
  8
gg1
 62
1
 40
0.000000
 41
0.000000
 66
  1
  0
VERTEX
  8
gg1
 10
0.630000
 20
0.550000
  0
VERTEX
  8
gg1
 10
0.670000
 20
0.550000
  0
SEQEND
  8
gg1
  0
POLYLINE
  8
gg1
 62
1
 40
0.000000
 41
0.000000
 66
  1
  0
VERTEX
  8
gg1
 10
0.650000
 20
0.530000
  0
VERTEX
  8
gg1
 10
0.650000
 20
0.570000
  0
SEQEND
  8
gg1
  0
POLYLINE
  8
gg1
 62
1
 40
0.000000
 41
0.000000
 66
  1
  0
VERTEX
  8
gg1
 10
0.030000
 20
1.450000
  0
VERTEX
  8
gg1
 10
0.070000
 20
1.450000
  0
SEQEND
  8
gg1
  0
POLYLINE
  8
gg1
 62
1
 40
0.000000
 41
0.000000
 66
  1
  0
VERTEX
  8
gg1
 10
0.050000
 20
1.430000
  0
VERTEX
  8
gg1
 10
0.050000
 20
1.470000
  0
SEQEND
  8
gg1
  0
POLYLINE
  8
gg1
 62
1
 40
0.000000
 41
0.000000
 66
  1
  0
VERTEX
  8
gg1
 10
0.630000
 20
0.450000
  0
VERTEX
  8
gg1
 10
0.670000
 20
0.450000
  0
SEQEND
  8
gg1
  0
POLYLINE
  8
gg1
 62
1
 40
0.000000
 41
0.000000
 66
  1
  0
VERTEX
  8
gg1
 10
0.650000
 20
0.430000
  0
VERTEX
  8
gg1
 10
0.650000
 20
0.470000
  0
SEQEND
  8
gg1
  0
POLYLINE
  8
gg1
 62
1
 40
0.000000
 41
0.000000
 66
  1
  0
VERTEX
  8
gg1
 10
0.630000
 20
0.350000
  0
VERTEX
  8
gg1
 10
0.670000
 20
0.350000
  0
SEQEND
  8
gg1
  0
POLYLINE
  8
gg1
 62
1
 40
0.000000
 41
0.000000
 66
  1
  0
VERTEX
  8
gg1
 10
0.650000
 20
0.330000
  0
VERTEX
  8
gg1
 10
0.650000
 20
0.370000
  0
SEQEND
  8
gg1
  0
POLYLINE
  8
gg1
 62
1
 40
0.000000
 41
0.000000
 66
  1
  0
VERTEX
  8
gg1
 10
0.130000
 20
0.050000
  0
VERTEX
  8
gg1
 10
0.170000
 20
0.050000
  0
SEQEND
  8
gg1
  0
POLYLINE
  8
gg1
 62
1
 40
0.000000
 41
0.000000
 66
  1
  0
VERTEX
  8
gg1
 10
0.150000
 20
0.030000
  0
VERTEX
  8
gg1
 10
0.150000
 20
0.070000
  0
SEQEND
  8
gg1
  0
POLYLINE
  8
gg1
 62
1
 40
0.000000
 41
0.000000
 66
  1
  0
VERTEX
  8
gg1
 10
0.030000
 20
0.050000
  0
VERTEX
  8
gg1
 10
0.070000
 20
0.050000
  0
SEQEND
  8
gg1
  0
POLYLINE
  8
gg1
 62
1
 40
0.000000
 41
0.000000
 66
  1
  0
VERTEX
  8
gg1
 10
0.050000
 20
0.030000
  0
VERTEX
  8
gg1
 10
0.050000
 20
0.070000
  0
SEQEND
  8
gg1
  0
POLYLINE
  8
gg1
 62
1
 40
0.000000
 41
0.000000
 66
  1
  0
VERTEX
  8
gg1
 10
0.030000
 20
0.150000
  0
VERTEX
  8
gg1
 10
0.070000
 20
0.150000
  0
SEQEND
  8
gg1
  0
POLYLINE
  8
gg1
 62
1
 40
0.000000
 41
0.000000
 66
  1
  0
VERTEX
  8
gg1
 10
0.050000
 20
0.130000
  0
VERTEX
  8
gg1
 10
0.050000
 20
0.170000
  0
SEQEND
  8
gg1
  0
POLYLINE
  8
gg1
 62
1
 40
0.000000
 41
0.000000
 66
  1
  0
VERTEX
  8
gg1
 10
0.030000
 20
0.250000
  0
VERTEX
  8
gg1
 10
0.070000
 20
0.250000
  0
SEQEND
  8
gg1
  0
POLYLINE
  8
gg1
 62
1
 40
0.000000
 41
0.000000
 66
  1
  0
VERTEX
  8
gg1
 10
0.050000
 20
0.230000
  0
VERTEX
  8
gg1
 10
0.050000
 20
0.270000
  0
SEQEND
  8
gg1
  0
POLYLINE
  8
gg1
 62
1
 40
0.000000
 41
0.000000
 66
  1
  0
VERTEX
  8
gg1
 10
0.030000
 20
0.350000
  0
VERTEX
  8
gg1
 10
0.070000
 20
0.350000
  0
SEQEND
  8
gg1
  0
POLYLINE
  8
gg1
 62
1
 40
0.000000
 41
0.000000
 66
  1
  0
VERTEX
  8
gg1
 10
0.050000
 20
0.330000
  0
VERTEX
  8
gg1
 10
0.050000
 20
0.370000
  0
SEQEND
  8
gg1
  0
POLYLINE
  8
gg1
 62
1
 40
0.000000
 41
0.000000
 66
  1
  0
VERTEX
  8
gg1
 10
0.030000
 20
0.950000
  0
VERTEX
  8
gg1
 10
0.070000
 20
0.950000
  0
SEQEND
  8
gg1
  0
POLYLINE
  8
gg1
 62
1
 40
0.000000
 41
0.000000
 66
  1
  0
VERTEX
  8
gg1
 10
0.050000
 20
0.930000
  0
VERTEX
  8
gg1
 10
0.050000
 20
0.970000
  0
SEQEND
  8
gg1
  0
POLYLINE
  8
gg1
 62
1
 40
0.000000
 41
0.000000
 66
  1
  0
VERTEX
  8
gg1
 10
0.030000
 20
1.050000
  0
VERTEX
  8
gg1
 10
0.070000
 20
1.050000
  0
SEQEND
  8
gg1
  0
POLYLINE
  8
gg1
 62
1
 40
0.000000
 41
0.000000
 66
  1
  0
VERTEX
  8
gg1
 10
0.050000
 20
1.030000
  0
VERTEX
  8
gg1
 10
0.050000
 20
1.070000
  0
SEQEND
  8
gg1
  0
POLYLINE
  8
gg1
 62
1
 40
0.000000
 41
0.000000
 66
  1
  0
VERTEX
  8
gg1
 10
0.030000
 20
1.650000
  0
VERTEX
  8
gg1
 10
0.070000
 20
1.650000
  0
SEQEND
  8
gg1
  0
POLYLINE
  8
gg1
 62
1
 40
0.000000
 41
0.000000
 66
  1
  0
VERTEX
  8
gg1
 10
0.050000
 20
1.630000
  0
VERTEX
  8
gg1
 10
0.050000
 20
1.670000
  0
SEQEND
  8
gg1
  0
POLYLINE
  8
gg1
 62
1
 40
0.000000
 41
0.000000
 66
  1
  0
VERTEX
  8
gg1
 10
0.030000
 20
1.350000
  0
VERTEX
  8
gg1
 10
0.070000
 20
1.350000
  0
SEQEND
  8
gg1
  0
POLYLINE
  8
gg1
 62
1
 40
0.000000
 41
0.000000
 66
  1
  0
VERTEX
  8
gg1
 10
0.050000
 20
1.330000
  0
VERTEX
  8
gg1
 10
0.050000
 20
1.370000
  0
SEQEND
  8
gg1
  0
POLYLINE
  8
gg1
 62
1
 40
0.000000
 41
0.000000
 66
  1
  0
VERTEX
  8
gg1
 10
0.030000
 20
1.250000
  0
VERTEX
  8
gg1
 10
0.070000
 20
1.250000
  0
SEQEND
  8
gg1
  0
POLYLINE
  8
gg1
 62
1
 40
0.000000
 41
0.000000
 66
  1
  0
VERTEX
  8
gg1
 10
0.050000
 20
1.230000
  0
VERTEX
  8
gg1
 10
0.050000
 20
1.270000
  0
SEQEND
  8
gg1
  0
POLYLINE
  8
gg1
 62
1
 40
0.000000
 41
0.000000
 66
  1
  0
VERTEX
  8
gg1
 10
0.030000
 20
1.150000
  0
VERTEX
  8
gg1
 10
0.070000
 20
1.150000
  0
SEQEND
  8
gg1
  0
POLYLINE
  8
gg1
 62
1
 40
0.000000
 41
0.000000
 66
  1
  0
VERTEX
  8
gg1
 10
0.050000
 20
1.130000
  0
VERTEX
  8
gg1
 10
0.050000
 20
1.170000
  0
SEQEND
  8
gg1
  0
POLYLINE
  8
gg1
 62
1
 40
0.000000
 41
0.000000
 66
  1
  0
VERTEX
  8
gg1
 10
0.234800
 20
1.740000
  0
VERTEX
  8
gg1
 10
0.262400
 20
1.740000
  0
SEQEND
  8
gg1
  0
POLYLINE
  8
gg1
 62
1
 40
0.000000
 41
0.000000
 66
  1
  0
VERTEX
  8
gg1
 10
0.248600
 20
1.726200
  0
VERTEX
  8
gg1
 10
0.248600
 20
1.753800
  0
SEQEND
  8
gg1
  0
POLYLINE
  8
gg1
 62
1
 40
0.000000
 41
0.000000
 66
  1
  0
VERTEX
  8
gg1
 10
0.240700
 20
1.740000
  0
VERTEX
  8
gg1
 10
0.268300
 20
1.740000
  0
SEQEND
  8
gg1
  0
POLYLINE
  8
gg1
 62
1
 40
0.000000
 41
0.000000
 66
  1
  0
VERTEX
  8
gg1
 10
0.254500
 20
1.726200
  0
VERTEX
  8
gg1
 10
0.254500
 20
1.753800
  0
SEQEND
  8
gg1
  0
POLYLINE
  8
gg1
 62
1
 40
0.000000
 41
0.000000
 66
  1
  0
VERTEX
  8
gg1
 10
0.474000
 20
1.855200
  0
VERTEX
  8
gg1
 10
0.501600
 20
1.855200
  0
SEQEND
  8
gg1
  0
POLYLINE
  8
gg1
 62
1
 40
0.000000
 41
0.000000
 66
  1
  0
VERTEX
  8
gg1
 10
0.487800
 20
1.841400
  0
VERTEX
  8
gg1
 10
0.487800
 20
1.868900
  0
SEQEND
  8
gg1
  0
POLYLINE
  8
gg1
 62
1
 40
0.000000
 41
0.000000
 66
  1
  0
VERTEX
  8
gg1
 10
0.431700
 20
1.740000
  0
VERTEX
  8
gg1
 10
0.459300
 20
1.740000
  0
SEQEND
  8
gg1
  0
POLYLINE
  8
gg1
 62
1
 40
0.000000
 41
0.000000
 66
  1
  0
VERTEX
  8
gg1
 10
0.445500
 20
1.726200
  0
VERTEX
  8
gg1
 10
0.445500
 20
1.753800
  0
SEQEND
  8
gg1
  0
POLYLINE
  8
gg1
 62
1
 40
0.000000
 41
0.000000
 66
  1
  0
VERTEX
  8
gg1
 10
0.437600
 20
1.740000
  0
VERTEX
  8
gg1
 10
0.465200
 20
1.740000
  0
SEQEND
  8
gg1
  0
POLYLINE
  8
gg1
 62
1
 40
0.000000
 41
0.000000
 66
  1
  0
VERTEX
  8
gg1
 10
0.451400
 20
1.726200
  0
VERTEX
  8
gg1
 10
0.451400
 20
1.753800
  0
SEQEND
  8
gg1
  0
POLYLINE
  8
gg1
 62
1
 40
0.000000
 41
0.000000
 66
  1
  0
VERTEX
  8
gg1
 10
0.474000
 20
1.837400
  0
VERTEX
  8
gg1
 10
0.501600
 20
1.837400
  0
SEQEND
  8
gg1
  0
POLYLINE
  8
gg1
 62
1
 40
0.000000
 41
0.000000
 66
  1
  0
VERTEX
  8
gg1
 10
0.487800
 20
1.823700
  0
VERTEX
  8
gg1
 10
0.487800
 20
1.851200
  0
SEQEND
  8
gg1
  0
POLYLINE
  8
gg1
 62
1
 40
0.000000
 41
0.000000
 66
  1
  0
VERTEX
  8
gg1
 10
0.198400
 20
1.837400
  0
VERTEX
  8
gg1
 10
0.226000
 20
1.837400
  0
SEQEND
  8
gg1
  0
POLYLINE
  8
gg1
 62
1
 40
0.000000
 41
0.000000
 66
  1
  0
VERTEX
  8
gg1
 10
0.212200
 20
1.823700
  0
VERTEX
  8
gg1
 10
0.212200
 20
1.851200
  0
SEQEND
  8
gg1
  0
POLYLINE
  8
gg1
 62
1
 40
0.000000
 41
0.000000
 66
  1
  0
VERTEX
  8
gg1
 10
0.198400
 20
1.855200
  0
VERTEX
  8
gg1
 10
0.226000
 20
1.855200
  0
SEQEND
  8
gg1
  0
POLYLINE
  8
gg1
 62
1
 40
0.000000
 41
0.000000
 66
  1
  0
VERTEX
  8
gg1
 10
0.212200
 20
1.841400
  0
VERTEX
  8
gg1
 10
0.212200
 20
1.868900
  0
SEQEND
  8
gg1
  0
POLYLINE
  8
gg1
 62
1
 40
0.000000
 41
0.000000
 66
  1
  0
VERTEX
  8
gg1
 10
0.630000
 20
1.850000
  0
VERTEX
  8
gg1
 10
0.670000
 20
1.850000
  0
SEQEND
  8
gg1
  0
POLYLINE
  8
gg1
 62
1
 40
0.000000
 41
0.000000
 66
  1
  0
VERTEX
  8
gg1
 10
0.650000
 20
1.830000
  0
VERTEX
  8
gg1
 10
0.650000
 20
1.870000
  0
SEQEND
  8
gg1
  0
POLYLINE
  8
gg1
 62
1
 40
0.000000
 41
0.000000
 66
  1
  0
VERTEX
  8
gg1
 10
0.630000
 20
1.750000
  0
VERTEX
  8
gg1
 10
0.670000
 20
1.750000
  0
SEQEND
  8
gg1
  0
POLYLINE
  8
gg1
 62
1
 40
0.000000
 41
0.000000
 66
  1
  0
VERTEX
  8
gg1
 10
0.650000
 20
1.730000
  0
VERTEX
  8
gg1
 10
0.650000
 20
1.770000
  0
SEQEND
  8
gg1
  0
POLYLINE
  8
gg1
 62
1
 40
0.000000
 41
0.000000
 66
  1
  0
VERTEX
  8
gg1
 10
0.630000
 20
1.550000
  0
VERTEX
  8
gg1
 10
0.670000
 20
1.550000
  0
SEQEND
  8
gg1
  0
POLYLINE
  8
gg1
 62
1
 40
0.000000
 41
0.000000
 66
  1
  0
VERTEX
  8
gg1
 10
0.650000
 20
1.530000
  0
VERTEX
  8
gg1
 10
0.650000
 20
1.570000
  0
SEQEND
  8
gg1
  0
POLYLINE
  8
gg1
 62
1
 40
0.000000
 41
0.000000
 66
  1
  0
VERTEX
  8
gg1
 10
0.630000
 20
1.650000
  0
VERTEX
  8
gg1
 10
0.670000
 20
1.650000
  0
SEQEND
  8
gg1
  0
POLYLINE
  8
gg1
 62
1
 40
0.000000
 41
0.000000
 66
  1
  0
VERTEX
  8
gg1
 10
0.650000
 20
1.630000
  0
VERTEX
  8
gg1
 10
0.650000
 20
1.670000
  0
SEQEND
  8
gg1
  0
POLYLINE
  8
gg1
 62
1
 40
0.000000
 41
0.000000
 66
  1
  0
VERTEX
  8
gg1
 10
0.211200
 20
0.214600
  0
VERTEX
  8
gg1
 10
0.238800
 20
0.214600
  0
SEQEND
  8
gg1
  0
POLYLINE
  8
gg1
 62
1
 40
0.000000
 41
0.000000
 66
  1
  0
VERTEX
  8
gg1
 10
0.225000
 20
0.200800
  0
VERTEX
  8
gg1
 10
0.225000
 20
0.228300
  0
SEQEND
  8
gg1
  0
POLYLINE
  8
gg1
 62
1
 40
0.000000
 41
0.000000
 66
  1
  0
VERTEX
  8
gg1
 10
0.211200
 20
0.285400
  0
VERTEX
  8
gg1
 10
0.238800
 20
0.285400
  0
SEQEND
  8
gg1
  0
POLYLINE
  8
gg1
 62
1
 40
0.000000
 41
0.000000
 66
  1
  0
VERTEX
  8
gg1
 10
0.225000
 20
0.271700
  0
VERTEX
  8
gg1
 10
0.225000
 20
0.299200
  0
SEQEND
  8
gg1
  0
POLYLINE
  8
gg1
 62
1
 40
0.000000
 41
0.000000
 66
  1
  0
VERTEX
  8
gg1
 10
0.430000
 20
0.050000
  0
VERTEX
  8
gg1
 10
0.470000
 20
0.050000
  0
SEQEND
  8
gg1
  0
POLYLINE
  8
gg1
 62
1
 40
0.000000
 41
0.000000
 66
  1
  0
VERTEX
  8
gg1
 10
0.450000
 20
0.030000
  0
VERTEX
  8
gg1
 10
0.450000
 20
0.070000
  0
SEQEND
  8
gg1
  0
POLYLINE
  8
gg1
 62
1
 40
0.000000
 41
0.000000
 66
  1
  0
VERTEX
  8
gg1
 10
0.330000
 20
0.050000
  0
VERTEX
  8
gg1
 10
0.370000
 20
0.050000
  0
SEQEND
  8
gg1
  0
POLYLINE
  8
gg1
 62
1
 40
0.000000
 41
0.000000
 66
  1
  0
VERTEX
  8
gg1
 10
0.350000
 20
0.030000
  0
VERTEX
  8
gg1
 10
0.350000
 20
0.070000
  0
SEQEND
  8
gg1
  0
POLYLINE
  8
gg1
 62
1
 40
0.000000
 41
0.000000
 66
  1
  0
VERTEX
  8
gg1
 10
0.430000
 20
0.150000
  0
VERTEX
  8
gg1
 10
0.470000
 20
0.150000
  0
SEQEND
  8
gg1
  0
POLYLINE
  8
gg1
 62
1
 40
0.000000
 41
0.000000
 66
  1
  0
VERTEX
  8
gg1
 10
0.450000
 20
0.130000
  0
VERTEX
  8
gg1
 10
0.450000
 20
0.170000
  0
SEQEND
  8
gg1
  0
POLYLINE
  8
gg1
 62
1
 40
0.000000
 41
0.000000
 66
  1
  0
VERTEX
  8
gg1
 10
0.330000
 20
0.250000
  0
VERTEX
  8
gg1
 10
0.370000
 20
0.250000
  0
SEQEND
  8
gg1
  0
POLYLINE
  8
gg1
 62
1
 40
0.000000
 41
0.000000
 66
  1
  0
VERTEX
  8
gg1
 10
0.350000
 20
0.230000
  0
VERTEX
  8
gg1
 10
0.350000
 20
0.270000
  0
SEQEND
  8
gg1
  0
POLYLINE
  8
gg1
 62
1
 40
0.000000
 41
0.000000
 66
  1
  0
VERTEX
  8
gg1
 10
0.430000
 20
0.250000
  0
VERTEX
  8
gg1
 10
0.470000
 20
0.250000
  0
SEQEND
  8
gg1
  0
POLYLINE
  8
gg1
 62
1
 40
0.000000
 41
0.000000
 66
  1
  0
VERTEX
  8
gg1
 10
0.450000
 20
0.230000
  0
VERTEX
  8
gg1
 10
0.450000
 20
0.270000
  0
SEQEND
  8
gg1
  0
POLYLINE
  8
gg1
 62
1
 40
0.000000
 41
0.000000
 66
  1
  0
VERTEX
  8
gg1
 10
0.330000
 20
0.150000
  0
VERTEX
  8
gg1
 10
0.370000
 20
0.150000
  0
SEQEND
  8
gg1
  0
POLYLINE
  8
gg1
 62
1
 40
0.000000
 41
0.000000
 66
  1
  0
VERTEX
  8
gg1
 10
0.350000
 20
0.130000
  0
VERTEX
  8
gg1
 10
0.350000
 20
0.170000
  0
SEQEND
  8
gg1
  0
POLYLINE
  8
gg1
 62
1
 40
0.000000
 41
0.000000
 66
  1
  0
VERTEX
  8
gg1
 10
0.230000
 20
1.000000
  0
VERTEX
  8
gg1
 10
0.270000
 20
1.000000
  0
SEQEND
  8
gg1
  0
POLYLINE
  8
gg1
 62
1
 40
0.000000
 41
0.000000
 66
  1
  0
VERTEX
  8
gg1
 10
0.250000
 20
0.980000
  0
VERTEX
  8
gg1
 10
0.250000
 20
1.020000
  0
SEQEND
  8
gg1
  0
POLYLINE
  8
gg1
 62
1
 40
0.000000
 41
0.000000
 66
  1
  0
VERTEX
  8
gg1
 10
0.230000
 20
1.100000
  0
VERTEX
  8
gg1
 10
0.270000
 20
1.100000
  0
SEQEND
  8
gg1
  0
POLYLINE
  8
gg1
 62
1
 40
0.000000
 41
0.000000
 66
  1
  0
VERTEX
  8
gg1
 10
0.250000
 20
1.080000
  0
VERTEX
  8
gg1
 10
0.250000
 20
1.120000
  0
SEQEND
  8
gg1
  0
POLYLINE
  8
gg1
 62
1
 40
0.000000
 41
0.000000
 66
  1
  0
VERTEX
  8
gg1
 10
0.630000
 20
1.450000
  0
VERTEX
  8
gg1
 10
0.670000
 20
1.450000
  0
SEQEND
  8
gg1
  0
POLYLINE
  8
gg1
 62
1
 40
0.000000
 41
0.000000
 66
  1
  0
VERTEX
  8
gg1
 10
0.650000
 20
1.430000
  0
VERTEX
  8
gg1
 10
0.650000
 20
1.470000
  0
SEQEND
  8
gg1
  0
POLYLINE
  8
gg1
 62
1
 40
0.000000
 41
0.000000
 66
  1
  0
VERTEX
  8
gg1
 10
0.287500
 20
1.690000
  0
VERTEX
  8
gg1
 10
0.302500
 20
1.690000
  0
SEQEND
  8
gg1
  0
POLYLINE
  8
gg1
 62
1
 40
0.000000
 41
0.000000
 66
  1
  0
VERTEX
  8
gg1
 10
0.295000
 20
1.682500
  0
VERTEX
  8
gg1
 10
0.295000
 20
1.697500
  0
SEQEND
  8
gg1
  0
POLYLINE
  8
gg1
 62
1
 40
0.000000
 41
0.000000
 66
  1
  0
VERTEX
  8
gg1
 10
0.252500
 20
1.690000
  0
VERTEX
  8
gg1
 10
0.267500
 20
1.690000
  0
SEQEND
  8
gg1
  0
POLYLINE
  8
gg1
 62
1
 40
0.000000
 41
0.000000
 66
  1
  0
VERTEX
  8
gg1
 10
0.260000
 20
1.682500
  0
VERTEX
  8
gg1
 10
0.260000
 20
1.697500
  0
SEQEND
  8
gg1
  0
POLYLINE
  8
gg1
 62
1
 40
0.000000
 41
0.000000
 66
  1
  0
VERTEX
  8
gg1
 10
0.172500
 20
1.690000
  0
VERTEX
  8
gg1
 10
0.187500
 20
1.690000
  0
SEQEND
  8
gg1
  0
POLYLINE
  8
gg1
 62
1
 40
0.000000
 41
0.000000
 66
  1
  0
VERTEX
  8
gg1
 10
0.180000
 20
1.682500
  0
VERTEX
  8
gg1
 10
0.180000
 20
1.697500
  0
SEQEND
  8
gg1
  0
POLYLINE
  8
gg1
 62
1
 40
0.000000
 41
0.000000
 66
  1
  0
VERTEX
  8
gg1
 10
0.517500
 20
0.764000
  0
VERTEX
  8
gg1
 10
0.532500
 20
0.764000
  0
SEQEND
  8
gg1
  0
POLYLINE
  8
gg1
 62
1
 40
0.000000
 41
0.000000
 66
  1
  0
VERTEX
  8
gg1
 10
0.525000
 20
0.756500
  0
VERTEX
  8
gg1
 10
0.525000
 20
0.771500
  0
SEQEND
  8
gg1
  0
POLYLINE
  8
gg1
 62
1
 40
0.000000
 41
0.000000
 66
  1
  0
VERTEX
  8
gg1
 10
0.303500
 20
0.947000
  0
VERTEX
  8
gg1
 10
0.318500
 20
0.947000
  0
SEQEND
  8
gg1
  0
POLYLINE
  8
gg1
 62
1
 40
0.000000
 41
0.000000
 66
  1
  0
VERTEX
  8
gg1
 10
0.311000
 20
0.939500
  0
VERTEX
  8
gg1
 10
0.311000
 20
0.954500
  0
SEQEND
  8
gg1
  0
POLYLINE
  8
gg1
 62
1
 40
0.000000
 41
0.000000
 66
  1
  0
VERTEX
  8
gg1
 10
0.422500
 20
0.675000
  0
VERTEX
  8
gg1
 10
0.437500
 20
0.675000
  0
SEQEND
  8
gg1
  0
POLYLINE
  8
gg1
 62
1
 40
0.000000
 41
0.000000
 66
  1
  0
VERTEX
  8
gg1
 10
0.430000
 20
0.667500
  0
VERTEX
  8
gg1
 10
0.430000
 20
0.682500
  0
SEQEND
  8
gg1
  0
POLYLINE
  8
gg1
 62
1
 40
0.000000
 41
0.000000
 66
  1
  0
VERTEX
  8
gg1
 10
0.317500
 20
0.735000
  0
VERTEX
  8
gg1
 10
0.332500
 20
0.735000
  0
SEQEND
  8
gg1
  0
POLYLINE
  8
gg1
 62
1
 40
0.000000
 41
0.000000
 66
  1
  0
VERTEX
  8
gg1
 10
0.325000
 20
0.727500
  0
VERTEX
  8
gg1
 10
0.325000
 20
0.742500
  0
SEQEND
  8
gg1
  0
POLYLINE
  8
gg1
 62
1
 40
0.000000
 41
0.000000
 66
  1
  0
VERTEX
  8
gg1
 10
0.562500
 20
0.581000
  0
VERTEX
  8
gg1
 10
0.577500
 20
0.581000
  0
SEQEND
  8
gg1
  0
POLYLINE
  8
gg1
 62
1
 40
0.000000
 41
0.000000
 66
  1
  0
VERTEX
  8
gg1
 10
0.570000
 20
0.573500
  0
VERTEX
  8
gg1
 10
0.570000
 20
0.588500
  0
SEQEND
  8
gg1
  0
POLYLINE
  8
gg1
 62
1
 40
0.000000
 41
0.000000
 66
  1
  0
VERTEX
  8
gg1
 10
0.562500
 20
0.641000
  0
VERTEX
  8
gg1
 10
0.577500
 20
0.641000
  0
SEQEND
  8
gg1
  0
POLYLINE
  8
gg1
 62
1
 40
0.000000
 41
0.000000
 66
  1
  0
VERTEX
  8
gg1
 10
0.570000
 20
0.633500
  0
VERTEX
  8
gg1
 10
0.570000
 20
0.648500
  0
SEQEND
  8
gg1
  0
POLYLINE
  8
gg1
 62
1
 40
0.000000
 41
0.000000
 66
  1
  0
VERTEX
  8
gg1
 10
0.161500
 20
0.825000
  0
VERTEX
  8
gg1
 10
0.176500
 20
0.825000
  0
SEQEND
  8
gg1
  0
POLYLINE
  8
gg1
 62
1
 40
0.000000
 41
0.000000
 66
  1
  0
VERTEX
  8
gg1
 10
0.169000
 20
0.817500
  0
VERTEX
  8
gg1
 10
0.169000
 20
0.832500
  0
SEQEND
  8
gg1
  0
POLYLINE
  8
gg1
 62
1
 40
0.000000
 41
0.000000
 66
  1
  0
VERTEX
  8
gg1
 10
0.142500
 20
0.860000
  0
VERTEX
  8
gg1
 10
0.157500
 20
0.860000
  0
SEQEND
  8
gg1
  0
POLYLINE
  8
gg1
 62
1
 40
0.000000
 41
0.000000
 66
  1
  0
VERTEX
  8
gg1
 10
0.150000
 20
0.852500
  0
VERTEX
  8
gg1
 10
0.150000
 20
0.867500
  0
SEQEND
  8
gg1
  0
POLYLINE
  8
gg1
 62
1
 40
0.000000
 41
0.000000
 66
  1
  0
VERTEX
  8
gg1
 10
0.356500
 20
1.045000
  0
VERTEX
  8
gg1
 10
0.371500
 20
1.045000
  0
SEQEND
  8
gg1
  0
POLYLINE
  8
gg1
 62
1
 40
0.000000
 41
0.000000
 66
  1
  0
VERTEX
  8
gg1
 10
0.364000
 20
1.037500
  0
VERTEX
  8
gg1
 10
0.364000
 20
1.052500
  0
SEQEND
  8
gg1
  0
POLYLINE
  8
gg1
 62
1
 40
0.000000
 41
0.000000
 66
  1
  0
VERTEX
  8
gg1
 10
0.207500
 20
0.780000
  0
VERTEX
  8
gg1
 10
0.222500
 20
0.780000
  0
SEQEND
  8
gg1
  0
POLYLINE
  8
gg1
 62
1
 40
0.000000
 41
0.000000
 66
  1
  0
VERTEX
  8
gg1
 10
0.215000
 20
0.772500
  0
VERTEX
  8
gg1
 10
0.215000
 20
0.787500
  0
SEQEND
  8
gg1
  0
POLYLINE
  8
gg1
 62
1
 40
0.000000
 41
0.000000
 66
  1
  0
VERTEX
  8
gg1
 10
0.582500
 20
0.815000
  0
VERTEX
  8
gg1
 10
0.597500
 20
0.815000
  0
SEQEND
  8
gg1
  0
POLYLINE
  8
gg1
 62
1
 40
0.000000
 41
0.000000
 66
  1
  0
VERTEX
  8
gg1
 10
0.590000
 20
0.807500
  0
VERTEX
  8
gg1
 10
0.590000
 20
0.822500
  0
SEQEND
  8
gg1
  0
POLYLINE
  8
gg1
 62
1
 40
0.000000
 41
0.000000
 66
  1
  0
VERTEX
  8
gg1
 10
0.583500
 20
0.880000
  0
VERTEX
  8
gg1
 10
0.598500
 20
0.880000
  0
SEQEND
  8
gg1
  0
POLYLINE
  8
gg1
 62
1
 40
0.000000
 41
0.000000
 66
  1
  0
VERTEX
  8
gg1
 10
0.591000
 20
0.872500
  0
VERTEX
  8
gg1
 10
0.591000
 20
0.887500
  0
SEQEND
  8
gg1
  0
POLYLINE
  8
gg1
 62
1
 40
0.000000
 41
0.000000
 66
  1
  0
VERTEX
  8
gg1
 10
0.531500
 20
0.665000
  0
VERTEX
  8
gg1
 10
0.546500
 20
0.665000
  0
SEQEND
  8
gg1
  0
POLYLINE
  8
gg1
 62
1
 40
0.000000
 41
0.000000
 66
  1
  0
VERTEX
  8
gg1
 10
0.539000
 20
0.657500
  0
VERTEX
  8
gg1
 10
0.539000
 20
0.672500
  0
SEQEND
  8
gg1
  0
POLYLINE
  8
gg1
 62
1
 40
0.000000
 41
0.000000
 66
  1
  0
VERTEX
  8
gg1
 10
0.583500
 20
0.920000
  0
VERTEX
  8
gg1
 10
0.598500
 20
0.920000
  0
SEQEND
  8
gg1
  0
POLYLINE
  8
gg1
 62
1
 40
0.000000
 41
0.000000
 66
  1
  0
VERTEX
  8
gg1
 10
0.591000
 20
0.912500
  0
VERTEX
  8
gg1
 10
0.591000
 20
0.927500
  0
SEQEND
  8
gg1
  0
POLYLINE
  8
gg1
 62
1
 40
0.000000
 41
0.000000
 66
  1
  0
VERTEX
  8
gg1
 10
0.471300
 20
0.787000
  0
VERTEX
  8
gg1
 10
0.486300
 20
0.787000
  0
SEQEND
  8
gg1
  0
POLYLINE
  8
gg1
 62
1
 40
0.000000
 41
0.000000
 66
  1
  0
VERTEX
  8
gg1
 10
0.478800
 20
0.779500
  0
VERTEX
  8
gg1
 10
0.478800
 20
0.794500
  0
SEQEND
  8
gg1
  0
POLYLINE
  8
gg1
 62
1
 40
0.000000
 41
0.000000
 66
  1
  0
VERTEX
  8
gg1
 10
0.214500
 20
1.155000
  0
VERTEX
  8
gg1
 10
0.229500
 20
1.155000
  0
SEQEND
  8
gg1
  0
POLYLINE
  8
gg1
 62
1
 40
0.000000
 41
0.000000
 66
  1
  0
VERTEX
  8
gg1
 10
0.222000
 20
1.147500
  0
VERTEX
  8
gg1
 10
0.222000
 20
1.162500
  0
SEQEND
  8
gg1
  0
POLYLINE
  8
gg1
 62
1
 40
0.000000
 41
0.000000
 66
  1
  0
VERTEX
  8
gg1
 10
0.152500
 20
1.155000
  0
VERTEX
  8
gg1
 10
0.167500
 20
1.155000
  0
SEQEND
  8
gg1
  0
POLYLINE
  8
gg1
 62
1
 40
0.000000
 41
0.000000
 66
  1
  0
VERTEX
  8
gg1
 10
0.160000
 20
1.147500
  0
VERTEX
  8
gg1
 10
0.160000
 20
1.162500
  0
SEQEND
  8
gg1
  0
POLYLINE
  8
gg1
 62
1
 40
0.000000
 41
0.000000
 66
  1
  0
VERTEX
  8
gg1
 10
0.142500
 20
0.899000
  0
VERTEX
  8
gg1
 10
0.157500
 20
0.899000
  0
SEQEND
  8
gg1
  0
POLYLINE
  8
gg1
 62
1
 40
0.000000
 41
0.000000
 66
  1
  0
VERTEX
  8
gg1
 10
0.150000
 20
0.891500
  0
VERTEX
  8
gg1
 10
0.150000
 20
0.906500
  0
SEQEND
  8
gg1
  0
POLYLINE
  8
gg1
 62
1
 40
0.000000
 41
0.000000
 66
  1
  0
VERTEX
  8
gg1
 10
0.162500
 20
0.545000
  0
VERTEX
  8
gg1
 10
0.177500
 20
0.545000
  0
SEQEND
  8
gg1
  0
POLYLINE
  8
gg1
 62
1
 40
0.000000
 41
0.000000
 66
  1
  0
VERTEX
  8
gg1
 10
0.170000
 20
0.537500
  0
VERTEX
  8
gg1
 10
0.170000
 20
0.552500
  0
SEQEND
  8
gg1
  0
POLYLINE
  8
gg1
 62
1
 40
0.000000
 41
0.000000
 66
  1
  0
VERTEX
  8
gg1
 10
0.482500
 20
0.431000
  0
VERTEX
  8
gg1
 10
0.497500
 20
0.431000
  0
SEQEND
  8
gg1
  0
POLYLINE
  8
gg1
 62
1
 40
0.000000
 41
0.000000
 66
  1
  0
VERTEX
  8
gg1
 10
0.490000
 20
0.423500
  0
VERTEX
  8
gg1
 10
0.490000
 20
0.438500
  0
SEQEND
  8
gg1
  0
POLYLINE
  8
gg1
 62
1
 40
0.000000
 41
0.000000
 66
  1
  0
VERTEX
  8
gg1
 10
0.102500
 20
1.650000
  0
VERTEX
  8
gg1
 10
0.117500
 20
1.650000
  0
SEQEND
  8
gg1
  0
POLYLINE
  8
gg1
 62
1
 40
0.000000
 41
0.000000
 66
  1
  0
VERTEX
  8
gg1
 10
0.110000
 20
1.642500
  0
VERTEX
  8
gg1
 10
0.110000
 20
1.657500
  0
SEQEND
  8
gg1
  0
POLYLINE
  8
gg1
 62
1
 40
0.000000
 41
0.000000
 66
  1
  0
VERTEX
  8
gg1
 10
0.167500
 20
1.530000
  0
VERTEX
  8
gg1
 10
0.182500
 20
1.530000
  0
SEQEND
  8
gg1
  0
POLYLINE
  8
gg1
 62
1
 40
0.000000
 41
0.000000
 66
  1
  0
VERTEX
  8
gg1
 10
0.175000
 20
1.522500
  0
VERTEX
  8
gg1
 10
0.175000
 20
1.537500
  0
SEQEND
  8
gg1
  0
POLYLINE
  8
gg1
 62
1
 40
0.000000
 41
0.000000
 66
  1
  0
VERTEX
  8
gg1
 10
0.182500
 20
1.555000
  0
VERTEX
  8
gg1
 10
0.197500
 20
1.555000
  0
SEQEND
  8
gg1
  0
POLYLINE
  8
gg1
 62
1
 40
0.000000
 41
0.000000
 66
  1
  0
VERTEX
  8
gg1
 10
0.190000
 20
1.547500
  0
VERTEX
  8
gg1
 10
0.190000
 20
1.562500
  0
SEQEND
  8
gg1
  0
POLYLINE
  8
gg1
 62
1
 40
0.000000
 41
0.000000
 66
  1
  0
VERTEX
  8
gg1
 10
0.427500
 20
1.680000
  0
VERTEX
  8
gg1
 10
0.442500
 20
1.680000
  0
SEQEND
  8
gg1
  0
POLYLINE
  8
gg1
 62
1
 40
0.000000
 41
0.000000
 66
  1
  0
VERTEX
  8
gg1
 10
0.435000
 20
1.672500
  0
VERTEX
  8
gg1
 10
0.435000
 20
1.687500
  0
SEQEND
  8
gg1
  0
POLYLINE
  8
gg1
 62
1
 40
0.000000
 41
0.000000
 66
  1
  0
VERTEX
  8
gg1
 10
0.398500
 20
1.690000
  0
VERTEX
  8
gg1
 10
0.413500
 20
1.690000
  0
SEQEND
  8
gg1
  0
POLYLINE
  8
gg1
 62
1
 40
0.000000
 41
0.000000
 66
  1
  0
VERTEX
  8
gg1
 10
0.406000
 20
1.682500
  0
VERTEX
  8
gg1
 10
0.406000
 20
1.697500
  0
SEQEND
  8
gg1
  0
POLYLINE
  8
gg1
 62
1
 40
0.000000
 41
0.000000
 66
  1
  0
VERTEX
  8
gg1
 10
0.152500
 20
1.555000
  0
VERTEX
  8
gg1
 10
0.167500
 20
1.555000
  0
SEQEND
  8
gg1
  0
POLYLINE
  8
gg1
 62
1
 40
0.000000
 41
0.000000
 66
  1
  0
VERTEX
  8
gg1
 10
0.160000
 20
1.547500
  0
VERTEX
  8
gg1
 10
0.160000
 20
1.562500
  0
SEQEND
  8
gg1
  0
POLYLINE
  8
gg1
 62
1
 40
0.000000
 41
0.000000
 66
  1
  0
VERTEX
  8
gg1
 10
0.552500
 20
0.480000
  0
VERTEX
  8
gg1
 10
0.567500
 20
0.480000
  0
SEQEND
  8
gg1
  0
POLYLINE
  8
gg1
 62
1
 40
0.000000
 41
0.000000
 66
  1
  0
VERTEX
  8
gg1
 10
0.560000
 20
0.472500
  0
VERTEX
  8
gg1
 10
0.560000
 20
0.487500
  0
SEQEND
  8
gg1
  0
POLYLINE
  8
gg1
 62
1
 40
0.000000
 41
0.000000
 66
  1
  0
VERTEX
  8
gg1
 10
0.137500
 20
0.170000
  0
VERTEX
  8
gg1
 10
0.152500
 20
0.170000
  0
SEQEND
  8
gg1
  0
POLYLINE
  8
gg1
 62
1
 40
0.000000
 41
0.000000
 66
  1
  0
VERTEX
  8
gg1
 10
0.145000
 20
0.162500
  0
VERTEX
  8
gg1
 10
0.145000
 20
0.177500
  0
SEQEND
  8
gg1
  0
POLYLINE
  8
gg1
 62
1
 40
0.000000
 41
0.000000
 66
  1
  0
VERTEX
  8
gg1
 10
0.102500
 20
0.627600
  0
VERTEX
  8
gg1
 10
0.117500
 20
0.627600
  0
SEQEND
  8
gg1
  0
POLYLINE
  8
gg1
 62
1
 40
0.000000
 41
0.000000
 66
  1
  0
VERTEX
  8
gg1
 10
0.110000
 20
0.620100
  0
VERTEX
  8
gg1
 10
0.110000
 20
0.635100
  0
SEQEND
  8
gg1
  0
POLYLINE
  8
gg1
 62
1
 40
0.000000
 41
0.000000
 66
  1
  0
VERTEX
  8
gg1
 10
0.437500
 20
0.424000
  0
VERTEX
  8
gg1
 10
0.452500
 20
0.424000
  0
SEQEND
  8
gg1
  0
POLYLINE
  8
gg1
 62
1
 40
0.000000
 41
0.000000
 66
  1
  0
VERTEX
  8
gg1
 10
0.445000
 20
0.416500
  0
VERTEX
  8
gg1
 10
0.445000
 20
0.431500
  0
SEQEND
  8
gg1
  0
POLYLINE
  8
gg1
 62
1
 40
0.000000
 41
0.000000
 66
  1
  0
VERTEX
  8
gg1
 10
0.217500
 20
0.520200
  0
VERTEX
  8
gg1
 10
0.232500
 20
0.520200
  0
SEQEND
  8
gg1
  0
POLYLINE
  8
gg1
 62
1
 40
0.000000
 41
0.000000
 66
  1
  0
VERTEX
  8
gg1
 10
0.225000
 20
0.512700
  0
VERTEX
  8
gg1
 10
0.225000
 20
0.527700
  0
SEQEND
  8
gg1
  0
POLYLINE
  8
gg1
 62
1
 40
0.000000
 41
0.000000
 66
  1
  0
VERTEX
  8
gg1
 10
0.167500
 20
0.395000
  0
VERTEX
  8
gg1
 10
0.182500
 20
0.395000
  0
SEQEND
  8
gg1
  0
POLYLINE
  8
gg1
 62
1
 40
0.000000
 41
0.000000
 66
  1
  0
VERTEX
  8
gg1
 10
0.175000
 20
0.387500
  0
VERTEX
  8
gg1
 10
0.175000
 20
0.402500
  0
SEQEND
  8
gg1
  0
POLYLINE
  8
gg1
 62
1
 40
0.000000
 41
0.000000
 66
  1
  0
VERTEX
  8
gg1
 10
0.508500
 20
0.261000
  0
VERTEX
  8
gg1
 10
0.523500
 20
0.261000
  0
SEQEND
  8
gg1
  0
POLYLINE
  8
gg1
 62
1
 40
0.000000
 41
0.000000
 66
  1
  0
VERTEX
  8
gg1
 10
0.516000
 20
0.253500
  0
VERTEX
  8
gg1
 10
0.516000
 20
0.268500
  0
SEQEND
  8
gg1
  0
POLYLINE
  8
gg1
 62
1
 40
0.000000
 41
0.000000
 66
  1
  0
VERTEX
  8
gg1
 10
0.356500
 20
0.433000
  0
VERTEX
  8
gg1
 10
0.371500
 20
0.433000
  0
SEQEND
  8
gg1
  0
POLYLINE
  8
gg1
 62
1
 40
0.000000
 41
0.000000
 66
  1
  0
VERTEX
  8
gg1
 10
0.364000
 20
0.425500
  0
VERTEX
  8
gg1
 10
0.364000
 20
0.440500
  0
SEQEND
  8
gg1
  0
POLYLINE
  8
gg1
 62
1
 40
0.000000
 41
0.000000
 66
  1
  0
VERTEX
  8
gg1
 10
0.440000
 20
0.825500
  0
VERTEX
  8
gg1
 10
0.455000
 20
0.825500
  0
SEQEND
  8
gg1
  0
POLYLINE
  8
gg1
 62
1
 40
0.000000
 41
0.000000
 66
  1
  0
VERTEX
  8
gg1
 10
0.447500
 20
0.818000
  0
VERTEX
  8
gg1
 10
0.447500
 20
0.833000
  0
SEQEND
  8
gg1
  0
POLYLINE
  8
gg1
 62
1
 40
0.000000
 41
0.000000
 66
  1
  0
VERTEX
  8
gg1
 10
0.222500
 20
0.899000
  0
VERTEX
  8
gg1
 10
0.237500
 20
0.899000
  0
SEQEND
  8
gg1
  0
POLYLINE
  8
gg1
 62
1
 40
0.000000
 41
0.000000
 66
  1
  0
VERTEX
  8
gg1
 10
0.230000
 20
0.891500
  0
VERTEX
  8
gg1
 10
0.230000
 20
0.906500
  0
SEQEND
  8
gg1
  0
POLYLINE
  8
gg1
 62
1
 40
0.000000
 41
0.000000
 66
  1
  0
VERTEX
  8
gg1
 10
0.200500
 20
0.819000
  0
VERTEX
  8
gg1
 10
0.215500
 20
0.819000
  0
SEQEND
  8
gg1
  0
POLYLINE
  8
gg1
 62
1
 40
0.000000
 41
0.000000
 66
  1
  0
VERTEX
  8
gg1
 10
0.208000
 20
0.811500
  0
VERTEX
  8
gg1
 10
0.208000
 20
0.826500
  0
SEQEND
  8
gg1
  0
POLYLINE
  8
gg1
 62
1
 40
0.000000
 41
0.000000
 66
  1
  0
VERTEX
  8
gg1
 10
0.275600
 20
0.290000
  0
VERTEX
  8
gg1
 10
0.290600
 20
0.290000
  0
SEQEND
  8
gg1
  0
POLYLINE
  8
gg1
 62
1
 40
0.000000
 41
0.000000
 66
  1
  0
VERTEX
  8
gg1
 10
0.283100
 20
0.282500
  0
VERTEX
  8
gg1
 10
0.283100
 20
0.297500
  0
SEQEND
  8
gg1
  0
POLYLINE
  8
gg1
 62
1
 40
0.000000
 41
0.000000
 66
  1
  0
VERTEX
  8
gg1
 10
0.532500
 20
0.292000
  0
VERTEX
  8
gg1
 10
0.547500
 20
0.292000
  0
SEQEND
  8
gg1
  0
POLYLINE
  8
gg1
 62
1
 40
0.000000
 41
0.000000
 66
  1
  0
VERTEX
  8
gg1
 10
0.540000
 20
0.284500
  0
VERTEX
  8
gg1
 10
0.540000
 20
0.299500
  0
SEQEND
  8
gg1
  0
POLYLINE
  8
gg1
 62
1
 40
0.000000
 41
0.000000
 66
  1
  0
VERTEX
  8
gg1
 10
0.470500
 20
0.505000
  0
VERTEX
  8
gg1
 10
0.485500
 20
0.505000
  0
SEQEND
  8
gg1
  0
POLYLINE
  8
gg1
 62
1
 40
0.000000
 41
0.000000
 66
  1
  0
VERTEX
  8
gg1
 10
0.478000
 20
0.497500
  0
VERTEX
  8
gg1
 10
0.478000
 20
0.512500
  0
SEQEND
  8
gg1
  0
POLYLINE
  8
gg1
 62
1
 40
0.000000
 41
0.000000
 66
  1
  0
VERTEX
  8
gg1
 10
0.462500
 20
1.430000
  0
VERTEX
  8
gg1
 10
0.477500
 20
1.430000
  0
SEQEND
  8
gg1
  0
POLYLINE
  8
gg1
 62
1
 40
0.000000
 41
0.000000
 66
  1
  0
VERTEX
  8
gg1
 10
0.470000
 20
1.422500
  0
VERTEX
  8
gg1
 10
0.470000
 20
1.437500
  0
SEQEND
  8
gg1
  0
POLYLINE
  8
gg1
 62
1
 40
0.000000
 41
0.000000
 66
  1
  0
VERTEX
  8
gg1
 10
0.492500
 20
1.430000
  0
VERTEX
  8
gg1
 10
0.507500
 20
1.430000
  0
SEQEND
  8
gg1
  0
POLYLINE
  8
gg1
 62
1
 40
0.000000
 41
0.000000
 66
  1
  0
VERTEX
  8
gg1
 10
0.500000
 20
1.422500
  0
VERTEX
  8
gg1
 10
0.500000
 20
1.437500
  0
SEQEND
  8
gg1
  0
POLYLINE
  8
gg1
 62
1
 40
0.000000
 41
0.000000
 66
  1
  0
VERTEX
  8
gg1
 10
0.462500
 20
1.370000
  0
VERTEX
  8
gg1
 10
0.477500
 20
1.370000
  0
SEQEND
  8
gg1
  0
POLYLINE
  8
gg1
 62
1
 40
0.000000
 41
0.000000
 66
  1
  0
VERTEX
  8
gg1
 10
0.470000
 20
1.362500
  0
VERTEX
  8
gg1
 10
0.470000
 20
1.377500
  0
SEQEND
  8
gg1
  0
POLYLINE
  8
gg1
 62
1
 40
0.000000
 41
0.000000
 66
  1
  0
VERTEX
  8
gg1
 10
0.492500
 20
1.370000
  0
VERTEX
  8
gg1
 10
0.507500
 20
1.370000
  0
SEQEND
  8
gg1
  0
POLYLINE
  8
gg1
 62
1
 40
0.000000
 41
0.000000
 66
  1
  0
VERTEX
  8
gg1
 10
0.500000
 20
1.362500
  0
VERTEX
  8
gg1
 10
0.500000
 20
1.377500
  0
SEQEND
  8
gg1
  0
POLYLINE
  8
gg1
 62
1
 40
0.000000
 41
0.000000
 66
  1
  0
VERTEX
  8
gg1
 10
0.247500
 20
1.330000
  0
VERTEX
  8
gg1
 10
0.262500
 20
1.330000
  0
SEQEND
  8
gg1
  0
POLYLINE
  8
gg1
 62
1
 40
0.000000
 41
0.000000
 66
  1
  0
VERTEX
  8
gg1
 10
0.255000
 20
1.322500
  0
VERTEX
  8
gg1
 10
0.255000
 20
1.337500
  0
SEQEND
  8
gg1
  0
POLYLINE
  8
gg1
 62
1
 40
0.000000
 41
0.000000
 66
  1
  0
VERTEX
  8
gg1
 10
0.227500
 20
1.270000
  0
VERTEX
  8
gg1
 10
0.242500
 20
1.270000
  0
SEQEND
  8
gg1
  0
POLYLINE
  8
gg1
 62
1
 40
0.000000
 41
0.000000
 66
  1
  0
VERTEX
  8
gg1
 10
0.235000
 20
1.262500
  0
VERTEX
  8
gg1
 10
0.235000
 20
1.277500
  0
SEQEND
  8
gg1
  0
POLYLINE
  8
gg1
 62
1
 40
0.000000
 41
0.000000
 66
  1
  0
VERTEX
  8
gg1
 10
0.212500
 20
1.295000
  0
VERTEX
  8
gg1
 10
0.227500
 20
1.295000
  0
SEQEND
  8
gg1
  0
POLYLINE
  8
gg1
 62
1
 40
0.000000
 41
0.000000
 66
  1
  0
VERTEX
  8
gg1
 10
0.220000
 20
1.287500
  0
VERTEX
  8
gg1
 10
0.220000
 20
1.302500
  0
SEQEND
  8
gg1
  0
POLYLINE
  8
gg1
 62
1
 40
0.000000
 41
0.000000
 66
  1
  0
VERTEX
  8
gg1
 10
0.358500
 20
1.400000
  0
VERTEX
  8
gg1
 10
0.373500
 20
1.400000
  0
SEQEND
  8
gg1
  0
POLYLINE
  8
gg1
 62
1
 40
0.000000
 41
0.000000
 66
  1
  0
VERTEX
  8
gg1
 10
0.366000
 20
1.392500
  0
VERTEX
  8
gg1
 10
0.366000
 20
1.407500
  0
SEQEND
  8
gg1
  0
POLYLINE
  8
gg1
 62
1
 40
0.000000
 41
0.000000
 66
  1
  0
VERTEX
  8
gg1
 10
0.358500
 20
1.480000
  0
VERTEX
  8
gg1
 10
0.373500
 20
1.480000
  0
SEQEND
  8
gg1
  0
POLYLINE
  8
gg1
 62
1
 40
0.000000
 41
0.000000
 66
  1
  0
VERTEX
  8
gg1
 10
0.366000
 20
1.472500
  0
VERTEX
  8
gg1
 10
0.366000
 20
1.487500
  0
SEQEND
  8
gg1
  0
POLYLINE
  8
gg1
 62
1
 40
0.000000
 41
0.000000
 66
  1
  0
VERTEX
  8
gg1
 10
0.216500
 20
1.400000
  0
VERTEX
  8
gg1
 10
0.231500
 20
1.400000
  0
SEQEND
  8
gg1
  0
POLYLINE
  8
gg1
 62
1
 40
0.000000
 41
0.000000
 66
  1
  0
VERTEX
  8
gg1
 10
0.224000
 20
1.392500
  0
VERTEX
  8
gg1
 10
0.224000
 20
1.407500
  0
SEQEND
  8
gg1
  0
POLYLINE
  8
gg1
 62
1
 40
0.000000
 41
0.000000
 66
  1
  0
VERTEX
  8
gg1
 10
0.257500
 20
1.270000
  0
VERTEX
  8
gg1
 10
0.272500
 20
1.270000
  0
SEQEND
  8
gg1
  0
POLYLINE
  8
gg1
 62
1
 40
0.000000
 41
0.000000
 66
  1
  0
VERTEX
  8
gg1
 10
0.265000
 20
1.262500
  0
VERTEX
  8
gg1
 10
0.265000
 20
1.277500
  0
SEQEND
  8
gg1
  0
POLYLINE
  8
gg1
 62
1
 40
0.000000
 41
0.000000
 66
  1
  0
VERTEX
  8
gg1
 10
0.247500
 20
1.300000
  0
VERTEX
  8
gg1
 10
0.262500
 20
1.300000
  0
SEQEND
  8
gg1
  0
POLYLINE
  8
gg1
 62
1
 40
0.000000
 41
0.000000
 66
  1
  0
VERTEX
  8
gg1
 10
0.255000
 20
1.292500
  0
VERTEX
  8
gg1
 10
0.255000
 20
1.307500
  0
SEQEND
  8
gg1
  0
POLYLINE
  8
gg1
 62
1
 40
0.000000
 41
0.000000
 66
  1
  0
VERTEX
  8
gg1
 10
0.355500
 20
1.539000
  0
VERTEX
  8
gg1
 10
0.370500
 20
1.539000
  0
SEQEND
  8
gg1
  0
POLYLINE
  8
gg1
 62
1
 40
0.000000
 41
0.000000
 66
  1
  0
VERTEX
  8
gg1
 10
0.363000
 20
1.531500
  0
VERTEX
  8
gg1
 10
0.363000
 20
1.546500
  0
SEQEND
  8
gg1
  0
POLYLINE
  8
gg1
 62
1
 40
0.000000
 41
0.000000
 66
  1
  0
VERTEX
  8
gg1
 10
0.532500
 20
1.430000
  0
VERTEX
  8
gg1
 10
0.547500
 20
1.430000
  0
SEQEND
  8
gg1
  0
POLYLINE
  8
gg1
 62
1
 40
0.000000
 41
0.000000
 66
  1
  0
VERTEX
  8
gg1
 10
0.540000
 20
1.422500
  0
VERTEX
  8
gg1
 10
0.540000
 20
1.437500
  0
SEQEND
  8
gg1
  0
POLYLINE
  8
gg1
 62
1
 40
0.000000
 41
0.000000
 66
  1
  0
VERTEX
  8
gg1
 10
0.512500
 20
1.330000
  0
VERTEX
  8
gg1
 10
0.527500
 20
1.330000
  0
SEQEND
  8
gg1
  0
POLYLINE
  8
gg1
 62
1
 40
0.000000
 41
0.000000
 66
  1
  0
VERTEX
  8
gg1
 10
0.520000
 20
1.322500
  0
VERTEX
  8
gg1
 10
0.520000
 20
1.337500
  0
SEQEND
  8
gg1
  0
POLYLINE
  8
gg1
 62
1
 40
0.000000
 41
0.000000
 66
  1
  0
VERTEX
  8
gg1
 10
0.532500
 20
1.380000
  0
VERTEX
  8
gg1
 10
0.547500
 20
1.380000
  0
SEQEND
  8
gg1
  0
POLYLINE
  8
gg1
 62
1
 40
0.000000
 41
0.000000
 66
  1
  0
VERTEX
  8
gg1
 10
0.540000
 20
1.372500
  0
VERTEX
  8
gg1
 10
0.540000
 20
1.387500
  0
SEQEND
  8
gg1
  0
POLYLINE
  8
gg1
 62
1
 40
0.000000
 41
0.000000
 66
  1
  0
VERTEX
  8
gg1
 10
0.462500
 20
1.330000
  0
VERTEX
  8
gg1
 10
0.477500
 20
1.330000
  0
SEQEND
  8
gg1
  0
POLYLINE
  8
gg1
 62
1
 40
0.000000
 41
0.000000
 66
  1
  0
VERTEX
  8
gg1
 10
0.470000
 20
1.322500
  0
VERTEX
  8
gg1
 10
0.470000
 20
1.337500
  0
SEQEND
  8
gg1
  0
POLYLINE
  8
gg1
 62
1
 40
0.000000
 41
0.000000
 66
  1
  0
VERTEX
  8
gg1
 10
0.287500
 20
1.440000
  0
VERTEX
  8
gg1
 10
0.302500
 20
1.440000
  0
SEQEND
  8
gg1
  0
POLYLINE
  8
gg1
 62
1
 40
0.000000
 41
0.000000
 66
  1
  0
VERTEX
  8
gg1
 10
0.295000
 20
1.432500
  0
VERTEX
  8
gg1
 10
0.295000
 20
1.447500
  0
SEQEND
  8
gg1
  0
POLYLINE
  8
gg1
 62
1
 40
0.000000
 41
0.000000
 66
  1
  0
VERTEX
  8
gg1
 10
0.258000
 20
1.457700
  0
VERTEX
  8
gg1
 10
0.273000
 20
1.457700
  0
SEQEND
  8
gg1
  0
POLYLINE
  8
gg1
 62
1
 40
0.000000
 41
0.000000
 66
  1
  0
VERTEX
  8
gg1
 10
0.265500
 20
1.450200
  0
VERTEX
  8
gg1
 10
0.265500
 20
1.465200
  0
SEQEND
  8
gg1
  0
POLYLINE
  8
gg1
 62
1
 40
0.000000
 41
0.000000
 66
  1
  0
VERTEX
  8
gg1
 10
0.258000
 20
1.422300
  0
VERTEX
  8
gg1
 10
0.273000
 20
1.422300
  0
SEQEND
  8
gg1
  0
POLYLINE
  8
gg1
 62
1
 40
0.000000
 41
0.000000
 66
  1
  0
VERTEX
  8
gg1
 10
0.265500
 20
1.414800
  0
VERTEX
  8
gg1
 10
0.265500
 20
1.429800
  0
SEQEND
  8
gg1
  0
POLYLINE
  8
gg1
 62
1
 40
0.000000
 41
0.000000
 66
  1
  0
VERTEX
  8
gg1
 10
0.317000
 20
1.422300
  0
VERTEX
  8
gg1
 10
0.332000
 20
1.422300
  0
SEQEND
  8
gg1
  0
POLYLINE
  8
gg1
 62
1
 40
0.000000
 41
0.000000
 66
  1
  0
VERTEX
  8
gg1
 10
0.324500
 20
1.414800
  0
VERTEX
  8
gg1
 10
0.324500
 20
1.429800
  0
SEQEND
  8
gg1
  0
POLYLINE
  8
gg1
 62
1
 40
0.000000
 41
0.000000
 66
  1
  0
VERTEX
  8
gg1
 10
0.317000
 20
1.457700
  0
VERTEX
  8
gg1
 10
0.332000
 20
1.457700
  0
SEQEND
  8
gg1
  0
POLYLINE
  8
gg1
 62
1
 40
0.000000
 41
0.000000
 66
  1
  0
VERTEX
  8
gg1
 10
0.324500
 20
1.450200
  0
VERTEX
  8
gg1
 10
0.324500
 20
1.465200
  0
SEQEND
  8
gg1
  0
POLYLINE
  8
gg1
 62
1
 40
0.000000
 41
0.000000
 66
  1
  0
VERTEX
  8
gg1
 10
0.427500
 20
1.125000
  0
VERTEX
  8
gg1
 10
0.442500
 20
1.125000
  0
SEQEND
  8
gg1
  0
POLYLINE
  8
gg1
 62
1
 40
0.000000
 41
0.000000
 66
  1
  0
VERTEX
  8
gg1
 10
0.435000
 20
1.117500
  0
VERTEX
  8
gg1
 10
0.435000
 20
1.132500
  0
SEQEND
  8
gg1
  0
POLYLINE
  8
gg1
 62
1
 40
0.000000
 41
0.000000
 66
  1
  0
VERTEX
  8
gg1
 10
0.459000
 20
1.140700
  0
VERTEX
  8
gg1
 10
0.474000
 20
1.140700
  0
SEQEND
  8
gg1
  0
POLYLINE
  8
gg1
 62
1
 40
0.000000
 41
0.000000
 66
  1
  0
VERTEX
  8
gg1
 10
0.466500
 20
1.133200
  0
VERTEX
  8
gg1
 10
0.466500
 20
1.148200
  0
SEQEND
  8
gg1
  0
POLYLINE
  8
gg1
 62
1
 40
0.000000
 41
0.000000
 66
  1
  0
VERTEX
  8
gg1
 10
0.396000
 20
1.140700
  0
VERTEX
  8
gg1
 10
0.411000
 20
1.140700
  0
SEQEND
  8
gg1
  0
POLYLINE
  8
gg1
 62
1
 40
0.000000
 41
0.000000
 66
  1
  0
VERTEX
  8
gg1
 10
0.403500
 20
1.133200
  0
VERTEX
  8
gg1
 10
0.403500
 20
1.148200
  0
SEQEND
  8
gg1
  0
POLYLINE
  8
gg1
 62
1
 40
0.000000
 41
0.000000
 66
  1
  0
VERTEX
  8
gg1
 10
0.396000
 20
1.109300
  0
VERTEX
  8
gg1
 10
0.411000
 20
1.109300
  0
SEQEND
  8
gg1
  0
POLYLINE
  8
gg1
 62
1
 40
0.000000
 41
0.000000
 66
  1
  0
VERTEX
  8
gg1
 10
0.403500
 20
1.101800
  0
VERTEX
  8
gg1
 10
0.403500
 20
1.116800
  0
SEQEND
  8
gg1
  0
POLYLINE
  8
gg1
 62
1
 40
0.000000
 41
0.000000
 66
  1
  0
VERTEX
  8
gg1
 10
0.459000
 20
1.109300
  0
VERTEX
  8
gg1
 10
0.474000
 20
1.109300
  0
SEQEND
  8
gg1
  0
POLYLINE
  8
gg1
 62
1
 40
0.000000
 41
0.000000
 66
  1
  0
VERTEX
  8
gg1
 10
0.466500
 20
1.101800
  0
VERTEX
  8
gg1
 10
0.466500
 20
1.116800
  0
SEQEND
  8
gg1
  0
POLYLINE
  8
gg1
 62
1
 40
0.000000
 41
0.000000
 66
  1
  0
VERTEX
  8
gg1
 10
0.179000
 20
-0.126000
  0
VERTEX
  8
gg1
 10
0.219000
 20
-0.126000
  0
VERTEX
  8
gg1
 10
0.219000
 20
-0.136000
  0
VERTEX
  8
gg1
 10
0.179000
 20
-0.176000
  0
VERTEX
  8
gg1
 10
0.179000
 20
-0.186000
  0
SEQEND
  8
gg1
  0
POLYLINE
  8
gg1
 62
1
 40
0.000000
 41
0.000000
 66
  1
  0
VERTEX
  8
gg1
 10
0.239000
 20
-0.136000
  0
VERTEX
  8
gg1
 10
0.249000
 20
-0.126000
  0
VERTEX
  8
gg1
 10
0.269000
 20
-0.126000
  0
VERTEX
  8
gg1
 10
0.279000
 20
-0.136000
  0
VERTEX
  8
gg1
 10
0.279000
 20
-0.176000
  0
VERTEX
  8
gg1
 10
0.269000
 20
-0.186000
  0
VERTEX
  8
gg1
 10
0.249000
 20
-0.186000
  0
VERTEX
  8
gg1
 10
0.239000
 20
-0.176000
  0
VERTEX
  8
gg1
 10
0.239000
 20
-0.136000
  0
SEQEND
  8
gg1
  0
POLYLINE
  8
gg1
 62
1
 40
0.000000
 41
0.000000
 66
  1
  0
VERTEX
  8
gg1
 10
0.299000
 20
-0.136000
  0
VERTEX
  8
gg1
 10
0.309000
 20
-0.126000
  0
VERTEX
  8
gg1
 10
0.329000
 20
-0.126000
  0
VERTEX
  8
gg1
 10
0.339000
 20
-0.136000
  0
VERTEX
  8
gg1
 10
0.339000
 20
-0.176000
  0
VERTEX
  8
gg1
 10
0.329000
 20
-0.186000
  0
VERTEX
  8
gg1
 10
0.309000
 20
-0.186000
  0
VERTEX
  8
gg1
 10
0.299000
 20
-0.176000
  0
VERTEX
  8
gg1
 10
0.299000
 20
-0.136000
  0
SEQEND
  8
gg1
  0
POLYLINE
  8
gg1
 62
1
 40
0.000000
 41
0.000000
 66
  1
  0
VERTEX
  8
gg1
 10
0.359000
 20
-0.186000
  0
VERTEX
  8
gg1
 10
0.359000
 20
-0.146000
  0
VERTEX
  8
gg1
 10
0.369000
 20
-0.146000
  0
VERTEX
  8
gg1
 10
0.379000
 20
-0.156000
  0
VERTEX
  8
gg1
 10
0.379000
 20
-0.186000
  0
VERTEX
  8
gg1
 10
0.379000
 20
-0.156000
  0
VERTEX
  8
gg1
 10
0.389000
 20
-0.146000
  0
VERTEX
  8
gg1
 10
0.399000
 20
-0.156000
  0
VERTEX
  8
gg1
 10
0.399000
 20
-0.186000
  0
SEQEND
  8
gg1
  0
POLYLINE
  8
gg1
 62
1
 40
0.000000
 41
0.000000
 66
  1
  0
VERTEX
  8
gg1
 10
0.419000
 20
-0.186000
  0
VERTEX
  8
gg1
 10
0.439000
 20
-0.186000
  0
VERTEX
  8
gg1
 10
0.429000
 20
-0.186000
  0
VERTEX
  8
gg1
 10
0.429000
 20
-0.146000
  0
VERTEX
  8
gg1
 10
0.419000
 20
-0.146000
  0
SEQEND
  8
gg1
  0
POLYLINE
  8
gg1
 62
1
 40
0.000000
 41
0.000000
 66
  1
  0
VERTEX
  8
gg1
 10
0.469000
 20
-0.186000
  0
VERTEX
  8
gg1
 10
0.489000
 20
-0.186000
  0
VERTEX
  8
gg1
 10
0.479000
 20
-0.186000
  0
VERTEX
  8
gg1
 10
0.479000
 20
-0.126000
  0
VERTEX
  8
gg1
 10
0.469000
 20
-0.126000
  0
SEQEND
  8
gg1
  0
POLYLINE
  8
gg1
 62
1
 40
0.000000
 41
0.000000
 66
  1
  0
VERTEX
  8
gg1
 10
-0.119000
 20
0.754100
  0
VERTEX
  8
gg1
 10
-0.119000
 20
0.774100
  0
VERTEX
  8
gg1
 10
-0.119000
 20
0.764100
  0
VERTEX
  8
gg1
 10
-0.179000
 20
0.764100
  0
VERTEX
  8
gg1
 10
-0.169000
 20
0.754100
  0
SEQEND
  8
gg1
  0
POLYLINE
  8
gg1
 62
1
 40
0.000000
 41
0.000000
 66
  1
  0
VERTEX
  8
gg1
 10
-0.129000
 20
0.804000
  0
VERTEX
  8
gg1
 10
-0.119000
 20
0.814000
  0
VERTEX
  8
gg1
 10
-0.119000
 20
0.834000
  0
VERTEX
  8
gg1
 10
-0.129000
 20
0.844000
  0
VERTEX
  8
gg1
 10
-0.169000
 20
0.844000
  0
VERTEX
  8
gg1
 10
-0.179000
 20
0.834000
  0
VERTEX
  8
gg1
 10
-0.179000
 20
0.814000
  0
VERTEX
  8
gg1
 10
-0.169000
 20
0.804000
  0
VERTEX
  8
gg1
 10
-0.159000
 20
0.804000
  0
VERTEX
  8
gg1
 10
-0.149000
 20
0.814000
  0
VERTEX
  8
gg1
 10
-0.149000
 20
0.844000
  0
SEQEND
  8
gg1
  0
POLYLINE
  8
gg1
 62
1
 40
0.000000
 41
0.000000
 66
  1
  0
VERTEX
  8
gg1
 10
-0.169000
 20
0.864000
  0
VERTEX
  8
gg1
 10
-0.179000
 20
0.874000
  0
VERTEX
  8
gg1
 10
-0.179000
 20
0.894000
  0
VERTEX
  8
gg1
 10
-0.169000
 20
0.904000
  0
VERTEX
  8
gg1
 10
-0.129000
 20
0.904000
  0
VERTEX
  8
gg1
 10
-0.119000
 20
0.894000
  0
VERTEX
  8
gg1
 10
-0.119000
 20
0.874000
  0
VERTEX
  8
gg1
 10
-0.129000
 20
0.864000
  0
VERTEX
  8
gg1
 10
-0.169000
 20
0.864000
  0
SEQEND
  8
gg1
  0
POLYLINE
  8
gg1
 62
1
 40
0.000000
 41
0.000000
 66
  1
  0
VERTEX
  8
gg1
 10
-0.169000
 20
0.924000
  0
VERTEX
  8
gg1
 10
-0.179000
 20
0.934000
  0
VERTEX
  8
gg1
 10
-0.179000
 20
0.954000
  0
VERTEX
  8
gg1
 10
-0.169000
 20
0.964000
  0
VERTEX
  8
gg1
 10
-0.129000
 20
0.964000
  0
VERTEX
  8
gg1
 10
-0.119000
 20
0.954000
  0
VERTEX
  8
gg1
 10
-0.119000
 20
0.934000
  0
VERTEX
  8
gg1
 10
-0.129000
 20
0.924000
  0
VERTEX
  8
gg1
 10
-0.169000
 20
0.924000
  0
SEQEND
  8
gg1
  0
POLYLINE
  8
gg1
 62
1
 40
0.000000
 41
0.000000
 66
  1
  0
VERTEX
  8
gg1
 10
-0.119000
 20
0.984000
  0
VERTEX
  8
gg1
 10
-0.159000
 20
0.984000
  0
VERTEX
  8
gg1
 10
-0.159000
 20
0.994000
  0
VERTEX
  8
gg1
 10
-0.149000
 20
1.004000
  0
VERTEX
  8
gg1
 10
-0.119000
 20
1.004000
  0
VERTEX
  8
gg1
 10
-0.149000
 20
1.004000
  0
VERTEX
  8
gg1
 10
-0.159000
 20
1.014000
  0
VERTEX
  8
gg1
 10
-0.149000
 20
1.024000
  0
VERTEX
  8
gg1
 10
-0.119000
 20
1.024000
  0
SEQEND
  8
gg1
  0
POLYLINE
  8
gg1
 62
1
 40
0.000000
 41
0.000000
 66
  1
  0
VERTEX
  8
gg1
 10
-0.119000
 20
1.044000
  0
VERTEX
  8
gg1
 10
-0.119000
 20
1.064000
  0
VERTEX
  8
gg1
 10
-0.119000
 20
1.054000
  0
VERTEX
  8
gg1
 10
-0.159000
 20
1.054000
  0
VERTEX
  8
gg1
 10
-0.159000
 20
1.044000
  0
SEQEND
  8
gg1
  0
POLYLINE
  8
gg1
 62
1
 40
0.000000
 41
0.000000
 66
  1
  0
VERTEX
  8
gg1
 10
-0.119000
 20
1.093900
  0
VERTEX
  8
gg1
 10
-0.119000
 20
1.113900
  0
VERTEX
  8
gg1
 10
-0.119000
 20
1.103900
  0
VERTEX
  8
gg1
 10
-0.179000
 20
1.103900
  0
VERTEX
  8
gg1
 10
-0.179000
 20
1.093900
  0
SEQEND
  8
gg1
  0
ENDSEC
  0
EOF
