  0
SECTION
  2
HEADER
  9
$EXTMIN
 10
-0.183000
 20
-0.439000
  9
$EXTMAX
 10
1.605000
 20
0.805000
  9
$LIMMIN
 10
-0.183000
 20
-0.439000
  9
$LIMMAX
 10
1.605000
 20
0.805000
  9
$FILLMODE
 70
  1
  0
ENDSEC
  0
SECTION
  2
TABLES
  0
TABLE
  2
LTYPE
 70
  1
  0
LTYPE
  2
CONTINUOUS
 70
 64
  3
Solid line
 72
 65
 73
  0
 40
0.0
  0
ENDTAB
  0
TABLE
  2
LAYER
 70
 1
  0
LAYER
  2
0
 70
  0
 62
7
  6
CONTINUOUS
  0
LAYER
  2
gg1
 70
  0
 62
1
  6
CONTINUOUS
  0
ENDTAB
  0
TABLE
  2
STYLE
 70
  1
  0
STYLE
  2
STANDARD
 70
  0
 40
0.0
 41
1.0
 50
0.0
 71
  0
 42
0.2
  3
txt
  4

  0
ENDTAB
  0
ENDSEC
  0
SECTION
  2
BLOCKS
  0
BLOCK
  8
0
  2
D10
 70
64
 10
0.0
 20
0.0
  3
D10
  0
CIRCLE
  8
0
 10
0.000000
 20
0.000000
 40
0.005000
 0
ENDBLK
  8
0
  0
BLOCK
  8
0
  2
D11
 70
64
 10
0.0
 20
0.0
  3
D11
  0
CIRCLE
  8
0
 10
0.000000
 20
0.000000
 40
0.002500
 0
ENDBLK
  8
0
  0
BLOCK
  8
0
  2
D12
 70
64
 10
0.0
 20
0.0
  3
D12
  0
CIRCLE
  8
0
 10
0.000000
 20
0.000000
 40
0.003000
 0
ENDBLK
  8
0
  0
ENDSEC
  0
SECTION
  2
ENTITIES
  0
POLYLINE
  8
gg1
 62
1
 40
0.000000
 41
0.000000
 66
  1
  0
VERTEX
  8
gg1
 10
-0.166000
 20
0.000000
  0
VERTEX
  8
gg1
 10
-0.010000
 20
0.000000
  0
SEQEND
  8
gg1
  0
POLYLINE
  8
gg1
 62
1
 40
0.000000
 41
0.000000
 66
  1
  0
VERTEX
  8
gg1
 10
-0.166000
 20
0.800000
  0
VERTEX
  8
gg1
 10
-0.010000
 20
0.800000
  0
SEQEND
  8
gg1
  0
POLYLINE
  8
gg1
 62
1
 40
0.000000
 41
0.000000
 66
  1
  0
VERTEX
  8
gg1
 10
-0.156000
 20
0.000000
  0
VERTEX
  8
gg1
 10
-0.156000
 20
0.213000
  0
SEQEND
  8
gg1
  0
POLYLINE
  8
gg1
 62
1
 40
0.000000
 41
0.000000
 66
  1
  0
VERTEX
  8
gg1
 10
-0.156000
 20
0.554900
  0
VERTEX
  8
gg1
 10
-0.156000
 20
0.800000
  0
SEQEND
  8
gg1
  0
POLYLINE
  8
gg1
 62
1
 40
0.000000
 41
0.000000
 66
  1
  0
VERTEX
  8
gg1
 10
-0.156000
 20
0.000000
  0
VERTEX
  8
gg1
 10
-0.136000
 20
0.060000
  0
SEQEND
  8
gg1
  0
POLYLINE
  8
gg1
 62
1
 40
0.000000
 41
0.000000
 66
  1
  0
VERTEX
  8
gg1
 10
-0.176000
 20
0.060000
  0
VERTEX
  8
gg1
 10
-0.156000
 20
0.000000
  0
SEQEND
  8
gg1
  0
POLYLINE
  8
gg1
 62
1
 40
0.000000
 41
0.000000
 66
  1
  0
VERTEX
  8
gg1
 10
-0.176000
 20
0.740000
  0
VERTEX
  8
gg1
 10
-0.156000
 20
0.800000
  0
VERTEX
  8
gg1
 10
-0.136000
 20
0.740000
  0
SEQEND
  8
gg1
  0
POLYLINE
  8
gg1
 62
1
 40
0.000000
 41
0.000000
 66
  1
  0
VERTEX
  8
gg1
 10
1.600000
 20
-0.410000
  0
VERTEX
  8
gg1
 10
1.600000
 20
-0.012500
  0
SEQEND
  8
gg1
  0
POLYLINE
  8
gg1
 62
1
 40
0.000000
 41
0.000000
 66
  1
  0
VERTEX
  8
gg1
 10
0.000000
 20
-0.410000
  0
VERTEX
  8
gg1
 10
0.000000
 20
-0.012500
  0
SEQEND
  8
gg1
  0
POLYLINE
  8
gg1
 62
1
 40
0.000000
 41
0.000000
 66
  1
  0
VERTEX
  8
gg1
 10
0.979900
 20
-0.400000
  0
VERTEX
  8
gg1
 10
1.600000
 20
-0.400000
  0
SEQEND
  8
gg1
  0
POLYLINE
  8
gg1
 62
1
 40
0.000000
 41
0.000000
 66
  1
  0
VERTEX
  8
gg1
 10
0.000000
 20
-0.400000
  0
VERTEX
  8
gg1
 10
0.588100
 20
-0.400000
  0
SEQEND
  8
gg1
  0
POLYLINE
  8
gg1
 62
1
 40
0.000000
 41
0.000000
 66
  1
  0
VERTEX
  8
gg1
 10
1.540000
 20
-0.380000
  0
VERTEX
  8
gg1
 10
1.600000
 20
-0.400000
  0
SEQEND
  8
gg1
  0
POLYLINE
  8
gg1
 62
1
 40
0.000000
 41
0.000000
 66
  1
  0
VERTEX
  8
gg1
 10
1.540000
 20
-0.420000
  0
VERTEX
  8
gg1
 10
1.600000
 20
-0.400000
  0
SEQEND
  8
gg1
  0
POLYLINE
  8
gg1
 62
1
 40
0.000000
 41
0.000000
 66
  1
  0
VERTEX
  8
gg1
 10
0.000000
 20
-0.400000
  0
VERTEX
  8
gg1
 10
0.060000
 20
-0.420000
  0
SEQEND
  8
gg1
  0
POLYLINE
  8
gg1
 62
1
 40
0.000000
 41
0.000000
 66
  1
  0
VERTEX
  8
gg1
 10
0.000000
 20
-0.400000
  0
VERTEX
  8
gg1
 10
0.060000
 20
-0.380000
  0
SEQEND
  8
gg1
  0
POLYLINE
  8
gg1
 62
1
 40
0.000000
 41
0.000000
 66
  1
  0
VERTEX
  8
gg1
 10
0.000000
 20
0.800000
  0
VERTEX
  8
gg1
 10
1.600000
 20
0.800000
  0
SEQEND
  8
gg1
  0
POLYLINE
  8
gg1
 62
1
 40
0.000000
 41
0.000000
 66
  1
  0
VERTEX
  8
gg1
 10
1.600000
 20
0.000000
  0
VERTEX
  8
gg1
 10
1.600000
 20
0.800000
  0
SEQEND
  8
gg1
  0
POLYLINE
  8
gg1
 62
1
 40
0.000000
 41
0.000000
 66
  1
  0
VERTEX
  8
gg1
 10
0.000000
 20
0.000000
  0
VERTEX
  8
gg1
 10
1.600000
 20
0.000000
  0
SEQEND
  8
gg1
  0
POLYLINE
  8
gg1
 62
1
 40
0.000000
 41
0.000000
 66
  1
  0
VERTEX
  8
gg1
 10
0.000000
 20
0.000000
  0
VERTEX
  8
gg1
 10
0.000000
 20
0.800000
  0
SEQEND
  8
gg1
  0
POLYLINE
  8
gg1
 62
1
 40
0.000000
 41
0.000000
 66
  1
  0
VERTEX
  8
gg1
 10
1.115000
 20
0.501100
  0
VERTEX
  8
gg1
 10
1.155000
 20
0.501100
  0
SEQEND
  8
gg1
  0
POLYLINE
  8
gg1
 62
1
 40
0.000000
 41
0.000000
 66
  1
  0
VERTEX
  8
gg1
 10
1.135000
 20
0.481100
  0
VERTEX
  8
gg1
 10
1.135000
 20
0.521100
  0
SEQEND
  8
gg1
  0
POLYLINE
  8
gg1
 62
1
 40
0.000000
 41
0.000000
 66
  1
  0
VERTEX
  8
gg1
 10
1.115000
 20
0.697900
  0
VERTEX
  8
gg1
 10
1.155000
 20
0.697900
  0
SEQEND
  8
gg1
  0
POLYLINE
  8
gg1
 62
1
 40
0.000000
 41
0.000000
 66
  1
  0
VERTEX
  8
gg1
 10
1.135000
 20
0.677900
  0
VERTEX
  8
gg1
 10
1.135000
 20
0.717900
  0
SEQEND
  8
gg1
  0
POLYLINE
  8
gg1
 62
1
 40
0.000000
 41
0.000000
 66
  1
  0
VERTEX
  8
gg1
 10
1.115000
 20
0.560100
  0
VERTEX
  8
gg1
 10
1.155000
 20
0.560100
  0
SEQEND
  8
gg1
  0
POLYLINE
  8
gg1
 62
1
 40
0.000000
 41
0.000000
 66
  1
  0
VERTEX
  8
gg1
 10
1.135000
 20
0.540100
  0
VERTEX
  8
gg1
 10
1.135000
 20
0.580100
  0
SEQEND
  8
gg1
  0
POLYLINE
  8
gg1
 62
1
 40
0.000000
 41
0.000000
 66
  1
  0
VERTEX
  8
gg1
 10
0.780000
 20
0.750000
  0
VERTEX
  8
gg1
 10
0.820000
 20
0.750000
  0
SEQEND
  8
gg1
  0
POLYLINE
  8
gg1
 62
1
 40
0.000000
 41
0.000000
 66
  1
  0
VERTEX
  8
gg1
 10
0.800000
 20
0.730000
  0
VERTEX
  8
gg1
 10
0.800000
 20
0.770000
  0
SEQEND
  8
gg1
  0
POLYLINE
  8
gg1
 62
1
 40
0.000000
 41
0.000000
 66
  1
  0
VERTEX
  8
gg1
 10
0.680000
 20
0.750000
  0
VERTEX
  8
gg1
 10
0.720000
 20
0.750000
  0
SEQEND
  8
gg1
  0
POLYLINE
  8
gg1
 62
1
 40
0.000000
 41
0.000000
 66
  1
  0
VERTEX
  8
gg1
 10
0.700000
 20
0.730000
  0
VERTEX
  8
gg1
 10
0.700000
 20
0.770000
  0
SEQEND
  8
gg1
  0
POLYLINE
  8
gg1
 62
1
 40
0.000000
 41
0.000000
 66
  1
  0
VERTEX
  8
gg1
 10
0.057000
 20
0.700000
  0
VERTEX
  8
gg1
 10
0.143000
 20
0.700000
  0
SEQEND
  8
gg1
  0
POLYLINE
  8
gg1
 62
1
 40
0.000000
 41
0.000000
 66
  1
  0
VERTEX
  8
gg1
 10
0.100000
 20
0.657000
  0
VERTEX
  8
gg1
 10
0.100000
 20
0.743000
  0
SEQEND
  8
gg1
  0
POLYLINE
  8
gg1
 62
1
 40
0.000000
 41
0.000000
 66
  1
  0
VERTEX
  8
gg1
 10
0.057000
 20
0.100000
  0
VERTEX
  8
gg1
 10
0.143000
 20
0.100000
  0
SEQEND
  8
gg1
  0
POLYLINE
  8
gg1
 62
1
 40
0.000000
 41
0.000000
 66
  1
  0
VERTEX
  8
gg1
 10
0.100000
 20
0.057000
  0
VERTEX
  8
gg1
 10
0.100000
 20
0.143000
  0
SEQEND
  8
gg1
  0
POLYLINE
  8
gg1
 62
1
 40
0.000000
 41
0.000000
 66
  1
  0
VERTEX
  8
gg1
 10
1.457000
 20
0.100000
  0
VERTEX
  8
gg1
 10
1.543000
 20
0.100000
  0
SEQEND
  8
gg1
  0
POLYLINE
  8
gg1
 62
1
 40
0.000000
 41
0.000000
 66
  1
  0
VERTEX
  8
gg1
 10
1.500000
 20
0.057000
  0
VERTEX
  8
gg1
 10
1.500000
 20
0.143000
  0
SEQEND
  8
gg1
  0
POLYLINE
  8
gg1
 62
1
 40
0.000000
 41
0.000000
 66
  1
  0
VERTEX
  8
gg1
 10
1.457000
 20
0.700000
  0
VERTEX
  8
gg1
 10
1.543000
 20
0.700000
  0
SEQEND
  8
gg1
  0
POLYLINE
  8
gg1
 62
1
 40
0.000000
 41
0.000000
 66
  1
  0
VERTEX
  8
gg1
 10
1.500000
 20
0.657000
  0
VERTEX
  8
gg1
 10
1.500000
 20
0.743000
  0
SEQEND
  8
gg1
  0
POLYLINE
  8
gg1
 62
1
 40
0.000000
 41
0.000000
 66
  1
  0
VERTEX
  8
gg1
 10
0.057000
 20
0.500000
  0
VERTEX
  8
gg1
 10
0.143000
 20
0.500000
  0
SEQEND
  8
gg1
  0
POLYLINE
  8
gg1
 62
1
 40
0.000000
 41
0.000000
 66
  1
  0
VERTEX
  8
gg1
 10
0.100000
 20
0.457000
  0
VERTEX
  8
gg1
 10
0.100000
 20
0.543000
  0
SEQEND
  8
gg1
  0
POLYLINE
  8
gg1
 62
1
 40
0.000000
 41
0.000000
 66
  1
  0
VERTEX
  8
gg1
 10
0.057000
 20
0.303100
  0
VERTEX
  8
gg1
 10
0.143000
 20
0.303100
  0
SEQEND
  8
gg1
  0
POLYLINE
  8
gg1
 62
1
 40
0.000000
 41
0.000000
 66
  1
  0
VERTEX
  8
gg1
 10
0.100000
 20
0.260100
  0
VERTEX
  8
gg1
 10
0.100000
 20
0.346200
  0
SEQEND
  8
gg1
  0
POLYLINE
  8
gg1
 62
1
 40
0.000000
 41
0.000000
 66
  1
  0
VERTEX
  8
gg1
 10
1.457000
 20
0.500000
  0
VERTEX
  8
gg1
 10
1.543000
 20
0.500000
  0
SEQEND
  8
gg1
  0
POLYLINE
  8
gg1
 62
1
 40
0.000000
 41
0.000000
 66
  1
  0
VERTEX
  8
gg1
 10
1.500000
 20
0.457000
  0
VERTEX
  8
gg1
 10
1.500000
 20
0.543000
  0
SEQEND
  8
gg1
  0
POLYLINE
  8
gg1
 62
1
 40
0.000000
 41
0.000000
 66
  1
  0
VERTEX
  8
gg1
 10
1.457000
 20
0.303100
  0
VERTEX
  8
gg1
 10
1.543000
 20
0.303100
  0
SEQEND
  8
gg1
  0
POLYLINE
  8
gg1
 62
1
 40
0.000000
 41
0.000000
 66
  1
  0
VERTEX
  8
gg1
 10
1.500000
 20
0.260100
  0
VERTEX
  8
gg1
 10
1.500000
 20
0.346200
  0
SEQEND
  8
gg1
  0
POLYLINE
  8
gg1
 62
1
 40
0.000000
 41
0.000000
 66
  1
  0
VERTEX
  8
gg1
 10
0.180000
 20
0.550000
  0
VERTEX
  8
gg1
 10
0.220000
 20
0.550000
  0
SEQEND
  8
gg1
  0
POLYLINE
  8
gg1
 62
1
 40
0.000000
 41
0.000000
 66
  1
  0
VERTEX
  8
gg1
 10
0.200000
 20
0.530000
  0
VERTEX
  8
gg1
 10
0.200000
 20
0.570000
  0
SEQEND
  8
gg1
  0
POLYLINE
  8
gg1
 62
1
 40
0.000000
 41
0.000000
 66
  1
  0
VERTEX
  8
gg1
 10
0.180000
 20
0.450000
  0
VERTEX
  8
gg1
 10
0.220000
 20
0.450000
  0
SEQEND
  8
gg1
  0
POLYLINE
  8
gg1
 62
1
 40
0.000000
 41
0.000000
 66
  1
  0
VERTEX
  8
gg1
 10
0.200000
 20
0.430000
  0
VERTEX
  8
gg1
 10
0.200000
 20
0.470000
  0
SEQEND
  8
gg1
  0
POLYLINE
  8
gg1
 62
1
 40
0.000000
 41
0.000000
 66
  1
  0
VERTEX
  8
gg1
 10
0.180000
 20
0.350000
  0
VERTEX
  8
gg1
 10
0.220000
 20
0.350000
  0
SEQEND
  8
gg1
  0
POLYLINE
  8
gg1
 62
1
 40
0.000000
 41
0.000000
 66
  1
  0
VERTEX
  8
gg1
 10
0.200000
 20
0.330000
  0
VERTEX
  8
gg1
 10
0.200000
 20
0.370000
  0
SEQEND
  8
gg1
  0
POLYLINE
  8
gg1
 62
1
 40
0.000000
 41
0.000000
 66
  1
  0
VERTEX
  8
gg1
 10
0.180000
 20
0.250000
  0
VERTEX
  8
gg1
 10
0.220000
 20
0.250000
  0
SEQEND
  8
gg1
  0
POLYLINE
  8
gg1
 62
1
 40
0.000000
 41
0.000000
 66
  1
  0
VERTEX
  8
gg1
 10
0.200000
 20
0.230000
  0
VERTEX
  8
gg1
 10
0.200000
 20
0.270000
  0
SEQEND
  8
gg1
  0
POLYLINE
  8
gg1
 62
1
 40
0.000000
 41
0.000000
 66
  1
  0
VERTEX
  8
gg1
 10
0.480000
 20
0.750000
  0
VERTEX
  8
gg1
 10
0.520000
 20
0.750000
  0
SEQEND
  8
gg1
  0
POLYLINE
  8
gg1
 62
1
 40
0.000000
 41
0.000000
 66
  1
  0
VERTEX
  8
gg1
 10
0.500000
 20
0.730000
  0
VERTEX
  8
gg1
 10
0.500000
 20
0.770000
  0
SEQEND
  8
gg1
  0
POLYLINE
  8
gg1
 62
1
 40
0.000000
 41
0.000000
 66
  1
  0
VERTEX
  8
gg1
 10
0.580000
 20
0.750000
  0
VERTEX
  8
gg1
 10
0.620000
 20
0.750000
  0
SEQEND
  8
gg1
  0
POLYLINE
  8
gg1
 62
1
 40
0.000000
 41
0.000000
 66
  1
  0
VERTEX
  8
gg1
 10
0.600000
 20
0.730000
  0
VERTEX
  8
gg1
 10
0.600000
 20
0.770000
  0
SEQEND
  8
gg1
  0
POLYLINE
  8
gg1
 62
1
 40
0.000000
 41
0.000000
 66
  1
  0
VERTEX
  8
gg1
 10
1.380000
 20
0.550000
  0
VERTEX
  8
gg1
 10
1.420000
 20
0.550000
  0
SEQEND
  8
gg1
  0
POLYLINE
  8
gg1
 62
1
 40
0.000000
 41
0.000000
 66
  1
  0
VERTEX
  8
gg1
 10
1.400000
 20
0.530000
  0
VERTEX
  8
gg1
 10
1.400000
 20
0.570000
  0
SEQEND
  8
gg1
  0
POLYLINE
  8
gg1
 62
1
 40
0.000000
 41
0.000000
 66
  1
  0
VERTEX
  8
gg1
 10
1.380000
 20
0.450000
  0
VERTEX
  8
gg1
 10
1.420000
 20
0.450000
  0
SEQEND
  8
gg1
  0
POLYLINE
  8
gg1
 62
1
 40
0.000000
 41
0.000000
 66
  1
  0
VERTEX
  8
gg1
 10
1.400000
 20
0.430000
  0
VERTEX
  8
gg1
 10
1.400000
 20
0.470000
  0
SEQEND
  8
gg1
  0
POLYLINE
  8
gg1
 62
1
 40
0.000000
 41
0.000000
 66
  1
  0
VERTEX
  8
gg1
 10
1.380000
 20
0.350000
  0
VERTEX
  8
gg1
 10
1.420000
 20
0.350000
  0
SEQEND
  8
gg1
  0
POLYLINE
  8
gg1
 62
1
 40
0.000000
 41
0.000000
 66
  1
  0
VERTEX
  8
gg1
 10
1.400000
 20
0.330000
  0
VERTEX
  8
gg1
 10
1.400000
 20
0.370000
  0
SEQEND
  8
gg1
  0
POLYLINE
  8
gg1
 62
1
 40
0.000000
 41
0.000000
 66
  1
  0
VERTEX
  8
gg1
 10
1.380000
 20
0.250000
  0
VERTEX
  8
gg1
 10
1.420000
 20
0.250000
  0
SEQEND
  8
gg1
  0
POLYLINE
  8
gg1
 62
1
 40
0.000000
 41
0.000000
 66
  1
  0
VERTEX
  8
gg1
 10
1.400000
 20
0.230000
  0
VERTEX
  8
gg1
 10
1.400000
 20
0.270000
  0
SEQEND
  8
gg1
  0
POLYLINE
  8
gg1
 62
1
 40
0.000000
 41
0.000000
 66
  1
  0
VERTEX
  8
gg1
 10
0.982500
 20
0.720000
  0
VERTEX
  8
gg1
 10
0.997500
 20
0.720000
  0
SEQEND
  8
gg1
  0
POLYLINE
  8
gg1
 62
1
 40
0.000000
 41
0.000000
 66
  1
  0
VERTEX
  8
gg1
 10
0.990000
 20
0.712500
  0
VERTEX
  8
gg1
 10
0.990000
 20
0.727500
  0
SEQEND
  8
gg1
  0
POLYLINE
  8
gg1
 62
1
 40
0.000000
 41
0.000000
 66
  1
  0
VERTEX
  8
gg1
 10
0.982500
 20
0.755000
  0
VERTEX
  8
gg1
 10
0.997500
 20
0.755000
  0
SEQEND
  8
gg1
  0
POLYLINE
  8
gg1
 62
1
 40
0.000000
 41
0.000000
 66
  1
  0
VERTEX
  8
gg1
 10
0.990000
 20
0.747500
  0
VERTEX
  8
gg1
 10
0.990000
 20
0.762500
  0
SEQEND
  8
gg1
  0
POLYLINE
  8
gg1
 62
1
 40
0.000000
 41
0.000000
 66
  1
  0
VERTEX
  8
gg1
 10
1.057500
 20
0.685000
  0
VERTEX
  8
gg1
 10
1.072500
 20
0.685000
  0
SEQEND
  8
gg1
  0
POLYLINE
  8
gg1
 62
1
 40
0.000000
 41
0.000000
 66
  1
  0
VERTEX
  8
gg1
 10
1.065000
 20
0.677500
  0
VERTEX
  8
gg1
 10
1.065000
 20
0.692500
  0
SEQEND
  8
gg1
  0
POLYLINE
  8
gg1
 62
1
 40
0.000000
 41
0.000000
 66
  1
  0
VERTEX
  8
gg1
 10
0.932500
 20
0.555000
  0
VERTEX
  8
gg1
 10
0.947500
 20
0.555000
  0
SEQEND
  8
gg1
  0
POLYLINE
  8
gg1
 62
1
 40
0.000000
 41
0.000000
 66
  1
  0
VERTEX
  8
gg1
 10
0.940000
 20
0.547500
  0
VERTEX
  8
gg1
 10
0.940000
 20
0.562500
  0
SEQEND
  8
gg1
  0
POLYLINE
  8
gg1
 62
1
 40
0.000000
 41
0.000000
 66
  1
  0
VERTEX
  8
gg1
 10
0.932500
 20
0.525000
  0
VERTEX
  8
gg1
 10
0.947500
 20
0.525000
  0
SEQEND
  8
gg1
  0
POLYLINE
  8
gg1
 62
1
 40
0.000000
 41
0.000000
 66
  1
  0
VERTEX
  8
gg1
 10
0.940000
 20
0.517500
  0
VERTEX
  8
gg1
 10
0.940000
 20
0.532500
  0
SEQEND
  8
gg1
  0
POLYLINE
  8
gg1
 62
1
 40
0.000000
 41
0.000000
 66
  1
  0
VERTEX
  8
gg1
 10
0.802500
 20
0.414000
  0
VERTEX
  8
gg1
 10
0.817500
 20
0.414000
  0
SEQEND
  8
gg1
  0
POLYLINE
  8
gg1
 62
1
 40
0.000000
 41
0.000000
 66
  1
  0
VERTEX
  8
gg1
 10
0.810000
 20
0.406500
  0
VERTEX
  8
gg1
 10
0.810000
 20
0.421500
  0
SEQEND
  8
gg1
  0
POLYLINE
  8
gg1
 62
1
 40
0.000000
 41
0.000000
 66
  1
  0
VERTEX
  8
gg1
 10
0.649600
 20
0.400000
  0
VERTEX
  8
gg1
 10
0.664600
 20
0.400000
  0
SEQEND
  8
gg1
  0
POLYLINE
  8
gg1
 62
1
 40
0.000000
 41
0.000000
 66
  1
  0
VERTEX
  8
gg1
 10
0.657100
 20
0.392500
  0
VERTEX
  8
gg1
 10
0.657100
 20
0.407500
  0
SEQEND
  8
gg1
  0
POLYLINE
  8
gg1
 62
1
 40
0.000000
 41
0.000000
 66
  1
  0
VERTEX
  8
gg1
 10
0.677500
 20
0.545000
  0
VERTEX
  8
gg1
 10
0.692500
 20
0.545000
  0
SEQEND
  8
gg1
  0
POLYLINE
  8
gg1
 62
1
 40
0.000000
 41
0.000000
 66
  1
  0
VERTEX
  8
gg1
 10
0.685000
 20
0.537500
  0
VERTEX
  8
gg1
 10
0.685000
 20
0.552500
  0
SEQEND
  8
gg1
  0
POLYLINE
  8
gg1
 62
1
 40
0.000000
 41
0.000000
 66
  1
  0
VERTEX
  8
gg1
 10
0.647500
 20
0.530000
  0
VERTEX
  8
gg1
 10
0.662500
 20
0.530000
  0
SEQEND
  8
gg1
  0
POLYLINE
  8
gg1
 62
1
 40
0.000000
 41
0.000000
 66
  1
  0
VERTEX
  8
gg1
 10
0.655000
 20
0.522500
  0
VERTEX
  8
gg1
 10
0.655000
 20
0.537500
  0
SEQEND
  8
gg1
  0
POLYLINE
  8
gg1
 62
1
 40
0.000000
 41
0.000000
 66
  1
  0
VERTEX
  8
gg1
 10
0.617500
 20
0.545000
  0
VERTEX
  8
gg1
 10
0.632500
 20
0.545000
  0
SEQEND
  8
gg1
  0
POLYLINE
  8
gg1
 62
1
 40
0.000000
 41
0.000000
 66
  1
  0
VERTEX
  8
gg1
 10
0.625000
 20
0.537500
  0
VERTEX
  8
gg1
 10
0.625000
 20
0.552500
  0
SEQEND
  8
gg1
  0
POLYLINE
  8
gg1
 62
1
 40
0.000000
 41
0.000000
 66
  1
  0
VERTEX
  8
gg1
 10
0.587500
 20
0.530000
  0
VERTEX
  8
gg1
 10
0.602500
 20
0.530000
  0
SEQEND
  8
gg1
  0
POLYLINE
  8
gg1
 62
1
 40
0.000000
 41
0.000000
 66
  1
  0
VERTEX
  8
gg1
 10
0.595000
 20
0.522500
  0
VERTEX
  8
gg1
 10
0.595000
 20
0.537500
  0
SEQEND
  8
gg1
  0
POLYLINE
  8
gg1
 62
1
 40
0.000000
 41
0.000000
 66
  1
  0
VERTEX
  8
gg1
 10
0.557500
 20
0.545000
  0
VERTEX
  8
gg1
 10
0.572500
 20
0.545000
  0
SEQEND
  8
gg1
  0
POLYLINE
  8
gg1
 62
1
 40
0.000000
 41
0.000000
 66
  1
  0
VERTEX
  8
gg1
 10
0.565000
 20
0.537500
  0
VERTEX
  8
gg1
 10
0.565000
 20
0.552500
  0
SEQEND
  8
gg1
  0
POLYLINE
  8
gg1
 62
1
 40
0.000000
 41
0.000000
 66
  1
  0
VERTEX
  8
gg1
 10
0.217500
 20
0.670000
  0
VERTEX
  8
gg1
 10
0.232500
 20
0.670000
  0
SEQEND
  8
gg1
  0
POLYLINE
  8
gg1
 62
1
 40
0.000000
 41
0.000000
 66
  1
  0
VERTEX
  8
gg1
 10
0.225000
 20
0.662500
  0
VERTEX
  8
gg1
 10
0.225000
 20
0.677500
  0
SEQEND
  8
gg1
  0
POLYLINE
  8
gg1
 62
1
 40
0.000000
 41
0.000000
 66
  1
  0
VERTEX
  8
gg1
 10
0.322500
 20
0.705000
  0
VERTEX
  8
gg1
 10
0.337500
 20
0.705000
  0
SEQEND
  8
gg1
  0
POLYLINE
  8
gg1
 62
1
 40
0.000000
 41
0.000000
 66
  1
  0
VERTEX
  8
gg1
 10
0.330000
 20
0.697500
  0
VERTEX
  8
gg1
 10
0.330000
 20
0.712500
  0
SEQEND
  8
gg1
  0
POLYLINE
  8
gg1
 62
1
 40
0.000000
 41
0.000000
 66
  1
  0
VERTEX
  8
gg1
 10
0.322500
 20
0.635000
  0
VERTEX
  8
gg1
 10
0.337500
 20
0.635000
  0
SEQEND
  8
gg1
  0
POLYLINE
  8
gg1
 62
1
 40
0.000000
 41
0.000000
 66
  1
  0
VERTEX
  8
gg1
 10
0.330000
 20
0.627500
  0
VERTEX
  8
gg1
 10
0.330000
 20
0.642500
  0
SEQEND
  8
gg1
  0
POLYLINE
  8
gg1
 62
1
 40
0.000000
 41
0.000000
 66
  1
  0
VERTEX
  8
gg1
 10
0.287500
 20
0.670000
  0
VERTEX
  8
gg1
 10
0.302500
 20
0.670000
  0
SEQEND
  8
gg1
  0
POLYLINE
  8
gg1
 62
1
 40
0.000000
 41
0.000000
 66
  1
  0
VERTEX
  8
gg1
 10
0.295000
 20
0.662500
  0
VERTEX
  8
gg1
 10
0.295000
 20
0.677500
  0
SEQEND
  8
gg1
  0
POLYLINE
  8
gg1
 62
1
 40
0.000000
 41
0.000000
 66
  1
  0
VERTEX
  8
gg1
 10
0.252500
 20
0.760000
  0
VERTEX
  8
gg1
 10
0.267500
 20
0.760000
  0
SEQEND
  8
gg1
  0
POLYLINE
  8
gg1
 62
1
 40
0.000000
 41
0.000000
 66
  1
  0
VERTEX
  8
gg1
 10
0.260000
 20
0.752500
  0
VERTEX
  8
gg1
 10
0.260000
 20
0.767500
  0
SEQEND
  8
gg1
  0
POLYLINE
  8
gg1
 62
1
 40
0.000000
 41
0.000000
 66
  1
  0
VERTEX
  8
gg1
 10
0.252500
 20
0.635000
  0
VERTEX
  8
gg1
 10
0.267500
 20
0.635000
  0
SEQEND
  8
gg1
  0
POLYLINE
  8
gg1
 62
1
 40
0.000000
 41
0.000000
 66
  1
  0
VERTEX
  8
gg1
 10
0.260000
 20
0.627500
  0
VERTEX
  8
gg1
 10
0.260000
 20
0.642500
  0
SEQEND
  8
gg1
  0
POLYLINE
  8
gg1
 62
1
 40
0.000000
 41
0.000000
 66
  1
  0
VERTEX
  8
gg1
 10
0.287500
 20
0.600000
  0
VERTEX
  8
gg1
 10
0.302500
 20
0.600000
  0
SEQEND
  8
gg1
  0
POLYLINE
  8
gg1
 62
1
 40
0.000000
 41
0.000000
 66
  1
  0
VERTEX
  8
gg1
 10
0.295000
 20
0.592500
  0
VERTEX
  8
gg1
 10
0.295000
 20
0.607500
  0
SEQEND
  8
gg1
  0
POLYLINE
  8
gg1
 62
1
 40
0.000000
 41
0.000000
 66
  1
  0
VERTEX
  8
gg1
 10
0.957500
 20
0.100000
  0
VERTEX
  8
gg1
 10
0.972500
 20
0.100000
  0
SEQEND
  8
gg1
  0
POLYLINE
  8
gg1
 62
1
 40
0.000000
 41
0.000000
 66
  1
  0
VERTEX
  8
gg1
 10
0.965000
 20
0.092500
  0
VERTEX
  8
gg1
 10
0.965000
 20
0.107500
  0
SEQEND
  8
gg1
  0
POLYLINE
  8
gg1
 62
1
 40
0.000000
 41
0.000000
 66
  1
  0
VERTEX
  8
gg1
 10
0.867500
 20
0.045000
  0
VERTEX
  8
gg1
 10
0.882500
 20
0.045000
  0
SEQEND
  8
gg1
  0
POLYLINE
  8
gg1
 62
1
 40
0.000000
 41
0.000000
 66
  1
  0
VERTEX
  8
gg1
 10
0.875000
 20
0.037500
  0
VERTEX
  8
gg1
 10
0.875000
 20
0.052500
  0
SEQEND
  8
gg1
  0
POLYLINE
  8
gg1
 62
1
 40
0.000000
 41
0.000000
 66
  1
  0
VERTEX
  8
gg1
 10
0.415000
 20
0.050000
  0
VERTEX
  8
gg1
 10
0.435000
 20
0.050000
  0
SEQEND
  8
gg1
  0
POLYLINE
  8
gg1
 62
1
 40
0.000000
 41
0.000000
 66
  1
  0
VERTEX
  8
gg1
 10
0.425000
 20
0.040000
  0
VERTEX
  8
gg1
 10
0.425000
 20
0.060000
  0
SEQEND
  8
gg1
  0
POLYLINE
  8
gg1
 62
1
 40
0.000000
 41
0.000000
 66
  1
  0
VERTEX
  8
gg1
 10
0.737500
 20
0.045000
  0
VERTEX
  8
gg1
 10
0.752500
 20
0.045000
  0
SEQEND
  8
gg1
  0
POLYLINE
  8
gg1
 62
1
 40
0.000000
 41
0.000000
 66
  1
  0
VERTEX
  8
gg1
 10
0.745000
 20
0.037500
  0
VERTEX
  8
gg1
 10
0.745000
 20
0.052500
  0
SEQEND
  8
gg1
  0
POLYLINE
  8
gg1
 62
1
 40
0.000000
 41
0.000000
 66
  1
  0
VERTEX
  8
gg1
 10
0.957500
 20
0.040000
  0
VERTEX
  8
gg1
 10
0.972500
 20
0.040000
  0
SEQEND
  8
gg1
  0
POLYLINE
  8
gg1
 62
1
 40
0.000000
 41
0.000000
 66
  1
  0
VERTEX
  8
gg1
 10
0.965000
 20
0.032500
  0
VERTEX
  8
gg1
 10
0.965000
 20
0.047500
  0
SEQEND
  8
gg1
  0
POLYLINE
  8
gg1
 62
1
 40
0.000000
 41
0.000000
 66
  1
  0
VERTEX
  8
gg1
 10
0.937500
 20
0.070000
  0
VERTEX
  8
gg1
 10
0.952500
 20
0.070000
  0
SEQEND
  8
gg1
  0
POLYLINE
  8
gg1
 62
1
 40
0.000000
 41
0.000000
 66
  1
  0
VERTEX
  8
gg1
 10
0.945000
 20
0.062500
  0
VERTEX
  8
gg1
 10
0.945000
 20
0.077500
  0
SEQEND
  8
gg1
  0
POLYLINE
  8
gg1
 62
1
 40
0.000000
 41
0.000000
 66
  1
  0
VERTEX
  8
gg1
 10
1.362500
 20
0.050000
  0
VERTEX
  8
gg1
 10
1.377500
 20
0.050000
  0
SEQEND
  8
gg1
  0
POLYLINE
  8
gg1
 62
1
 40
0.000000
 41
0.000000
 66
  1
  0
VERTEX
  8
gg1
 10
1.370000
 20
0.042500
  0
VERTEX
  8
gg1
 10
1.370000
 20
0.057500
  0
SEQEND
  8
gg1
  0
POLYLINE
  8
gg1
 62
1
 40
0.000000
 41
0.000000
 66
  1
  0
VERTEX
  8
gg1
 10
1.332500
 20
0.040000
  0
VERTEX
  8
gg1
 10
1.347500
 20
0.040000
  0
SEQEND
  8
gg1
  0
POLYLINE
  8
gg1
 62
1
 40
0.000000
 41
0.000000
 66
  1
  0
VERTEX
  8
gg1
 10
1.340000
 20
0.032500
  0
VERTEX
  8
gg1
 10
1.340000
 20
0.047500
  0
SEQEND
  8
gg1
  0
POLYLINE
  8
gg1
 62
1
 40
0.000000
 41
0.000000
 66
  1
  0
VERTEX
  8
gg1
 10
0.573500
 20
0.189000
  0
VERTEX
  8
gg1
 10
0.588500
 20
0.189000
  0
SEQEND
  8
gg1
  0
POLYLINE
  8
gg1
 62
1
 40
0.000000
 41
0.000000
 66
  1
  0
VERTEX
  8
gg1
 10
0.581000
 20
0.181500
  0
VERTEX
  8
gg1
 10
0.581000
 20
0.196500
  0
SEQEND
  8
gg1
  0
POLYLINE
  8
gg1
 62
1
 40
0.000000
 41
0.000000
 66
  1
  0
VERTEX
  8
gg1
 10
0.832500
 20
0.235000
  0
VERTEX
  8
gg1
 10
0.847500
 20
0.235000
  0
SEQEND
  8
gg1
  0
POLYLINE
  8
gg1
 62
1
 40
0.000000
 41
0.000000
 66
  1
  0
VERTEX
  8
gg1
 10
0.840000
 20
0.227500
  0
VERTEX
  8
gg1
 10
0.840000
 20
0.242500
  0
SEQEND
  8
gg1
  0
POLYLINE
  8
gg1
 62
1
 40
0.000000
 41
0.000000
 66
  1
  0
VERTEX
  8
gg1
 10
0.531500
 20
0.189000
  0
VERTEX
  8
gg1
 10
0.546500
 20
0.189000
  0
SEQEND
  8
gg1
  0
POLYLINE
  8
gg1
 62
1
 40
0.000000
 41
0.000000
 66
  1
  0
VERTEX
  8
gg1
 10
0.539000
 20
0.181500
  0
VERTEX
  8
gg1
 10
0.539000
 20
0.196500
  0
SEQEND
  8
gg1
  0
POLYLINE
  8
gg1
 62
1
 40
0.000000
 41
0.000000
 66
  1
  0
VERTEX
  8
gg1
 10
0.491500
 20
0.337000
  0
VERTEX
  8
gg1
 10
0.506500
 20
0.337000
  0
SEQEND
  8
gg1
  0
POLYLINE
  8
gg1
 62
1
 40
0.000000
 41
0.000000
 66
  1
  0
VERTEX
  8
gg1
 10
0.499000
 20
0.329500
  0
VERTEX
  8
gg1
 10
0.499000
 20
0.344500
  0
SEQEND
  8
gg1
  0
POLYLINE
  8
gg1
 62
1
 40
0.000000
 41
0.000000
 66
  1
  0
VERTEX
  8
gg1
 10
0.491500
 20
0.367000
  0
VERTEX
  8
gg1
 10
0.506500
 20
0.367000
  0
SEQEND
  8
gg1
  0
POLYLINE
  8
gg1
 62
1
 40
0.000000
 41
0.000000
 66
  1
  0
VERTEX
  8
gg1
 10
0.499000
 20
0.359500
  0
VERTEX
  8
gg1
 10
0.499000
 20
0.374500
  0
SEQEND
  8
gg1
  0
POLYLINE
  8
gg1
 62
1
 40
0.000000
 41
0.000000
 66
  1
  0
VERTEX
  8
gg1
 10
0.491500
 20
0.307000
  0
VERTEX
  8
gg1
 10
0.506500
 20
0.307000
  0
SEQEND
  8
gg1
  0
POLYLINE
  8
gg1
 62
1
 40
0.000000
 41
0.000000
 66
  1
  0
VERTEX
  8
gg1
 10
0.499000
 20
0.299500
  0
VERTEX
  8
gg1
 10
0.499000
 20
0.314500
  0
SEQEND
  8
gg1
  0
POLYLINE
  8
gg1
 62
1
 40
0.000000
 41
0.000000
 66
  1
  0
VERTEX
  8
gg1
 10
0.617500
 20
0.045000
  0
VERTEX
  8
gg1
 10
0.632500
 20
0.045000
  0
SEQEND
  8
gg1
  0
POLYLINE
  8
gg1
 62
1
 40
0.000000
 41
0.000000
 66
  1
  0
VERTEX
  8
gg1
 10
0.625000
 20
0.037500
  0
VERTEX
  8
gg1
 10
0.625000
 20
0.052500
  0
SEQEND
  8
gg1
  0
POLYLINE
  8
gg1
 62
1
 40
0.000000
 41
0.000000
 66
  1
  0
VERTEX
  8
gg1
 10
0.677500
 20
0.040000
  0
VERTEX
  8
gg1
 10
0.692500
 20
0.040000
  0
SEQEND
  8
gg1
  0
POLYLINE
  8
gg1
 62
1
 40
0.000000
 41
0.000000
 66
  1
  0
VERTEX
  8
gg1
 10
0.685000
 20
0.032500
  0
VERTEX
  8
gg1
 10
0.685000
 20
0.047500
  0
SEQEND
  8
gg1
  0
POLYLINE
  8
gg1
 62
1
 40
0.000000
 41
0.000000
 66
  1
  0
VERTEX
  8
gg1
 10
0.777500
 20
0.040000
  0
VERTEX
  8
gg1
 10
0.792500
 20
0.040000
  0
SEQEND
  8
gg1
  0
POLYLINE
  8
gg1
 62
1
 40
0.000000
 41
0.000000
 66
  1
  0
VERTEX
  8
gg1
 10
0.785000
 20
0.032500
  0
VERTEX
  8
gg1
 10
0.785000
 20
0.047500
  0
SEQEND
  8
gg1
  0
POLYLINE
  8
gg1
 62
1
 40
0.000000
 41
0.000000
 66
  1
  0
VERTEX
  8
gg1
 10
0.837500
 20
0.040000
  0
VERTEX
  8
gg1
 10
0.852500
 20
0.040000
  0
SEQEND
  8
gg1
  0
POLYLINE
  8
gg1
 62
1
 40
0.000000
 41
0.000000
 66
  1
  0
VERTEX
  8
gg1
 10
0.845000
 20
0.032500
  0
VERTEX
  8
gg1
 10
0.845000
 20
0.047500
  0
SEQEND
  8
gg1
  0
POLYLINE
  8
gg1
 62
1
 40
0.000000
 41
0.000000
 66
  1
  0
VERTEX
  8
gg1
 10
0.917500
 20
0.040000
  0
VERTEX
  8
gg1
 10
0.932500
 20
0.040000
  0
SEQEND
  8
gg1
  0
POLYLINE
  8
gg1
 62
1
 40
0.000000
 41
0.000000
 66
  1
  0
VERTEX
  8
gg1
 10
0.925000
 20
0.032500
  0
VERTEX
  8
gg1
 10
0.925000
 20
0.047500
  0
SEQEND
  8
gg1
  0
POLYLINE
  8
gg1
 62
1
 40
0.000000
 41
0.000000
 66
  1
  0
VERTEX
  8
gg1
 10
0.807500
 20
0.045000
  0
VERTEX
  8
gg1
 10
0.822500
 20
0.045000
  0
SEQEND
  8
gg1
  0
POLYLINE
  8
gg1
 62
1
 40
0.000000
 41
0.000000
 66
  1
  0
VERTEX
  8
gg1
 10
0.815000
 20
0.037500
  0
VERTEX
  8
gg1
 10
0.815000
 20
0.052500
  0
SEQEND
  8
gg1
  0
POLYLINE
  8
gg1
 62
1
 40
0.000000
 41
0.000000
 66
  1
  0
VERTEX
  8
gg1
 10
0.631500
 20
0.287000
  0
VERTEX
  8
gg1
 10
0.646500
 20
0.287000
  0
SEQEND
  8
gg1
  0
POLYLINE
  8
gg1
 62
1
 40
0.000000
 41
0.000000
 66
  1
  0
VERTEX
  8
gg1
 10
0.639000
 20
0.279500
  0
VERTEX
  8
gg1
 10
0.639000
 20
0.294500
  0
SEQEND
  8
gg1
  0
POLYLINE
  8
gg1
 62
1
 40
0.000000
 41
0.000000
 66
  1
  0
VERTEX
  8
gg1
 10
0.915500
 20
0.103000
  0
VERTEX
  8
gg1
 10
0.930500
 20
0.103000
  0
SEQEND
  8
gg1
  0
POLYLINE
  8
gg1
 62
1
 40
0.000000
 41
0.000000
 66
  1
  0
VERTEX
  8
gg1
 10
0.923000
 20
0.095500
  0
VERTEX
  8
gg1
 10
0.923000
 20
0.110500
  0
SEQEND
  8
gg1
  0
POLYLINE
  8
gg1
 62
1
 40
0.000000
 41
0.000000
 66
  1
  0
VERTEX
  8
gg1
 10
0.842500
 20
0.371000
  0
VERTEX
  8
gg1
 10
0.857500
 20
0.371000
  0
SEQEND
  8
gg1
  0
POLYLINE
  8
gg1
 62
1
 40
0.000000
 41
0.000000
 66
  1
  0
VERTEX
  8
gg1
 10
0.850000
 20
0.363500
  0
VERTEX
  8
gg1
 10
0.850000
 20
0.378500
  0
SEQEND
  8
gg1
  0
POLYLINE
  8
gg1
 62
1
 40
0.000000
 41
0.000000
 66
  1
  0
VERTEX
  8
gg1
 10
0.932500
 20
0.585000
  0
VERTEX
  8
gg1
 10
0.947500
 20
0.585000
  0
SEQEND
  8
gg1
  0
POLYLINE
  8
gg1
 62
1
 40
0.000000
 41
0.000000
 66
  1
  0
VERTEX
  8
gg1
 10
0.940000
 20
0.577500
  0
VERTEX
  8
gg1
 10
0.940000
 20
0.592500
  0
SEQEND
  8
gg1
  0
POLYLINE
  8
gg1
 62
1
 40
0.000000
 41
0.000000
 66
  1
  0
VERTEX
  8
gg1
 10
0.957500
 20
0.570000
  0
VERTEX
  8
gg1
 10
0.972500
 20
0.570000
  0
SEQEND
  8
gg1
  0
POLYLINE
  8
gg1
 62
1
 40
0.000000
 41
0.000000
 66
  1
  0
VERTEX
  8
gg1
 10
0.965000
 20
0.562500
  0
VERTEX
  8
gg1
 10
0.965000
 20
0.577500
  0
SEQEND
  8
gg1
  0
POLYLINE
  8
gg1
 62
1
 40
0.000000
 41
0.000000
 66
  1
  0
VERTEX
  8
gg1
 10
0.957500
 20
0.540000
  0
VERTEX
  8
gg1
 10
0.972500
 20
0.540000
  0
SEQEND
  8
gg1
  0
POLYLINE
  8
gg1
 62
1
 40
0.000000
 41
0.000000
 66
  1
  0
VERTEX
  8
gg1
 10
0.965000
 20
0.532500
  0
VERTEX
  8
gg1
 10
0.965000
 20
0.547500
  0
SEQEND
  8
gg1
  0
POLYLINE
  8
gg1
 62
1
 40
0.000000
 41
0.000000
 66
  1
  0
VERTEX
  8
gg1
 10
1.272500
 20
0.040000
  0
VERTEX
  8
gg1
 10
1.287500
 20
0.040000
  0
SEQEND
  8
gg1
  0
POLYLINE
  8
gg1
 62
1
 40
0.000000
 41
0.000000
 66
  1
  0
VERTEX
  8
gg1
 10
1.280000
 20
0.032500
  0
VERTEX
  8
gg1
 10
1.280000
 20
0.047500
  0
SEQEND
  8
gg1
  0
POLYLINE
  8
gg1
 62
1
 40
0.000000
 41
0.000000
 66
  1
  0
VERTEX
  8
gg1
 10
1.302500
 20
0.050000
  0
VERTEX
  8
gg1
 10
1.317500
 20
0.050000
  0
SEQEND
  8
gg1
  0
POLYLINE
  8
gg1
 62
1
 40
0.000000
 41
0.000000
 66
  1
  0
VERTEX
  8
gg1
 10
1.310000
 20
0.042500
  0
VERTEX
  8
gg1
 10
1.310000
 20
0.057500
  0
SEQEND
  8
gg1
  0
POLYLINE
  8
gg1
 62
1
 40
0.000000
 41
0.000000
 66
  1
  0
VERTEX
  8
gg1
 10
1.392500
 20
0.040000
  0
VERTEX
  8
gg1
 10
1.407500
 20
0.040000
  0
SEQEND
  8
gg1
  0
POLYLINE
  8
gg1
 62
1
 40
0.000000
 41
0.000000
 66
  1
  0
VERTEX
  8
gg1
 10
1.400000
 20
0.032500
  0
VERTEX
  8
gg1
 10
1.400000
 20
0.047500
  0
SEQEND
  8
gg1
  0
POLYLINE
  8
gg1
 62
1
 40
0.000000
 41
0.000000
 66
  1
  0
VERTEX
  8
gg1
 10
0.562500
 20
0.045000
  0
VERTEX
  8
gg1
 10
0.577500
 20
0.045000
  0
SEQEND
  8
gg1
  0
POLYLINE
  8
gg1
 62
1
 40
0.000000
 41
0.000000
 66
  1
  0
VERTEX
  8
gg1
 10
0.570000
 20
0.037500
  0
VERTEX
  8
gg1
 10
0.570000
 20
0.052500
  0
SEQEND
  8
gg1
  0
POLYLINE
  8
gg1
 62
1
 40
0.000000
 41
0.000000
 66
  1
  0
VERTEX
  8
gg1
 10
1.102500
 20
0.755000
  0
VERTEX
  8
gg1
 10
1.117500
 20
0.755000
  0
SEQEND
  8
gg1
  0
POLYLINE
  8
gg1
 62
1
 40
0.000000
 41
0.000000
 66
  1
  0
VERTEX
  8
gg1
 10
1.110000
 20
0.747500
  0
VERTEX
  8
gg1
 10
1.110000
 20
0.762500
  0
SEQEND
  8
gg1
  0
POLYLINE
  8
gg1
 62
1
 40
0.000000
 41
0.000000
 66
  1
  0
VERTEX
  8
gg1
 10
1.152500
 20
0.755000
  0
VERTEX
  8
gg1
 10
1.167500
 20
0.755000
  0
SEQEND
  8
gg1
  0
POLYLINE
  8
gg1
 62
1
 40
0.000000
 41
0.000000
 66
  1
  0
VERTEX
  8
gg1
 10
1.160000
 20
0.747500
  0
VERTEX
  8
gg1
 10
1.160000
 20
0.762500
  0
SEQEND
  8
gg1
  0
POLYLINE
  8
gg1
 62
1
 40
0.000000
 41
0.000000
 66
  1
  0
VERTEX
  8
gg1
 10
1.262500
 20
0.750000
  0
VERTEX
  8
gg1
 10
1.277500
 20
0.750000
  0
SEQEND
  8
gg1
  0
POLYLINE
  8
gg1
 62
1
 40
0.000000
 41
0.000000
 66
  1
  0
VERTEX
  8
gg1
 10
1.270000
 20
0.742500
  0
VERTEX
  8
gg1
 10
1.270000
 20
0.757500
  0
SEQEND
  8
gg1
  0
POLYLINE
  8
gg1
 62
1
 40
0.000000
 41
0.000000
 66
  1
  0
VERTEX
  8
gg1
 10
1.327500
 20
0.750000
  0
VERTEX
  8
gg1
 10
1.342500
 20
0.750000
  0
SEQEND
  8
gg1
  0
POLYLINE
  8
gg1
 62
1
 40
0.000000
 41
0.000000
 66
  1
  0
VERTEX
  8
gg1
 10
1.335000
 20
0.742500
  0
VERTEX
  8
gg1
 10
1.335000
 20
0.757500
  0
SEQEND
  8
gg1
  0
POLYLINE
  8
gg1
 62
1
 40
0.000000
 41
0.000000
 66
  1
  0
VERTEX
  8
gg1
 10
1.292500
 20
0.720000
  0
VERTEX
  8
gg1
 10
1.307500
 20
0.720000
  0
SEQEND
  8
gg1
  0
POLYLINE
  8
gg1
 62
1
 40
0.000000
 41
0.000000
 66
  1
  0
VERTEX
  8
gg1
 10
1.300000
 20
0.712500
  0
VERTEX
  8
gg1
 10
1.300000
 20
0.727500
  0
SEQEND
  8
gg1
  0
POLYLINE
  8
gg1
 62
1
 40
0.000000
 41
0.000000
 66
  1
  0
VERTEX
  8
gg1
 10
0.512400
 20
0.422600
  0
VERTEX
  8
gg1
 10
0.527400
 20
0.422600
  0
SEQEND
  8
gg1
  0
POLYLINE
  8
gg1
 62
1
 40
0.000000
 41
0.000000
 66
  1
  0
VERTEX
  8
gg1
 10
0.519900
 20
0.415100
  0
VERTEX
  8
gg1
 10
0.519900
 20
0.430100
  0
SEQEND
  8
gg1
  0
POLYLINE
  8
gg1
 62
1
 40
0.000000
 41
0.000000
 66
  1
  0
VERTEX
  8
gg1
 10
0.252500
 20
0.705000
  0
VERTEX
  8
gg1
 10
0.267500
 20
0.705000
  0
SEQEND
  8
gg1
  0
POLYLINE
  8
gg1
 62
1
 40
0.000000
 41
0.000000
 66
  1
  0
VERTEX
  8
gg1
 10
0.260000
 20
0.697500
  0
VERTEX
  8
gg1
 10
0.260000
 20
0.712500
  0
SEQEND
  8
gg1
  0
POLYLINE
  8
gg1
 62
1
 40
0.000000
 41
0.000000
 66
  1
  0
VERTEX
  8
gg1
 10
0.472500
 20
0.045000
  0
VERTEX
  8
gg1
 10
0.487500
 20
0.045000
  0
SEQEND
  8
gg1
  0
POLYLINE
  8
gg1
 62
1
 40
0.000000
 41
0.000000
 66
  1
  0
VERTEX
  8
gg1
 10
0.480000
 20
0.037500
  0
VERTEX
  8
gg1
 10
0.480000
 20
0.052500
  0
SEQEND
  8
gg1
  0
POLYLINE
  8
gg1
 62
1
 40
0.000000
 41
0.000000
 66
  1
  0
VERTEX
  8
gg1
 10
0.736200
 20
0.358700
  0
VERTEX
  8
gg1
 10
0.751200
 20
0.358700
  0
SEQEND
  8
gg1
  0
POLYLINE
  8
gg1
 62
1
 40
0.000000
 41
0.000000
 66
  1
  0
VERTEX
  8
gg1
 10
0.743700
 20
0.351200
  0
VERTEX
  8
gg1
 10
0.743700
 20
0.366200
  0
SEQEND
  8
gg1
  0
POLYLINE
  8
gg1
 62
1
 40
0.000000
 41
0.000000
 66
  1
  0
VERTEX
  8
gg1
 10
0.736200
 20
0.321300
  0
VERTEX
  8
gg1
 10
0.751200
 20
0.321300
  0
SEQEND
  8
gg1
  0
POLYLINE
  8
gg1
 62
1
 40
0.000000
 41
0.000000
 66
  1
  0
VERTEX
  8
gg1
 10
0.743700
 20
0.313800
  0
VERTEX
  8
gg1
 10
0.743700
 20
0.328800
  0
SEQEND
  8
gg1
  0
POLYLINE
  8
gg1
 62
1
 40
0.000000
 41
0.000000
 66
  1
  0
VERTEX
  8
gg1
 10
0.698800
 20
0.321300
  0
VERTEX
  8
gg1
 10
0.713800
 20
0.321300
  0
SEQEND
  8
gg1
  0
POLYLINE
  8
gg1
 62
1
 40
0.000000
 41
0.000000
 66
  1
  0
VERTEX
  8
gg1
 10
0.706300
 20
0.313800
  0
VERTEX
  8
gg1
 10
0.706300
 20
0.328800
  0
SEQEND
  8
gg1
  0
POLYLINE
  8
gg1
 62
1
 40
0.000000
 41
0.000000
 66
  1
  0
VERTEX
  8
gg1
 10
0.698800
 20
0.358700
  0
VERTEX
  8
gg1
 10
0.713800
 20
0.358700
  0
SEQEND
  8
gg1
  0
POLYLINE
  8
gg1
 62
1
 40
0.000000
 41
0.000000
 66
  1
  0
VERTEX
  8
gg1
 10
0.706300
 20
0.351200
  0
VERTEX
  8
gg1
 10
0.706300
 20
0.366200
  0
SEQEND
  8
gg1
  0
POLYLINE
  8
gg1
 62
1
 40
0.000000
 41
0.000000
 66
  1
  0
VERTEX
  8
gg1
 10
-0.170000
 20
0.229000
  0
VERTEX
  8
gg1
 10
-0.180000
 20
0.239000
  0
VERTEX
  8
gg1
 10
-0.180000
 20
0.259000
  0
VERTEX
  8
gg1
 10
-0.170000
 20
0.269000
  0
VERTEX
  8
gg1
 10
-0.160000
 20
0.269000
  0
VERTEX
  8
gg1
 10
-0.150000
 20
0.259000
  0
VERTEX
  8
gg1
 10
-0.140000
 20
0.269000
  0
VERTEX
  8
gg1
 10
-0.130000
 20
0.269000
  0
VERTEX
  8
gg1
 10
-0.120000
 20
0.259000
  0
VERTEX
  8
gg1
 10
-0.120000
 20
0.239000
  0
VERTEX
  8
gg1
 10
-0.130000
 20
0.229000
  0
VERTEX
  8
gg1
 10
-0.140000
 20
0.229000
  0
VERTEX
  8
gg1
 10
-0.150000
 20
0.239000
  0
VERTEX
  8
gg1
 10
-0.160000
 20
0.229000
  0
VERTEX
  8
gg1
 10
-0.170000
 20
0.229000
  0
SEQEND
  8
gg1
  0
POLYLINE
  8
gg1
 62
1
 40
0.000000
 41
0.000000
 66
  1
  0
VERTEX
  8
gg1
 10
-0.150000
 20
0.239000
  0
VERTEX
  8
gg1
 10
-0.150000
 20
0.259000
  0
SEQEND
  8
gg1
  0
POLYLINE
  8
gg1
 62
1
 40
0.000000
 41
0.000000
 66
  1
  0
VERTEX
  8
gg1
 10
-0.170000
 20
0.289000
  0
VERTEX
  8
gg1
 10
-0.180000
 20
0.299000
  0
VERTEX
  8
gg1
 10
-0.180000
 20
0.319000
  0
VERTEX
  8
gg1
 10
-0.170000
 20
0.329000
  0
VERTEX
  8
gg1
 10
-0.130000
 20
0.329000
  0
VERTEX
  8
gg1
 10
-0.120000
 20
0.319000
  0
VERTEX
  8
gg1
 10
-0.120000
 20
0.299000
  0
VERTEX
  8
gg1
 10
-0.130000
 20
0.289000
  0
VERTEX
  8
gg1
 10
-0.170000
 20
0.289000
  0
SEQEND
  8
gg1
  0
POLYLINE
  8
gg1
 62
1
 40
0.000000
 41
0.000000
 66
  1
  0
VERTEX
  8
gg1
 10
-0.170000
 20
0.349000
  0
VERTEX
  8
gg1
 10
-0.180000
 20
0.359000
  0
VERTEX
  8
gg1
 10
-0.180000
 20
0.379000
  0
VERTEX
  8
gg1
 10
-0.170000
 20
0.389000
  0
VERTEX
  8
gg1
 10
-0.130000
 20
0.389000
  0
VERTEX
  8
gg1
 10
-0.120000
 20
0.379000
  0
VERTEX
  8
gg1
 10
-0.120000
 20
0.359000
  0
VERTEX
  8
gg1
 10
-0.130000
 20
0.349000
  0
VERTEX
  8
gg1
 10
-0.170000
 20
0.349000
  0
SEQEND
  8
gg1
  0
POLYLINE
  8
gg1
 62
1
 40
0.000000
 41
0.000000
 66
  1
  0
VERTEX
  8
gg1
 10
-0.120000
 20
0.409000
  0
VERTEX
  8
gg1
 10
-0.160000
 20
0.409000
  0
VERTEX
  8
gg1
 10
-0.160000
 20
0.419000
  0
VERTEX
  8
gg1
 10
-0.150000
 20
0.429000
  0
VERTEX
  8
gg1
 10
-0.120000
 20
0.429000
  0
VERTEX
  8
gg1
 10
-0.150000
 20
0.429000
  0
VERTEX
  8
gg1
 10
-0.160000
 20
0.439000
  0
VERTEX
  8
gg1
 10
-0.150000
 20
0.449000
  0
VERTEX
  8
gg1
 10
-0.120000
 20
0.449000
  0
SEQEND
  8
gg1
  0
POLYLINE
  8
gg1
 62
1
 40
0.000000
 41
0.000000
 66
  1
  0
VERTEX
  8
gg1
 10
-0.120000
 20
0.469000
  0
VERTEX
  8
gg1
 10
-0.120000
 20
0.489000
  0
VERTEX
  8
gg1
 10
-0.120000
 20
0.479000
  0
VERTEX
  8
gg1
 10
-0.160000
 20
0.479000
  0
VERTEX
  8
gg1
 10
-0.160000
 20
0.469000
  0
SEQEND
  8
gg1
  0
POLYLINE
  8
gg1
 62
1
 40
0.000000
 41
0.000000
 66
  1
  0
VERTEX
  8
gg1
 10
-0.120000
 20
0.519000
  0
VERTEX
  8
gg1
 10
-0.120000
 20
0.539000
  0
VERTEX
  8
gg1
 10
-0.120000
 20
0.529000
  0
VERTEX
  8
gg1
 10
-0.180000
 20
0.529000
  0
VERTEX
  8
gg1
 10
-0.180000
 20
0.519000
  0
SEQEND
  8
gg1
  0
POLYLINE
  8
gg1
 62
1
 40
0.000000
 41
0.000000
 66
  1
  0
VERTEX
  8
gg1
 10
0.604100
 20
-0.436000
  0
VERTEX
  8
gg1
 10
0.624100
 20
-0.436000
  0
VERTEX
  8
gg1
 10
0.614100
 20
-0.436000
  0
VERTEX
  8
gg1
 10
0.614100
 20
-0.376000
  0
VERTEX
  8
gg1
 10
0.604100
 20
-0.386000
  0
SEQEND
  8
gg1
  0
POLYLINE
  8
gg1
 62
1
 40
0.000000
 41
0.000000
 66
  1
  0
VERTEX
  8
gg1
 10
0.694000
 20
-0.376000
  0
VERTEX
  8
gg1
 10
0.674000
 20
-0.386000
  0
VERTEX
  8
gg1
 10
0.654000
 20
-0.406000
  0
VERTEX
  8
gg1
 10
0.654000
 20
-0.426000
  0
VERTEX
  8
gg1
 10
0.664000
 20
-0.436000
  0
VERTEX
  8
gg1
 10
0.684000
 20
-0.436000
  0
VERTEX
  8
gg1
 10
0.694000
 20
-0.426000
  0
VERTEX
  8
gg1
 10
0.694000
 20
-0.416000
  0
VERTEX
  8
gg1
 10
0.684000
 20
-0.406000
  0
VERTEX
  8
gg1
 10
0.654000
 20
-0.406000
  0
SEQEND
  8
gg1
  0
POLYLINE
  8
gg1
 62
1
 40
0.000000
 41
0.000000
 66
  1
  0
VERTEX
  8
gg1
 10
0.714000
 20
-0.386000
  0
VERTEX
  8
gg1
 10
0.724000
 20
-0.376000
  0
VERTEX
  8
gg1
 10
0.744000
 20
-0.376000
  0
VERTEX
  8
gg1
 10
0.754000
 20
-0.386000
  0
VERTEX
  8
gg1
 10
0.754000
 20
-0.426000
  0
VERTEX
  8
gg1
 10
0.744000
 20
-0.436000
  0
VERTEX
  8
gg1
 10
0.724000
 20
-0.436000
  0
VERTEX
  8
gg1
 10
0.714000
 20
-0.426000
  0
VERTEX
  8
gg1
 10
0.714000
 20
-0.386000
  0
SEQEND
  8
gg1
  0
POLYLINE
  8
gg1
 62
1
 40
0.000000
 41
0.000000
 66
  1
  0
VERTEX
  8
gg1
 10
0.774000
 20
-0.386000
  0
VERTEX
  8
gg1
 10
0.784000
 20
-0.376000
  0
VERTEX
  8
gg1
 10
0.804000
 20
-0.376000
  0
VERTEX
  8
gg1
 10
0.814000
 20
-0.386000
  0
VERTEX
  8
gg1
 10
0.814000
 20
-0.426000
  0
VERTEX
  8
gg1
 10
0.804000
 20
-0.436000
  0
VERTEX
  8
gg1
 10
0.784000
 20
-0.436000
  0
VERTEX
  8
gg1
 10
0.774000
 20
-0.426000
  0
VERTEX
  8
gg1
 10
0.774000
 20
-0.386000
  0
SEQEND
  8
gg1
  0
POLYLINE
  8
gg1
 62
1
 40
0.000000
 41
0.000000
 66
  1
  0
VERTEX
  8
gg1
 10
0.834000
 20
-0.436000
  0
VERTEX
  8
gg1
 10
0.834000
 20
-0.396000
  0
VERTEX
  8
gg1
 10
0.844000
 20
-0.396000
  0
VERTEX
  8
gg1
 10
0.854000
 20
-0.406000
  0
VERTEX
  8
gg1
 10
0.854000
 20
-0.436000
  0
VERTEX
  8
gg1
 10
0.854000
 20
-0.406000
  0
VERTEX
  8
gg1
 10
0.864000
 20
-0.396000
  0
VERTEX
  8
gg1
 10
0.874000
 20
-0.406000
  0
VERTEX
  8
gg1
 10
0.874000
 20
-0.436000
  0
SEQEND
  8
gg1
  0
POLYLINE
  8
gg1
 62
1
 40
0.000000
 41
0.000000
 66
  1
  0
VERTEX
  8
gg1
 10
0.894000
 20
-0.436000
  0
VERTEX
  8
gg1
 10
0.914000
 20
-0.436000
  0
VERTEX
  8
gg1
 10
0.904000
 20
-0.436000
  0
VERTEX
  8
gg1
 10
0.904000
 20
-0.396000
  0
VERTEX
  8
gg1
 10
0.894000
 20
-0.396000
  0
SEQEND
  8
gg1
  0
POLYLINE
  8
gg1
 62
1
 40
0.000000
 41
0.000000
 66
  1
  0
VERTEX
  8
gg1
 10
0.943900
 20
-0.436000
  0
VERTEX
  8
gg1
 10
0.963900
 20
-0.436000
  0
VERTEX
  8
gg1
 10
0.953900
 20
-0.436000
  0
VERTEX
  8
gg1
 10
0.953900
 20
-0.376000
  0
VERTEX
  8
gg1
 10
0.943900
 20
-0.376000
  0
SEQEND
  8
gg1
  0
ENDSEC
  0
EOF
