  0
SECTION
  2
HEADER
  9
$EXTMIN
 10
-0.278000
 20
-0.169000
  9
$EXTMAX
 10
0.545000
 20
0.395000
  9
$LIMMIN
 10
-0.278000
 20
-0.169000
  9
$LIMMAX
 10
0.545000
 20
0.395000
  9
$FILLMODE
 70
  1
  0
ENDSEC
  0
SECTION
  2
TABLES
  0
TABLE
  2
LTYPE
 70
  1
  0
LTYPE
  2
CONTINUOUS
 70
 64
  3
Solid line
 72
 65
 73
  0
 40
0.0
  0
ENDTAB
  0
TABLE
  2
LAYER
 70
 1
  0
LAYER
  2
0
 70
  0
 62
7
  6
CONTINUOUS
  0
LAYER
  2
gg1
 70
  0
 62
1
  6
CONTINUOUS
  0
ENDTAB
  0
TABLE
  2
STYLE
 70
  1
  0
STYLE
  2
STANDARD
 70
  0
 40
0.0
 41
1.0
 50
0.0
 71
  0
 42
0.2
  3
txt
  4

  0
ENDTAB
  0
ENDSEC
  0
SECTION
  2
BLOCKS
  0
BLOCK
  8
0
  2
D10
 70
64
 10
0.0
 20
0.0
  3
D10
  0
CIRCLE
  8
0
 10
0.000000
 20
0.000000
 40
0.005000
 0
ENDBLK
  8
0
  0
BLOCK
  8
0
  2
D11
 70
64
 10
0.0
 20
0.0
  3
D11
  0
CIRCLE
  8
0
 10
0.000000
 20
0.000000
 40
0.002500
 0
ENDBLK
  8
0
  0
BLOCK
  8
0
  2
D12
 70
64
 10
0.0
 20
0.0
  3
D12
  0
CIRCLE
  8
0
 10
0.000000
 20
0.000000
 40
0.003000
 0
ENDBLK
  8
0
  0
ENDSEC
  0
SECTION
  2
ENTITIES
  0
POLYLINE
  8
gg1
 62
1
 40
0.000000
 41
0.000000
 66
  1
  0
VERTEX
  8
gg1
 10
-0.175000
 20
0.000000
  0
VERTEX
  8
gg1
 10
-0.010000
 20
0.000000
  0
SEQEND
  8
gg1
  0
POLYLINE
  8
gg1
 62
1
 40
0.000000
 41
0.000000
 66
  1
  0
VERTEX
  8
gg1
 10
-0.175000
 20
0.390000
  0
VERTEX
  8
gg1
 10
-0.010000
 20
0.390000
  0
SEQEND
  8
gg1
  0
POLYLINE
  8
gg1
 62
1
 40
0.000000
 41
0.000000
 66
  1
  0
VERTEX
  8
gg1
 10
-0.165000
 20
0.000000
  0
VERTEX
  8
gg1
 10
-0.165000
 20
0.195000
  0
VERTEX
  8
gg1
 10
-0.165000
 20
0.390000
  0
SEQEND
  8
gg1
  0
POLYLINE
  8
gg1
 62
1
 40
0.000000
 41
0.000000
 66
  1
  0
VERTEX
  8
gg1
 10
-0.165000
 20
0.000000
  0
VERTEX
  8
gg1
 10
-0.145000
 20
0.060000
  0
SEQEND
  8
gg1
  0
POLYLINE
  8
gg1
 62
1
 40
0.000000
 41
0.000000
 66
  1
  0
VERTEX
  8
gg1
 10
-0.185000
 20
0.060000
  0
VERTEX
  8
gg1
 10
-0.165000
 20
0.000000
  0
SEQEND
  8
gg1
  0
POLYLINE
  8
gg1
 62
1
 40
0.000000
 41
0.000000
 66
  1
  0
VERTEX
  8
gg1
 10
-0.185000
 20
0.330000
  0
VERTEX
  8
gg1
 10
-0.165000
 20
0.390000
  0
VERTEX
  8
gg1
 10
-0.145000
 20
0.330000
  0
SEQEND
  8
gg1
  0
POLYLINE
  8
gg1
 62
1
 40
0.000000
 41
0.000000
 66
  1
  0
VERTEX
  8
gg1
 10
0.500000
 20
-0.140000
  0
VERTEX
  8
gg1
 10
0.500000
 20
-0.010000
  0
SEQEND
  8
gg1
  0
POLYLINE
  8
gg1
 62
1
 40
0.000000
 41
0.000000
 66
  1
  0
VERTEX
  8
gg1
 10
0.000000
 20
-0.140000
  0
VERTEX
  8
gg1
 10
0.000000
 20
-0.010000
  0
SEQEND
  8
gg1
  0
POLYLINE
  8
gg1
 62
1
 40
0.000000
 41
0.000000
 66
  1
  0
VERTEX
  8
gg1
 10
0.404900
 20
-0.130000
  0
VERTEX
  8
gg1
 10
0.500000
 20
-0.130000
  0
SEQEND
  8
gg1
  0
POLYLINE
  8
gg1
 62
1
 40
0.000000
 41
0.000000
 66
  1
  0
VERTEX
  8
gg1
 10
0.000000
 20
-0.130000
  0
VERTEX
  8
gg1
 10
0.063100
 20
-0.130000
  0
SEQEND
  8
gg1
  0
POLYLINE
  8
gg1
 62
1
 40
0.000000
 41
0.000000
 66
  1
  0
VERTEX
  8
gg1
 10
0.440000
 20
-0.110000
  0
VERTEX
  8
gg1
 10
0.500000
 20
-0.130000
  0
SEQEND
  8
gg1
  0
POLYLINE
  8
gg1
 62
1
 40
0.000000
 41
0.000000
 66
  1
  0
VERTEX
  8
gg1
 10
0.440000
 20
-0.150000
  0
VERTEX
  8
gg1
 10
0.500000
 20
-0.130000
  0
SEQEND
  8
gg1
  0
POLYLINE
  8
gg1
 62
1
 40
0.000000
 41
0.000000
 66
  1
  0
VERTEX
  8
gg1
 10
0.000000
 20
-0.130000
  0
VERTEX
  8
gg1
 10
0.060000
 20
-0.150000
  0
SEQEND
  8
gg1
  0
POLYLINE
  8
gg1
 62
1
 40
0.000000
 41
0.000000
 66
  1
  0
VERTEX
  8
gg1
 10
0.000000
 20
-0.130000
  0
VERTEX
  8
gg1
 10
0.060000
 20
-0.110000
  0
SEQEND
  8
gg1
  0
POLYLINE
  8
gg1
 62
1
 40
0.000000
 41
0.000000
 66
  1
  0
VERTEX
  8
gg1
 10
0.000000
 20
0.000000
  0
VERTEX
  8
gg1
 10
0.500000
 20
0.000000
  0
VERTEX
  8
gg1
 10
0.500000
 20
0.390000
  0
SEQEND
  8
gg1
  0
POLYLINE
  8
gg1
 62
1
 40
0.000000
 41
0.000000
 66
  1
  0
VERTEX
  8
gg1
 10
0.000000
 20
0.390000
  0
VERTEX
  8
gg1
 10
0.500000
 20
0.390000
  0
SEQEND
  8
gg1
  0
POLYLINE
  8
gg1
 62
1
 40
0.000000
 41
0.000000
 66
  1
  0
VERTEX
  8
gg1
 10
0.000000
 20
0.000000
  0
VERTEX
  8
gg1
 10
0.000000
 20
0.390000
  0
SEQEND
  8
gg1
  0
POLYLINE
  8
gg1
 62
1
 40
0.000000
 41
0.000000
 66
  1
  0
VERTEX
  8
gg1
 10
0.030000
 20
0.050000
  0
VERTEX
  8
gg1
 10
0.070000
 20
0.050000
  0
SEQEND
  8
gg1
  0
POLYLINE
  8
gg1
 62
1
 40
0.000000
 41
0.000000
 66
  1
  0
VERTEX
  8
gg1
 10
0.050000
 20
0.030000
  0
VERTEX
  8
gg1
 10
0.050000
 20
0.070000
  0
SEQEND
  8
gg1
  0
POLYLINE
  8
gg1
 62
1
 40
0.000000
 41
0.000000
 66
  1
  0
VERTEX
  8
gg1
 10
0.130000
 20
0.050000
  0
VERTEX
  8
gg1
 10
0.170000
 20
0.050000
  0
SEQEND
  8
gg1
  0
POLYLINE
  8
gg1
 62
1
 40
0.000000
 41
0.000000
 66
  1
  0
VERTEX
  8
gg1
 10
0.150000
 20
0.030000
  0
VERTEX
  8
gg1
 10
0.150000
 20
0.070000
  0
SEQEND
  8
gg1
  0
POLYLINE
  8
gg1
 62
1
 40
0.000000
 41
0.000000
 66
  1
  0
VERTEX
  8
gg1
 10
0.230000
 20
0.050000
  0
VERTEX
  8
gg1
 10
0.270000
 20
0.050000
  0
SEQEND
  8
gg1
  0
POLYLINE
  8
gg1
 62
1
 40
0.000000
 41
0.000000
 66
  1
  0
VERTEX
  8
gg1
 10
0.250000
 20
0.030000
  0
VERTEX
  8
gg1
 10
0.250000
 20
0.070000
  0
SEQEND
  8
gg1
  0
POLYLINE
  8
gg1
 62
1
 40
0.000000
 41
0.000000
 66
  1
  0
VERTEX
  8
gg1
 10
0.330000
 20
0.050000
  0
VERTEX
  8
gg1
 10
0.370000
 20
0.050000
  0
SEQEND
  8
gg1
  0
POLYLINE
  8
gg1
 62
1
 40
0.000000
 41
0.000000
 66
  1
  0
VERTEX
  8
gg1
 10
0.350000
 20
0.030000
  0
VERTEX
  8
gg1
 10
0.350000
 20
0.070000
  0
SEQEND
  8
gg1
  0
POLYLINE
  8
gg1
 62
1
 40
0.000000
 41
0.000000
 66
  1
  0
VERTEX
  8
gg1
 10
0.430000
 20
0.050000
  0
VERTEX
  8
gg1
 10
0.470000
 20
0.050000
  0
SEQEND
  8
gg1
  0
POLYLINE
  8
gg1
 62
1
 40
0.000000
 41
0.000000
 66
  1
  0
VERTEX
  8
gg1
 10
0.450000
 20
0.030000
  0
VERTEX
  8
gg1
 10
0.450000
 20
0.070000
  0
SEQEND
  8
gg1
  0
POLYLINE
  8
gg1
 62
1
 40
0.000000
 41
0.000000
 66
  1
  0
VERTEX
  8
gg1
 10
0.134800
 20
0.230000
  0
VERTEX
  8
gg1
 10
0.162400
 20
0.230000
  0
SEQEND
  8
gg1
  0
POLYLINE
  8
gg1
 62
1
 40
0.000000
 41
0.000000
 66
  1
  0
VERTEX
  8
gg1
 10
0.148600
 20
0.216200
  0
VERTEX
  8
gg1
 10
0.148600
 20
0.243800
  0
SEQEND
  8
gg1
  0
POLYLINE
  8
gg1
 62
1
 40
0.000000
 41
0.000000
 66
  1
  0
VERTEX
  8
gg1
 10
0.140700
 20
0.230000
  0
VERTEX
  8
gg1
 10
0.168300
 20
0.230000
  0
SEQEND
  8
gg1
  0
POLYLINE
  8
gg1
 62
1
 40
0.000000
 41
0.000000
 66
  1
  0
VERTEX
  8
gg1
 10
0.154500
 20
0.216200
  0
VERTEX
  8
gg1
 10
0.154500
 20
0.243800
  0
SEQEND
  8
gg1
  0
POLYLINE
  8
gg1
 62
1
 40
0.000000
 41
0.000000
 66
  1
  0
VERTEX
  8
gg1
 10
0.374000
 20
0.345200
  0
VERTEX
  8
gg1
 10
0.401600
 20
0.345200
  0
SEQEND
  8
gg1
  0
POLYLINE
  8
gg1
 62
1
 40
0.000000
 41
0.000000
 66
  1
  0
VERTEX
  8
gg1
 10
0.387800
 20
0.331400
  0
VERTEX
  8
gg1
 10
0.387800
 20
0.358900
  0
SEQEND
  8
gg1
  0
POLYLINE
  8
gg1
 62
1
 40
0.000000
 41
0.000000
 66
  1
  0
VERTEX
  8
gg1
 10
0.331700
 20
0.230000
  0
VERTEX
  8
gg1
 10
0.359300
 20
0.230000
  0
SEQEND
  8
gg1
  0
POLYLINE
  8
gg1
 62
1
 40
0.000000
 41
0.000000
 66
  1
  0
VERTEX
  8
gg1
 10
0.345500
 20
0.216200
  0
VERTEX
  8
gg1
 10
0.345500
 20
0.243800
  0
SEQEND
  8
gg1
  0
POLYLINE
  8
gg1
 62
1
 40
0.000000
 41
0.000000
 66
  1
  0
VERTEX
  8
gg1
 10
0.337600
 20
0.230000
  0
VERTEX
  8
gg1
 10
0.365200
 20
0.230000
  0
SEQEND
  8
gg1
  0
POLYLINE
  8
gg1
 62
1
 40
0.000000
 41
0.000000
 66
  1
  0
VERTEX
  8
gg1
 10
0.351400
 20
0.216200
  0
VERTEX
  8
gg1
 10
0.351400
 20
0.243800
  0
SEQEND
  8
gg1
  0
POLYLINE
  8
gg1
 62
1
 40
0.000000
 41
0.000000
 66
  1
  0
VERTEX
  8
gg1
 10
0.374000
 20
0.327400
  0
VERTEX
  8
gg1
 10
0.401600
 20
0.327400
  0
SEQEND
  8
gg1
  0
POLYLINE
  8
gg1
 62
1
 40
0.000000
 41
0.000000
 66
  1
  0
VERTEX
  8
gg1
 10
0.387800
 20
0.313700
  0
VERTEX
  8
gg1
 10
0.387800
 20
0.341200
  0
SEQEND
  8
gg1
  0
POLYLINE
  8
gg1
 62
1
 40
0.000000
 41
0.000000
 66
  1
  0
VERTEX
  8
gg1
 10
0.098400
 20
0.327400
  0
VERTEX
  8
gg1
 10
0.126000
 20
0.327400
  0
SEQEND
  8
gg1
  0
POLYLINE
  8
gg1
 62
1
 40
0.000000
 41
0.000000
 66
  1
  0
VERTEX
  8
gg1
 10
0.112200
 20
0.313700
  0
VERTEX
  8
gg1
 10
0.112200
 20
0.341200
  0
SEQEND
  8
gg1
  0
POLYLINE
  8
gg1
 62
1
 40
0.000000
 41
0.000000
 66
  1
  0
VERTEX
  8
gg1
 10
0.098400
 20
0.345200
  0
VERTEX
  8
gg1
 10
0.126000
 20
0.345200
  0
SEQEND
  8
gg1
  0
POLYLINE
  8
gg1
 62
1
 40
0.000000
 41
0.000000
 66
  1
  0
VERTEX
  8
gg1
 10
0.112200
 20
0.331400
  0
VERTEX
  8
gg1
 10
0.112200
 20
0.358900
  0
SEQEND
  8
gg1
  0
POLYLINE
  8
gg1
 62
1
 40
0.000000
 41
0.000000
 66
  1
  0
VERTEX
  8
gg1
 10
-0.043000
 20
0.250000
  0
VERTEX
  8
gg1
 10
0.043000
 20
0.250000
  0
SEQEND
  8
gg1
  0
POLYLINE
  8
gg1
 62
1
 40
0.000000
 41
0.000000
 66
  1
  0
VERTEX
  8
gg1
 10
0.000000
 20
0.207000
  0
VERTEX
  8
gg1
 10
0.000000
 20
0.293000
  0
SEQEND
  8
gg1
  0
POLYLINE
  8
gg1
 62
1
 40
0.000000
 41
0.000000
 66
  1
  0
VERTEX
  8
gg1
 10
0.457000
 20
0.250000
  0
VERTEX
  8
gg1
 10
0.543000
 20
0.250000
  0
SEQEND
  8
gg1
  0
POLYLINE
  8
gg1
 62
1
 40
0.000000
 41
0.000000
 66
  1
  0
VERTEX
  8
gg1
 10
0.500000
 20
0.207000
  0
VERTEX
  8
gg1
 10
0.500000
 20
0.293000
  0
SEQEND
  8
gg1
  0
POLYLINE
  8
gg1
 62
1
 40
0.000000
 41
0.000000
 66
  1
  0
VERTEX
  8
gg1
 10
-0.265000
 20
0.040000
  0
VERTEX
  8
gg1
 10
-0.275000
 20
0.050000
  0
VERTEX
  8
gg1
 10
-0.275000
 20
0.070000
  0
VERTEX
  8
gg1
 10
-0.265000
 20
0.080000
  0
VERTEX
  8
gg1
 10
-0.255000
 20
0.080000
  0
VERTEX
  8
gg1
 10
-0.245000
 20
0.070000
  0
VERTEX
  8
gg1
 10
-0.245000
 20
0.060000
  0
VERTEX
  8
gg1
 10
-0.245000
 20
0.070000
  0
VERTEX
  8
gg1
 10
-0.235000
 20
0.080000
  0
VERTEX
  8
gg1
 10
-0.225000
 20
0.080000
  0
VERTEX
  8
gg1
 10
-0.215000
 20
0.070000
  0
VERTEX
  8
gg1
 10
-0.215000
 20
0.050000
  0
VERTEX
  8
gg1
 10
-0.225000
 20
0.040000
  0
SEQEND
  8
gg1
  0
POLYLINE
  8
gg1
 62
1
 40
0.000000
 41
0.000000
 66
  1
  0
VERTEX
  8
gg1
 10
-0.225000
 20
0.100000
  0
VERTEX
  8
gg1
 10
-0.215000
 20
0.110000
  0
VERTEX
  8
gg1
 10
-0.215000
 20
0.130000
  0
VERTEX
  8
gg1
 10
-0.225000
 20
0.140000
  0
VERTEX
  8
gg1
 10
-0.265000
 20
0.140000
  0
VERTEX
  8
gg1
 10
-0.275000
 20
0.130000
  0
VERTEX
  8
gg1
 10
-0.275000
 20
0.110000
  0
VERTEX
  8
gg1
 10
-0.265000
 20
0.100000
  0
VERTEX
  8
gg1
 10
-0.255000
 20
0.100000
  0
VERTEX
  8
gg1
 10
-0.245000
 20
0.110000
  0
VERTEX
  8
gg1
 10
-0.245000
 20
0.140000
  0
SEQEND
  8
gg1
  0
POLYLINE
  8
gg1
 62
1
 40
0.000000
 41
0.000000
 66
  1
  0
VERTEX
  8
gg1
 10
-0.265000
 20
0.160000
  0
VERTEX
  8
gg1
 10
-0.275000
 20
0.170000
  0
VERTEX
  8
gg1
 10
-0.275000
 20
0.190000
  0
VERTEX
  8
gg1
 10
-0.265000
 20
0.199900
  0
VERTEX
  8
gg1
 10
-0.225000
 20
0.199900
  0
VERTEX
  8
gg1
 10
-0.215000
 20
0.190000
  0
VERTEX
  8
gg1
 10
-0.215000
 20
0.170000
  0
VERTEX
  8
gg1
 10
-0.225000
 20
0.160000
  0
VERTEX
  8
gg1
 10
-0.265000
 20
0.160000
  0
SEQEND
  8
gg1
  0
POLYLINE
  8
gg1
 62
1
 40
0.000000
 41
0.000000
 66
  1
  0
VERTEX
  8
gg1
 10
-0.215000
 20
0.219900
  0
VERTEX
  8
gg1
 10
-0.255000
 20
0.219900
  0
VERTEX
  8
gg1
 10
-0.255000
 20
0.229900
  0
VERTEX
  8
gg1
 10
-0.245000
 20
0.239900
  0
VERTEX
  8
gg1
 10
-0.215000
 20
0.239900
  0
VERTEX
  8
gg1
 10
-0.245000
 20
0.239900
  0
VERTEX
  8
gg1
 10
-0.255000
 20
0.249900
  0
VERTEX
  8
gg1
 10
-0.245000
 20
0.259900
  0
VERTEX
  8
gg1
 10
-0.215000
 20
0.259900
  0
SEQEND
  8
gg1
  0
POLYLINE
  8
gg1
 62
1
 40
0.000000
 41
0.000000
 66
  1
  0
VERTEX
  8
gg1
 10
-0.215000
 20
0.279900
  0
VERTEX
  8
gg1
 10
-0.215000
 20
0.299900
  0
VERTEX
  8
gg1
 10
-0.215000
 20
0.289900
  0
VERTEX
  8
gg1
 10
-0.255000
 20
0.289900
  0
VERTEX
  8
gg1
 10
-0.255000
 20
0.279900
  0
SEQEND
  8
gg1
  0
POLYLINE
  8
gg1
 62
1
 40
0.000000
 41
0.000000
 66
  1
  0
VERTEX
  8
gg1
 10
-0.215000
 20
0.329900
  0
VERTEX
  8
gg1
 10
-0.215000
 20
0.349900
  0
VERTEX
  8
gg1
 10
-0.215000
 20
0.339900
  0
VERTEX
  8
gg1
 10
-0.275000
 20
0.339900
  0
VERTEX
  8
gg1
 10
-0.275000
 20
0.329900
  0
SEQEND
  8
gg1
  0
POLYLINE
  8
gg1
 62
1
 40
0.000000
 41
0.000000
 66
  1
  0
VERTEX
  8
gg1
 10
0.119000
 20
-0.106000
  0
VERTEX
  8
gg1
 10
0.079000
 20
-0.106000
  0
VERTEX
  8
gg1
 10
0.079000
 20
-0.136000
  0
VERTEX
  8
gg1
 10
0.099000
 20
-0.126000
  0
VERTEX
  8
gg1
 10
0.109000
 20
-0.126000
  0
VERTEX
  8
gg1
 10
0.119000
 20
-0.136000
  0
VERTEX
  8
gg1
 10
0.119000
 20
-0.156000
  0
VERTEX
  8
gg1
 10
0.109000
 20
-0.166000
  0
VERTEX
  8
gg1
 10
0.089000
 20
-0.166000
  0
VERTEX
  8
gg1
 10
0.079000
 20
-0.156000
  0
SEQEND
  8
gg1
  0
POLYLINE
  8
gg1
 62
1
 40
0.000000
 41
0.000000
 66
  1
  0
VERTEX
  8
gg1
 10
0.139000
 20
-0.116000
  0
VERTEX
  8
gg1
 10
0.149000
 20
-0.106000
  0
VERTEX
  8
gg1
 10
0.169000
 20
-0.106000
  0
VERTEX
  8
gg1
 10
0.179000
 20
-0.116000
  0
VERTEX
  8
gg1
 10
0.179000
 20
-0.156000
  0
VERTEX
  8
gg1
 10
0.169000
 20
-0.166000
  0
VERTEX
  8
gg1
 10
0.149000
 20
-0.166000
  0
VERTEX
  8
gg1
 10
0.139000
 20
-0.156000
  0
VERTEX
  8
gg1
 10
0.139000
 20
-0.116000
  0
SEQEND
  8
gg1
  0
POLYLINE
  8
gg1
 62
1
 40
0.000000
 41
0.000000
 66
  1
  0
VERTEX
  8
gg1
 10
0.199000
 20
-0.116000
  0
VERTEX
  8
gg1
 10
0.209000
 20
-0.106000
  0
VERTEX
  8
gg1
 10
0.229000
 20
-0.106000
  0
VERTEX
  8
gg1
 10
0.239000
 20
-0.116000
  0
VERTEX
  8
gg1
 10
0.239000
 20
-0.156000
  0
VERTEX
  8
gg1
 10
0.229000
 20
-0.166000
  0
VERTEX
  8
gg1
 10
0.209000
 20
-0.166000
  0
VERTEX
  8
gg1
 10
0.199000
 20
-0.156000
  0
VERTEX
  8
gg1
 10
0.199000
 20
-0.116000
  0
SEQEND
  8
gg1
  0
POLYLINE
  8
gg1
 62
1
 40
0.000000
 41
0.000000
 66
  1
  0
VERTEX
  8
gg1
 10
0.259000
 20
-0.166000
  0
VERTEX
  8
gg1
 10
0.259000
 20
-0.126000
  0
VERTEX
  8
gg1
 10
0.269000
 20
-0.126000
  0
VERTEX
  8
gg1
 10
0.279000
 20
-0.136000
  0
VERTEX
  8
gg1
 10
0.279000
 20
-0.166000
  0
VERTEX
  8
gg1
 10
0.279000
 20
-0.136000
  0
VERTEX
  8
gg1
 10
0.289000
 20
-0.126000
  0
VERTEX
  8
gg1
 10
0.299000
 20
-0.136000
  0
VERTEX
  8
gg1
 10
0.299000
 20
-0.166000
  0
SEQEND
  8
gg1
  0
POLYLINE
  8
gg1
 62
1
 40
0.000000
 41
0.000000
 66
  1
  0
VERTEX
  8
gg1
 10
0.319000
 20
-0.166000
  0
VERTEX
  8
gg1
 10
0.339000
 20
-0.166000
  0
VERTEX
  8
gg1
 10
0.329000
 20
-0.166000
  0
VERTEX
  8
gg1
 10
0.329000
 20
-0.126000
  0
VERTEX
  8
gg1
 10
0.319000
 20
-0.126000
  0
SEQEND
  8
gg1
  0
POLYLINE
  8
gg1
 62
1
 40
0.000000
 41
0.000000
 66
  1
  0
VERTEX
  8
gg1
 10
0.369000
 20
-0.166000
  0
VERTEX
  8
gg1
 10
0.388900
 20
-0.166000
  0
VERTEX
  8
gg1
 10
0.379000
 20
-0.166000
  0
VERTEX
  8
gg1
 10
0.379000
 20
-0.106000
  0
VERTEX
  8
gg1
 10
0.369000
 20
-0.106000
  0
SEQEND
  8
gg1
  0
ENDSEC
  0
EOF
