  0
SECTION
  2
HEADER
  9
$EXTMIN
 10
-0.125000
 20
-0.443000
  9
$EXTMAX
 10
0.325000
 20
0.520000
  9
$LIMMIN
 10
-0.125000
 20
-0.443000
  9
$LIMMAX
 10
0.325000
 20
0.520000
  9
$FILLMODE
 70
  1
  0
ENDSEC
  0
SECTION
  2
TABLES
  0
TABLE
  2
LTYPE
 70
  1
  0
LTYPE
  2
CONTINUOUS
 70
 64
  3
Solid line
 72
 65
 73
  0
 40
0.0
  0
ENDTAB
  0
TABLE
  2
LAYER
 70
 1
  0
LAYER
  2
0
 70
  0
 62
7
  6
CONTINUOUS
  0
LAYER
  2
gg1
 70
  0
 62
1
  6
CONTINUOUS
  0
ENDTAB
  0
TABLE
  2
STYLE
 70
  1
  0
STYLE
  2
STANDARD
 70
  0
 40
0.0
 41
1.0
 50
0.0
 71
  0
 42
0.2
  3
txt
  4

  0
ENDTAB
  0
ENDSEC
  0
SECTION
  2
BLOCKS
  0
BLOCK
  8
0
  2
D10
 70
64
 10
0.0
 20
0.0
  3
D10
  0
CIRCLE
  8
0
 10
0.000000
 20
0.000000
 40
0.005000
 0
ENDBLK
  8
0
  0
BLOCK
  8
0
  2
D11
 70
64
 10
0.0
 20
0.0
  3
D11
  0
CIRCLE
  8
0
 10
0.000000
 20
0.000000
 40
0.002500
 0
ENDBLK
  8
0
  0
BLOCK
  8
0
  2
D12
 70
64
 10
0.0
 20
0.0
  3
D12
  0
CIRCLE
  8
0
 10
0.000000
 20
0.000000
 40
0.003000
 0
ENDBLK
  8
0
  0
ENDSEC
  0
SECTION
  2
ENTITIES
  0
POLYLINE
  8
gg1
 62
1
 40
0.000000
 41
0.000000
 66
  1
  0
VERTEX
  8
gg1
 10
-0.110000
 20
0.000000
  0
VERTEX
  8
gg1
 10
-0.010000
 20
0.000000
  0
SEQEND
  8
gg1
  0
POLYLINE
  8
gg1
 62
1
 40
0.000000
 41
0.000000
 66
  1
  0
VERTEX
  8
gg1
 10
-0.110000
 20
0.515000
  0
VERTEX
  8
gg1
 10
-0.010000
 20
0.515000
  0
SEQEND
  8
gg1
  0
POLYLINE
  8
gg1
 62
1
 40
0.000000
 41
0.000000
 66
  1
  0
VERTEX
  8
gg1
 10
-0.100000
 20
0.000000
  0
VERTEX
  8
gg1
 10
-0.100000
 20
0.100500
  0
SEQEND
  8
gg1
  0
POLYLINE
  8
gg1
 62
1
 40
0.000000
 41
0.000000
 66
  1
  0
VERTEX
  8
gg1
 10
-0.100000
 20
0.382500
  0
VERTEX
  8
gg1
 10
-0.100000
 20
0.515000
  0
SEQEND
  8
gg1
  0
POLYLINE
  8
gg1
 62
1
 40
0.000000
 41
0.000000
 66
  1
  0
VERTEX
  8
gg1
 10
-0.100000
 20
0.000000
  0
VERTEX
  8
gg1
 10
-0.080000
 20
0.060000
  0
SEQEND
  8
gg1
  0
POLYLINE
  8
gg1
 62
1
 40
0.000000
 41
0.000000
 66
  1
  0
VERTEX
  8
gg1
 10
-0.120000
 20
0.060000
  0
VERTEX
  8
gg1
 10
-0.100000
 20
0.000000
  0
SEQEND
  8
gg1
  0
POLYLINE
  8
gg1
 62
1
 40
0.000000
 41
0.000000
 66
  1
  0
VERTEX
  8
gg1
 10
-0.120000
 20
0.455000
  0
VERTEX
  8
gg1
 10
-0.100000
 20
0.515000
  0
VERTEX
  8
gg1
 10
-0.080000
 20
0.455000
  0
SEQEND
  8
gg1
  0
POLYLINE
  8
gg1
 62
1
 40
0.000000
 41
0.000000
 66
  1
  0
VERTEX
  8
gg1
 10
0.320000
 20
-0.345000
  0
VERTEX
  8
gg1
 10
0.320000
 20
-0.010000
  0
SEQEND
  8
gg1
  0
POLYLINE
  8
gg1
 62
1
 40
0.000000
 41
0.000000
 66
  1
  0
VERTEX
  8
gg1
 10
0.000000
 20
-0.345000
  0
VERTEX
  8
gg1
 10
0.000000
 20
-0.010000
  0
SEQEND
  8
gg1
  0
POLYLINE
  8
gg1
 62
1
 40
0.000000
 41
0.000000
 66
  1
  0
VERTEX
  8
gg1
 10
0.160000
 20
-0.335000
  0
VERTEX
  8
gg1
 10
0.320000
 20
-0.335000
  0
SEQEND
  8
gg1
  0
POLYLINE
  8
gg1
 62
1
 40
0.000000
 41
0.000000
 66
  1
  0
VERTEX
  8
gg1
 10
0.000000
 20
-0.335000
  0
VERTEX
  8
gg1
 10
0.160000
 20
-0.335000
  0
SEQEND
  8
gg1
  0
POLYLINE
  8
gg1
 62
1
 40
0.000000
 41
0.000000
 66
  1
  0
VERTEX
  8
gg1
 10
0.260000
 20
-0.315000
  0
VERTEX
  8
gg1
 10
0.320000
 20
-0.335000
  0
SEQEND
  8
gg1
  0
POLYLINE
  8
gg1
 62
1
 40
0.000000
 41
0.000000
 66
  1
  0
VERTEX
  8
gg1
 10
0.260000
 20
-0.355000
  0
VERTEX
  8
gg1
 10
0.320000
 20
-0.335000
  0
SEQEND
  8
gg1
  0
POLYLINE
  8
gg1
 62
1
 40
0.000000
 41
0.000000
 66
  1
  0
VERTEX
  8
gg1
 10
0.000000
 20
-0.335000
  0
VERTEX
  8
gg1
 10
0.060000
 20
-0.355000
  0
SEQEND
  8
gg1
  0
POLYLINE
  8
gg1
 62
1
 40
0.000000
 41
0.000000
 66
  1
  0
VERTEX
  8
gg1
 10
0.000000
 20
-0.335000
  0
VERTEX
  8
gg1
 10
0.060000
 20
-0.315000
  0
SEQEND
  8
gg1
  0
POLYLINE
  8
gg1
 62
1
 40
0.000000
 41
0.000000
 66
  1
  0
VERTEX
  8
gg1
 10
0.000000
 20
0.000000
  0
VERTEX
  8
gg1
 10
0.000000
 20
0.515000
  0
VERTEX
  8
gg1
 10
0.320000
 20
0.515000
  0
SEQEND
  8
gg1
  0
POLYLINE
  8
gg1
 62
1
 40
0.000000
 41
0.000000
 66
  1
  0
VERTEX
  8
gg1
 10
0.320000
 20
0.000000
  0
VERTEX
  8
gg1
 10
0.320000
 20
0.515000
  0
SEQEND
  8
gg1
  0
POLYLINE
  8
gg1
 62
1
 40
0.000000
 41
0.000000
 66
  1
  0
VERTEX
  8
gg1
 10
0.000000
 20
0.000000
  0
VERTEX
  8
gg1
 10
0.320000
 20
0.000000
  0
SEQEND
  8
gg1
  0
POLYLINE
  8
gg1
 62
1
 40
0.000000
 41
0.000000
 66
  1
  0
VERTEX
  8
gg1
 10
0.040000
 20
0.050000
  0
VERTEX
  8
gg1
 10
0.080000
 20
0.050000
  0
SEQEND
  8
gg1
  0
POLYLINE
  8
gg1
 62
1
 40
0.000000
 41
0.000000
 66
  1
  0
VERTEX
  8
gg1
 10
0.060000
 20
0.030000
  0
VERTEX
  8
gg1
 10
0.060000
 20
0.070000
  0
SEQEND
  8
gg1
  0
POLYLINE
  8
gg1
 62
1
 40
0.000000
 41
0.000000
 66
  1
  0
VERTEX
  8
gg1
 10
0.140000
 20
0.050000
  0
VERTEX
  8
gg1
 10
0.180000
 20
0.050000
  0
SEQEND
  8
gg1
  0
POLYLINE
  8
gg1
 62
1
 40
0.000000
 41
0.000000
 66
  1
  0
VERTEX
  8
gg1
 10
0.160000
 20
0.030000
  0
VERTEX
  8
gg1
 10
0.160000
 20
0.070000
  0
SEQEND
  8
gg1
  0
POLYLINE
  8
gg1
 62
1
 40
0.000000
 41
0.000000
 66
  1
  0
VERTEX
  8
gg1
 10
0.240000
 20
0.050000
  0
VERTEX
  8
gg1
 10
0.280000
 20
0.050000
  0
SEQEND
  8
gg1
  0
POLYLINE
  8
gg1
 62
1
 40
0.000000
 41
0.000000
 66
  1
  0
VERTEX
  8
gg1
 10
0.260000
 20
0.030000
  0
VERTEX
  8
gg1
 10
0.260000
 20
0.070000
  0
SEQEND
  8
gg1
  0
POLYLINE
  8
gg1
 62
1
 40
0.000000
 41
0.000000
 66
  1
  0
VERTEX
  8
gg1
 10
0.057500
 20
0.448000
  0
VERTEX
  8
gg1
 10
0.072500
 20
0.448000
  0
SEQEND
  8
gg1
  0
POLYLINE
  8
gg1
 62
1
 40
0.000000
 41
0.000000
 66
  1
  0
VERTEX
  8
gg1
 10
0.065000
 20
0.440500
  0
VERTEX
  8
gg1
 10
0.065000
 20
0.455500
  0
SEQEND
  8
gg1
  0
POLYLINE
  8
gg1
 62
1
 40
0.000000
 41
0.000000
 66
  1
  0
VERTEX
  8
gg1
 10
0.140500
 20
0.475000
  0
VERTEX
  8
gg1
 10
0.155500
 20
0.475000
  0
SEQEND
  8
gg1
  0
POLYLINE
  8
gg1
 62
1
 40
0.000000
 41
0.000000
 66
  1
  0
VERTEX
  8
gg1
 10
0.148000
 20
0.467500
  0
VERTEX
  8
gg1
 10
0.148000
 20
0.482500
  0
SEQEND
  8
gg1
  0
POLYLINE
  8
gg1
 62
1
 40
0.000000
 41
0.000000
 66
  1
  0
VERTEX
  8
gg1
 10
0.067500
 20
0.263000
  0
VERTEX
  8
gg1
 10
0.082500
 20
0.263000
  0
SEQEND
  8
gg1
  0
POLYLINE
  8
gg1
 62
1
 40
0.000000
 41
0.000000
 66
  1
  0
VERTEX
  8
gg1
 10
0.075000
 20
0.255500
  0
VERTEX
  8
gg1
 10
0.075000
 20
0.270500
  0
SEQEND
  8
gg1
  0
POLYLINE
  8
gg1
 62
1
 40
0.000000
 41
0.000000
 66
  1
  0
VERTEX
  8
gg1
 10
0.099500
 20
0.313000
  0
VERTEX
  8
gg1
 10
0.114500
 20
0.313000
  0
SEQEND
  8
gg1
  0
POLYLINE
  8
gg1
 62
1
 40
0.000000
 41
0.000000
 66
  1
  0
VERTEX
  8
gg1
 10
0.107000
 20
0.305500
  0
VERTEX
  8
gg1
 10
0.107000
 20
0.320500
  0
SEQEND
  8
gg1
  0
POLYLINE
  8
gg1
 62
1
 40
0.000000
 41
0.000000
 66
  1
  0
VERTEX
  8
gg1
 10
0.073500
 20
0.299000
  0
VERTEX
  8
gg1
 10
0.088500
 20
0.299000
  0
SEQEND
  8
gg1
  0
POLYLINE
  8
gg1
 62
1
 40
0.000000
 41
0.000000
 66
  1
  0
VERTEX
  8
gg1
 10
0.081000
 20
0.291500
  0
VERTEX
  8
gg1
 10
0.081000
 20
0.306500
  0
SEQEND
  8
gg1
  0
POLYLINE
  8
gg1
 62
1
 40
0.000000
 41
0.000000
 66
  1
  0
VERTEX
  8
gg1
 10
0.073500
 20
0.327000
  0
VERTEX
  8
gg1
 10
0.088500
 20
0.327000
  0
SEQEND
  8
gg1
  0
POLYLINE
  8
gg1
 62
1
 40
0.000000
 41
0.000000
 66
  1
  0
VERTEX
  8
gg1
 10
0.081000
 20
0.319500
  0
VERTEX
  8
gg1
 10
0.081000
 20
0.334500
  0
SEQEND
  8
gg1
  0
POLYLINE
  8
gg1
 62
1
 40
0.000000
 41
0.000000
 66
  1
  0
VERTEX
  8
gg1
 10
0.269000
 20
0.470000
  0
VERTEX
  8
gg1
 10
0.289000
 20
0.470000
  0
SEQEND
  8
gg1
  0
POLYLINE
  8
gg1
 62
1
 40
0.000000
 41
0.000000
 66
  1
  0
VERTEX
  8
gg1
 10
0.279000
 20
0.460000
  0
VERTEX
  8
gg1
 10
0.279000
 20
0.480000
  0
SEQEND
  8
gg1
  0
POLYLINE
  8
gg1
 62
1
 40
0.000000
 41
0.000000
 66
  1
  0
VERTEX
  8
gg1
 10
0.141500
 20
0.408000
  0
VERTEX
  8
gg1
 10
0.156500
 20
0.408000
  0
SEQEND
  8
gg1
  0
POLYLINE
  8
gg1
 62
1
 40
0.000000
 41
0.000000
 66
  1
  0
VERTEX
  8
gg1
 10
0.149000
 20
0.400500
  0
VERTEX
  8
gg1
 10
0.149000
 20
0.415500
  0
SEQEND
  8
gg1
  0
POLYLINE
  8
gg1
 62
1
 40
0.000000
 41
0.000000
 66
  1
  0
VERTEX
  8
gg1
 10
0.141500
 20
0.436000
  0
VERTEX
  8
gg1
 10
0.156500
 20
0.436000
  0
SEQEND
  8
gg1
  0
POLYLINE
  8
gg1
 62
1
 40
0.000000
 41
0.000000
 66
  1
  0
VERTEX
  8
gg1
 10
0.149000
 20
0.428500
  0
VERTEX
  8
gg1
 10
0.149000
 20
0.443500
  0
SEQEND
  8
gg1
  0
POLYLINE
  8
gg1
 62
1
 40
0.000000
 41
0.000000
 66
  1
  0
VERTEX
  8
gg1
 10
0.060500
 20
0.139000
  0
VERTEX
  8
gg1
 10
0.075500
 20
0.139000
  0
SEQEND
  8
gg1
  0
POLYLINE
  8
gg1
 62
1
 40
0.000000
 41
0.000000
 66
  1
  0
VERTEX
  8
gg1
 10
0.068000
 20
0.131500
  0
VERTEX
  8
gg1
 10
0.068000
 20
0.146500
  0
SEQEND
  8
gg1
  0
POLYLINE
  8
gg1
 62
1
 40
0.000000
 41
0.000000
 66
  1
  0
VERTEX
  8
gg1
 10
0.129500
 20
0.154000
  0
VERTEX
  8
gg1
 10
0.144500
 20
0.154000
  0
SEQEND
  8
gg1
  0
POLYLINE
  8
gg1
 62
1
 40
0.000000
 41
0.000000
 66
  1
  0
VERTEX
  8
gg1
 10
0.137000
 20
0.146500
  0
VERTEX
  8
gg1
 10
0.137000
 20
0.161500
  0
SEQEND
  8
gg1
  0
POLYLINE
  8
gg1
 62
1
 40
0.000000
 41
0.000000
 66
  1
  0
VERTEX
  8
gg1
 10
0.175500
 20
0.154000
  0
VERTEX
  8
gg1
 10
0.190500
 20
0.154000
  0
SEQEND
  8
gg1
  0
POLYLINE
  8
gg1
 62
1
 40
0.000000
 41
0.000000
 66
  1
  0
VERTEX
  8
gg1
 10
0.183000
 20
0.146500
  0
VERTEX
  8
gg1
 10
0.183000
 20
0.161500
  0
SEQEND
  8
gg1
  0
POLYLINE
  8
gg1
 62
1
 40
0.000000
 41
0.000000
 66
  1
  0
VERTEX
  8
gg1
 10
0.056500
 20
0.168000
  0
VERTEX
  8
gg1
 10
0.071500
 20
0.168000
  0
SEQEND
  8
gg1
  0
POLYLINE
  8
gg1
 62
1
 40
0.000000
 41
0.000000
 66
  1
  0
VERTEX
  8
gg1
 10
0.064000
 20
0.160500
  0
VERTEX
  8
gg1
 10
0.064000
 20
0.175500
  0
SEQEND
  8
gg1
  0
POLYLINE
  8
gg1
 62
1
 40
0.000000
 41
0.000000
 66
  1
  0
VERTEX
  8
gg1
 10
0.230500
 20
0.150000
  0
VERTEX
  8
gg1
 10
0.245500
 20
0.150000
  0
SEQEND
  8
gg1
  0
POLYLINE
  8
gg1
 62
1
 40
0.000000
 41
0.000000
 66
  1
  0
VERTEX
  8
gg1
 10
0.238000
 20
0.142500
  0
VERTEX
  8
gg1
 10
0.238000
 20
0.157500
  0
SEQEND
  8
gg1
  0
POLYLINE
  8
gg1
 62
1
 40
0.000000
 41
0.000000
 66
  1
  0
VERTEX
  8
gg1
 10
0.230500
 20
0.121000
  0
VERTEX
  8
gg1
 10
0.245500
 20
0.121000
  0
SEQEND
  8
gg1
  0
POLYLINE
  8
gg1
 62
1
 40
0.000000
 41
0.000000
 66
  1
  0
VERTEX
  8
gg1
 10
0.238000
 20
0.113500
  0
VERTEX
  8
gg1
 10
0.238000
 20
0.128500
  0
SEQEND
  8
gg1
  0
POLYLINE
  8
gg1
 62
1
 40
0.000000
 41
0.000000
 66
  1
  0
VERTEX
  8
gg1
 10
0.060500
 20
0.109000
  0
VERTEX
  8
gg1
 10
0.075500
 20
0.109000
  0
SEQEND
  8
gg1
  0
POLYLINE
  8
gg1
 62
1
 40
0.000000
 41
0.000000
 66
  1
  0
VERTEX
  8
gg1
 10
0.068000
 20
0.101500
  0
VERTEX
  8
gg1
 10
0.068000
 20
0.116500
  0
SEQEND
  8
gg1
  0
POLYLINE
  8
gg1
 62
1
 40
0.000000
 41
0.000000
 66
  1
  0
VERTEX
  8
gg1
 10
-0.119000
 20
0.149900
  0
VERTEX
  8
gg1
 10
-0.119000
 20
0.116500
  0
VERTEX
  8
gg1
 10
-0.094000
 20
0.116500
  0
VERTEX
  8
gg1
 10
-0.102300
 20
0.133200
  0
VERTEX
  8
gg1
 10
-0.102300
 20
0.141500
  0
VERTEX
  8
gg1
 10
-0.094000
 20
0.149900
  0
VERTEX
  8
gg1
 10
-0.077300
 20
0.149900
  0
VERTEX
  8
gg1
 10
-0.069000
 20
0.141500
  0
VERTEX
  8
gg1
 10
-0.069000
 20
0.124900
  0
VERTEX
  8
gg1
 10
-0.077300
 20
0.116500
  0
SEQEND
  8
gg1
  0
POLYLINE
  8
gg1
 62
1
 40
0.000000
 41
0.000000
 66
  1
  0
VERTEX
  8
gg1
 10
-0.069000
 20
0.166500
  0
VERTEX
  8
gg1
 10
-0.069000
 20
0.183200
  0
VERTEX
  8
gg1
 10
-0.069000
 20
0.174900
  0
VERTEX
  8
gg1
 10
-0.119000
 20
0.174900
  0
VERTEX
  8
gg1
 10
-0.110700
 20
0.166500
  0
SEQEND
  8
gg1
  0
POLYLINE
  8
gg1
 62
1
 40
0.000000
 41
0.000000
 66
  1
  0
VERTEX
  8
gg1
 10
-0.119000
 20
0.241500
  0
VERTEX
  8
gg1
 10
-0.119000
 20
0.208200
  0
VERTEX
  8
gg1
 10
-0.094000
 20
0.208200
  0
VERTEX
  8
gg1
 10
-0.102300
 20
0.224800
  0
VERTEX
  8
gg1
 10
-0.102300
 20
0.233200
  0
VERTEX
  8
gg1
 10
-0.094000
 20
0.241500
  0
VERTEX
  8
gg1
 10
-0.077300
 20
0.241500
  0
VERTEX
  8
gg1
 10
-0.069000
 20
0.233200
  0
VERTEX
  8
gg1
 10
-0.069000
 20
0.216500
  0
VERTEX
  8
gg1
 10
-0.077300
 20
0.208200
  0
SEQEND
  8
gg1
  0
POLYLINE
  8
gg1
 62
1
 40
0.000000
 41
0.000000
 66
  1
  0
VERTEX
  8
gg1
 10
-0.069000
 20
0.258200
  0
VERTEX
  8
gg1
 10
-0.102300
 20
0.258200
  0
VERTEX
  8
gg1
 10
-0.102300
 20
0.266500
  0
VERTEX
  8
gg1
 10
-0.094000
 20
0.274800
  0
VERTEX
  8
gg1
 10
-0.069000
 20
0.274800
  0
VERTEX
  8
gg1
 10
-0.094000
 20
0.274800
  0
VERTEX
  8
gg1
 10
-0.102300
 20
0.283200
  0
VERTEX
  8
gg1
 10
-0.094000
 20
0.291500
  0
VERTEX
  8
gg1
 10
-0.069000
 20
0.291500
  0
SEQEND
  8
gg1
  0
POLYLINE
  8
gg1
 62
1
 40
0.000000
 41
0.000000
 66
  1
  0
VERTEX
  8
gg1
 10
-0.069000
 20
0.308100
  0
VERTEX
  8
gg1
 10
-0.069000
 20
0.324800
  0
VERTEX
  8
gg1
 10
-0.069000
 20
0.316500
  0
VERTEX
  8
gg1
 10
-0.102300
 20
0.316500
  0
VERTEX
  8
gg1
 10
-0.102300
 20
0.308100
  0
SEQEND
  8
gg1
  0
POLYLINE
  8
gg1
 62
1
 40
0.000000
 41
0.000000
 66
  1
  0
VERTEX
  8
gg1
 10
-0.069000
 20
0.349800
  0
VERTEX
  8
gg1
 10
-0.069000
 20
0.366500
  0
VERTEX
  8
gg1
 10
-0.069000
 20
0.358100
  0
VERTEX
  8
gg1
 10
-0.119000
 20
0.358100
  0
VERTEX
  8
gg1
 10
-0.119000
 20
0.349800
  0
SEQEND
  8
gg1
  0
POLYLINE
  8
gg1
 62
1
 40
0.000000
 41
0.000000
 66
  1
  0
VERTEX
  8
gg1
 10
0.045000
 20
-0.398300
  0
VERTEX
  8
gg1
 10
0.053300
 20
-0.390000
  0
VERTEX
  8
gg1
 10
0.070000
 20
-0.390000
  0
VERTEX
  8
gg1
 10
0.078300
 20
-0.398300
  0
VERTEX
  8
gg1
 10
0.078300
 20
-0.406700
  0
VERTEX
  8
gg1
 10
0.070000
 20
-0.415000
  0
VERTEX
  8
gg1
 10
0.061700
 20
-0.415000
  0
VERTEX
  8
gg1
 10
0.070000
 20
-0.415000
  0
VERTEX
  8
gg1
 10
0.078300
 20
-0.423300
  0
VERTEX
  8
gg1
 10
0.078300
 20
-0.431700
  0
VERTEX
  8
gg1
 10
0.070000
 20
-0.440000
  0
VERTEX
  8
gg1
 10
0.053300
 20
-0.440000
  0
VERTEX
  8
gg1
 10
0.045000
 20
-0.431700
  0
SEQEND
  8
gg1
  0
POLYLINE
  8
gg1
 62
1
 40
0.000000
 41
0.000000
 66
  1
  0
VERTEX
  8
gg1
 10
0.128300
 20
-0.440000
  0
VERTEX
  8
gg1
 10
0.095000
 20
-0.440000
  0
VERTEX
  8
gg1
 10
0.128300
 20
-0.406700
  0
VERTEX
  8
gg1
 10
0.128300
 20
-0.398300
  0
VERTEX
  8
gg1
 10
0.120000
 20
-0.390000
  0
VERTEX
  8
gg1
 10
0.103300
 20
-0.390000
  0
VERTEX
  8
gg1
 10
0.095000
 20
-0.398300
  0
SEQEND
  8
gg1
  0
POLYLINE
  8
gg1
 62
1
 40
0.000000
 41
0.000000
 66
  1
  0
VERTEX
  8
gg1
 10
0.145000
 20
-0.398300
  0
VERTEX
  8
gg1
 10
0.153300
 20
-0.390000
  0
VERTEX
  8
gg1
 10
0.170000
 20
-0.390000
  0
VERTEX
  8
gg1
 10
0.178300
 20
-0.398300
  0
VERTEX
  8
gg1
 10
0.178300
 20
-0.431700
  0
VERTEX
  8
gg1
 10
0.170000
 20
-0.440000
  0
VERTEX
  8
gg1
 10
0.153300
 20
-0.440000
  0
VERTEX
  8
gg1
 10
0.145000
 20
-0.431700
  0
VERTEX
  8
gg1
 10
0.145000
 20
-0.398300
  0
SEQEND
  8
gg1
  0
POLYLINE
  8
gg1
 62
1
 40
0.000000
 41
0.000000
 66
  1
  0
VERTEX
  8
gg1
 10
0.195000
 20
-0.440000
  0
VERTEX
  8
gg1
 10
0.195000
 20
-0.406700
  0
VERTEX
  8
gg1
 10
0.203300
 20
-0.406700
  0
VERTEX
  8
gg1
 10
0.211600
 20
-0.415000
  0
VERTEX
  8
gg1
 10
0.211600
 20
-0.440000
  0
VERTEX
  8
gg1
 10
0.211600
 20
-0.415000
  0
VERTEX
  8
gg1
 10
0.219900
 20
-0.406700
  0
VERTEX
  8
gg1
 10
0.228300
 20
-0.415000
  0
VERTEX
  8
gg1
 10
0.228300
 20
-0.440000
  0
SEQEND
  8
gg1
  0
POLYLINE
  8
gg1
 62
1
 40
0.000000
 41
0.000000
 66
  1
  0
VERTEX
  8
gg1
 10
0.244900
 20
-0.440000
  0
VERTEX
  8
gg1
 10
0.261600
 20
-0.440000
  0
VERTEX
  8
gg1
 10
0.253300
 20
-0.440000
  0
VERTEX
  8
gg1
 10
0.253300
 20
-0.406700
  0
VERTEX
  8
gg1
 10
0.244900
 20
-0.406700
  0
SEQEND
  8
gg1
  0
POLYLINE
  8
gg1
 62
1
 40
0.000000
 41
0.000000
 66
  1
  0
VERTEX
  8
gg1
 10
0.286600
 20
-0.440000
  0
VERTEX
  8
gg1
 10
0.303300
 20
-0.440000
  0
VERTEX
  8
gg1
 10
0.294900
 20
-0.440000
  0
VERTEX
  8
gg1
 10
0.294900
 20
-0.390000
  0
VERTEX
  8
gg1
 10
0.286600
 20
-0.390000
  0
SEQEND
  8
gg1
  0
ENDSEC
  0
EOF
