  0
SECTION
  2
HEADER
  9
$EXTMIN
 10
-0.177000
 20
-0.424000
  9
$EXTMAX
 10
1.705000
 20
0.830000
  9
$LIMMIN
 10
-0.177000
 20
-0.424000
  9
$LIMMAX
 10
1.705000
 20
0.830000
  9
$FILLMODE
 70
  1
  0
ENDSEC
  0
SECTION
  2
TABLES
  0
TABLE
  2
LTYPE
 70
  1
  0
LTYPE
  2
CONTINUOUS
 70
 64
  3
Solid line
 72
 65
 73
  0
 40
0.0
  0
ENDTAB
  0
TABLE
  2
LAYER
 70
 1
  0
LAYER
  2
0
 70
  0
 62
7
  6
CONTINUOUS
  0
LAYER
  2
gg1
 70
  0
 62
1
  6
CONTINUOUS
  0
ENDTAB
  0
TABLE
  2
STYLE
 70
  1
  0
STYLE
  2
STANDARD
 70
  0
 40
0.0
 41
1.0
 50
0.0
 71
  0
 42
0.2
  3
txt
  4

  0
ENDTAB
  0
ENDSEC
  0
SECTION
  2
BLOCKS
  0
BLOCK
  8
0
  2
D10
 70
64
 10
0.0
 20
0.0
  3
D10
  0
CIRCLE
  8
0
 10
0.000000
 20
0.000000
 40
0.005000
 0
ENDBLK
  8
0
  0
BLOCK
  8
0
  2
D11
 70
64
 10
0.0
 20
0.0
  3
D11
  0
CIRCLE
  8
0
 10
0.000000
 20
0.000000
 40
0.002500
 0
ENDBLK
  8
0
  0
BLOCK
  8
0
  2
D12
 70
64
 10
0.0
 20
0.0
  3
D12
  0
CIRCLE
  8
0
 10
0.000000
 20
0.000000
 40
0.003000
 0
ENDBLK
  8
0
  0
ENDSEC
  0
SECTION
  2
ENTITIES
  0
POLYLINE
  8
gg1
 62
1
 40
0.000000
 41
0.000000
 66
  1
  0
VERTEX
  8
gg1
 10
1.700000
 20
-0.395000
  0
VERTEX
  8
gg1
 10
1.700000
 20
-0.010000
  0
SEQEND
  8
gg1
  0
POLYLINE
  8
gg1
 62
1
 40
0.000000
 41
0.000000
 66
  1
  0
VERTEX
  8
gg1
 10
0.000000
 20
-0.395000
  0
VERTEX
  8
gg1
 10
0.000000
 20
0.000000
  0
SEQEND
  8
gg1
  0
POLYLINE
  8
gg1
 62
1
 40
0.000000
 41
0.000000
 66
  1
  0
VERTEX
  8
gg1
 10
1.029900
 20
-0.385000
  0
VERTEX
  8
gg1
 10
1.700000
 20
-0.385000
  0
SEQEND
  8
gg1
  0
POLYLINE
  8
gg1
 62
1
 40
0.000000
 41
0.000000
 66
  1
  0
VERTEX
  8
gg1
 10
0.000000
 20
-0.385000
  0
VERTEX
  8
gg1
 10
0.638100
 20
-0.385000
  0
SEQEND
  8
gg1
  0
POLYLINE
  8
gg1
 62
1
 40
0.000000
 41
0.000000
 66
  1
  0
VERTEX
  8
gg1
 10
1.640000
 20
-0.365000
  0
VERTEX
  8
gg1
 10
1.700000
 20
-0.385000
  0
SEQEND
  8
gg1
  0
POLYLINE
  8
gg1
 62
1
 40
0.000000
 41
0.000000
 66
  1
  0
VERTEX
  8
gg1
 10
1.640000
 20
-0.405000
  0
VERTEX
  8
gg1
 10
1.700000
 20
-0.385000
  0
SEQEND
  8
gg1
  0
POLYLINE
  8
gg1
 62
1
 40
0.000000
 41
0.000000
 66
  1
  0
VERTEX
  8
gg1
 10
0.000000
 20
-0.385000
  0
VERTEX
  8
gg1
 10
0.060000
 20
-0.405000
  0
SEQEND
  8
gg1
  0
POLYLINE
  8
gg1
 62
1
 40
0.000000
 41
0.000000
 66
  1
  0
VERTEX
  8
gg1
 10
0.000000
 20
-0.385000
  0
VERTEX
  8
gg1
 10
0.060000
 20
-0.365000
  0
SEQEND
  8
gg1
  0
POLYLINE
  8
gg1
 62
1
 40
0.000000
 41
0.000000
 66
  1
  0
VERTEX
  8
gg1
 10
-0.160000
 20
0.000000
  0
VERTEX
  8
gg1
 10
0.000000
 20
0.000000
  0
SEQEND
  8
gg1
  0
POLYLINE
  8
gg1
 62
1
 40
0.000000
 41
0.000000
 66
  1
  0
VERTEX
  8
gg1
 10
-0.160000
 20
0.825000
  0
VERTEX
  8
gg1
 10
-0.010000
 20
0.825000
  0
SEQEND
  8
gg1
  0
POLYLINE
  8
gg1
 62
1
 40
0.000000
 41
0.000000
 66
  1
  0
VERTEX
  8
gg1
 10
-0.150000
 20
0.000000
  0
VERTEX
  8
gg1
 10
-0.150000
 20
0.225500
  0
SEQEND
  8
gg1
  0
POLYLINE
  8
gg1
 62
1
 40
0.000000
 41
0.000000
 66
  1
  0
VERTEX
  8
gg1
 10
-0.150000
 20
0.567400
  0
VERTEX
  8
gg1
 10
-0.150000
 20
0.825000
  0
SEQEND
  8
gg1
  0
POLYLINE
  8
gg1
 62
1
 40
0.000000
 41
0.000000
 66
  1
  0
VERTEX
  8
gg1
 10
-0.150000
 20
0.000000
  0
VERTEX
  8
gg1
 10
-0.130000
 20
0.060000
  0
SEQEND
  8
gg1
  0
POLYLINE
  8
gg1
 62
1
 40
0.000000
 41
0.000000
 66
  1
  0
VERTEX
  8
gg1
 10
-0.170000
 20
0.060000
  0
VERTEX
  8
gg1
 10
-0.150000
 20
0.000000
  0
SEQEND
  8
gg1
  0
POLYLINE
  8
gg1
 62
1
 40
0.000000
 41
0.000000
 66
  1
  0
VERTEX
  8
gg1
 10
-0.170000
 20
0.765000
  0
VERTEX
  8
gg1
 10
-0.150000
 20
0.825000
  0
VERTEX
  8
gg1
 10
-0.130000
 20
0.765000
  0
SEQEND
  8
gg1
  0
POLYLINE
  8
gg1
 62
1
 40
0.000000
 41
0.000000
 66
  1
  0
VERTEX
  8
gg1
 10
0.000000
 20
0.000000
  0
VERTEX
  8
gg1
 10
0.000000
 20
0.825000
  0
SEQEND
  8
gg1
  0
POLYLINE
  8
gg1
 62
1
 40
0.000000
 41
0.000000
 66
  1
  0
VERTEX
  8
gg1
 10
0.000000
 20
0.000000
  0
VERTEX
  8
gg1
 10
1.700000
 20
0.000000
  0
VERTEX
  8
gg1
 10
1.700000
 20
0.825000
  0
SEQEND
  8
gg1
  0
POLYLINE
  8
gg1
 62
1
 40
0.000000
 41
0.000000
 66
  1
  0
VERTEX
  8
gg1
 10
0.000000
 20
0.825000
  0
VERTEX
  8
gg1
 10
1.700000
 20
0.825000
  0
SEQEND
  8
gg1
  0
POLYLINE
  8
gg1
 62
1
 40
0.000000
 41
0.000000
 66
  1
  0
VERTEX
  8
gg1
 10
0.180000
 20
0.200000
  0
VERTEX
  8
gg1
 10
0.220000
 20
0.200000
  0
SEQEND
  8
gg1
  0
POLYLINE
  8
gg1
 62
1
 40
0.000000
 41
0.000000
 66
  1
  0
VERTEX
  8
gg1
 10
0.200000
 20
0.180000
  0
VERTEX
  8
gg1
 10
0.200000
 20
0.220000
  0
SEQEND
  8
gg1
  0
POLYLINE
  8
gg1
 62
1
 40
0.000000
 41
0.000000
 66
  1
  0
VERTEX
  8
gg1
 10
1.572000
 20
0.740000
  0
VERTEX
  8
gg1
 10
1.658000
 20
0.740000
  0
SEQEND
  8
gg1
  0
POLYLINE
  8
gg1
 62
1
 40
0.000000
 41
0.000000
 66
  1
  0
VERTEX
  8
gg1
 10
1.615000
 20
0.697000
  0
VERTEX
  8
gg1
 10
1.615000
 20
0.783000
  0
SEQEND
  8
gg1
  0
POLYLINE
  8
gg1
 62
1
 40
0.000000
 41
0.000000
 66
  1
  0
VERTEX
  8
gg1
 10
1.572000
 20
0.085000
  0
VERTEX
  8
gg1
 10
1.658000
 20
0.085000
  0
SEQEND
  8
gg1
  0
POLYLINE
  8
gg1
 62
1
 40
0.000000
 41
0.000000
 66
  1
  0
VERTEX
  8
gg1
 10
1.615000
 20
0.042000
  0
VERTEX
  8
gg1
 10
1.615000
 20
0.128000
  0
SEQEND
  8
gg1
  0
POLYLINE
  8
gg1
 62
1
 40
0.000000
 41
0.000000
 66
  1
  0
VERTEX
  8
gg1
 10
0.042000
 20
0.740000
  0
VERTEX
  8
gg1
 10
0.128000
 20
0.740000
  0
SEQEND
  8
gg1
  0
POLYLINE
  8
gg1
 62
1
 40
0.000000
 41
0.000000
 66
  1
  0
VERTEX
  8
gg1
 10
0.085000
 20
0.697000
  0
VERTEX
  8
gg1
 10
0.085000
 20
0.783000
  0
SEQEND
  8
gg1
  0
POLYLINE
  8
gg1
 62
1
 40
0.000000
 41
0.000000
 66
  1
  0
VERTEX
  8
gg1
 10
0.042000
 20
0.085000
  0
VERTEX
  8
gg1
 10
0.128000
 20
0.085000
  0
SEQEND
  8
gg1
  0
POLYLINE
  8
gg1
 62
1
 40
0.000000
 41
0.000000
 66
  1
  0
VERTEX
  8
gg1
 10
0.085000
 20
0.042000
  0
VERTEX
  8
gg1
 10
0.085000
 20
0.128000
  0
SEQEND
  8
gg1
  0
POLYLINE
  8
gg1
 62
1
 40
0.000000
 41
0.000000
 66
  1
  0
VERTEX
  8
gg1
 10
0.180000
 20
0.300000
  0
VERTEX
  8
gg1
 10
0.220000
 20
0.300000
  0
SEQEND
  8
gg1
  0
POLYLINE
  8
gg1
 62
1
 40
0.000000
 41
0.000000
 66
  1
  0
VERTEX
  8
gg1
 10
0.200000
 20
0.280000
  0
VERTEX
  8
gg1
 10
0.200000
 20
0.320000
  0
SEQEND
  8
gg1
  0
POLYLINE
  8
gg1
 62
1
 40
0.000000
 41
0.000000
 66
  1
  0
VERTEX
  8
gg1
 10
0.180000
 20
0.400000
  0
VERTEX
  8
gg1
 10
0.220000
 20
0.400000
  0
SEQEND
  8
gg1
  0
POLYLINE
  8
gg1
 62
1
 40
0.000000
 41
0.000000
 66
  1
  0
VERTEX
  8
gg1
 10
0.200000
 20
0.380000
  0
VERTEX
  8
gg1
 10
0.200000
 20
0.420000
  0
SEQEND
  8
gg1
  0
POLYLINE
  8
gg1
 62
1
 40
0.000000
 41
0.000000
 66
  1
  0
VERTEX
  8
gg1
 10
0.180000
 20
0.500000
  0
VERTEX
  8
gg1
 10
0.220000
 20
0.500000
  0
SEQEND
  8
gg1
  0
POLYLINE
  8
gg1
 62
1
 40
0.000000
 41
0.000000
 66
  1
  0
VERTEX
  8
gg1
 10
0.200000
 20
0.480000
  0
VERTEX
  8
gg1
 10
0.200000
 20
0.520000
  0
SEQEND
  8
gg1
  0
POLYLINE
  8
gg1
 62
1
 40
0.000000
 41
0.000000
 66
  1
  0
VERTEX
  8
gg1
 10
0.180000
 20
0.600000
  0
VERTEX
  8
gg1
 10
0.220000
 20
0.600000
  0
SEQEND
  8
gg1
  0
POLYLINE
  8
gg1
 62
1
 40
0.000000
 41
0.000000
 66
  1
  0
VERTEX
  8
gg1
 10
0.200000
 20
0.580000
  0
VERTEX
  8
gg1
 10
0.200000
 20
0.620000
  0
SEQEND
  8
gg1
  0
POLYLINE
  8
gg1
 62
1
 40
0.000000
 41
0.000000
 66
  1
  0
VERTEX
  8
gg1
 10
0.057000
 20
0.353200
  0
VERTEX
  8
gg1
 10
0.143000
 20
0.353200
  0
SEQEND
  8
gg1
  0
POLYLINE
  8
gg1
 62
1
 40
0.000000
 41
0.000000
 66
  1
  0
VERTEX
  8
gg1
 10
0.100000
 20
0.310100
  0
VERTEX
  8
gg1
 10
0.100000
 20
0.396100
  0
SEQEND
  8
gg1
  0
POLYLINE
  8
gg1
 62
1
 40
0.000000
 41
0.000000
 66
  1
  0
VERTEX
  8
gg1
 10
0.057000
 20
0.550000
  0
VERTEX
  8
gg1
 10
0.143000
 20
0.550000
  0
SEQEND
  8
gg1
  0
POLYLINE
  8
gg1
 62
1
 40
0.000000
 41
0.000000
 66
  1
  0
VERTEX
  8
gg1
 10
0.100000
 20
0.507000
  0
VERTEX
  8
gg1
 10
0.100000
 20
0.593000
  0
SEQEND
  8
gg1
  0
POLYLINE
  8
gg1
 62
1
 40
0.000000
 41
0.000000
 66
  1
  0
VERTEX
  8
gg1
 10
1.557000
 20
0.353200
  0
VERTEX
  8
gg1
 10
1.643000
 20
0.353200
  0
SEQEND
  8
gg1
  0
POLYLINE
  8
gg1
 62
1
 40
0.000000
 41
0.000000
 66
  1
  0
VERTEX
  8
gg1
 10
1.600000
 20
0.310100
  0
VERTEX
  8
gg1
 10
1.600000
 20
0.396100
  0
SEQEND
  8
gg1
  0
POLYLINE
  8
gg1
 62
1
 40
0.000000
 41
0.000000
 66
  1
  0
VERTEX
  8
gg1
 10
1.557000
 20
0.550000
  0
VERTEX
  8
gg1
 10
1.643000
 20
0.550000
  0
SEQEND
  8
gg1
  0
POLYLINE
  8
gg1
 62
1
 40
0.000000
 41
0.000000
 66
  1
  0
VERTEX
  8
gg1
 10
1.600000
 20
0.507000
  0
VERTEX
  8
gg1
 10
1.600000
 20
0.593000
  0
SEQEND
  8
gg1
  0
POLYLINE
  8
gg1
 62
1
 40
0.000000
 41
0.000000
 66
  1
  0
VERTEX
  8
gg1
 10
1.480000
 20
0.300000
  0
VERTEX
  8
gg1
 10
1.520000
 20
0.300000
  0
SEQEND
  8
gg1
  0
POLYLINE
  8
gg1
 62
1
 40
0.000000
 41
0.000000
 66
  1
  0
VERTEX
  8
gg1
 10
1.500000
 20
0.280000
  0
VERTEX
  8
gg1
 10
1.500000
 20
0.320000
  0
SEQEND
  8
gg1
  0
POLYLINE
  8
gg1
 62
1
 40
0.000000
 41
0.000000
 66
  1
  0
VERTEX
  8
gg1
 10
1.480000
 20
0.400000
  0
VERTEX
  8
gg1
 10
1.520000
 20
0.400000
  0
SEQEND
  8
gg1
  0
POLYLINE
  8
gg1
 62
1
 40
0.000000
 41
0.000000
 66
  1
  0
VERTEX
  8
gg1
 10
1.500000
 20
0.380000
  0
VERTEX
  8
gg1
 10
1.500000
 20
0.420000
  0
SEQEND
  8
gg1
  0
POLYLINE
  8
gg1
 62
1
 40
0.000000
 41
0.000000
 66
  1
  0
VERTEX
  8
gg1
 10
1.480000
 20
0.500000
  0
VERTEX
  8
gg1
 10
1.520000
 20
0.500000
  0
SEQEND
  8
gg1
  0
POLYLINE
  8
gg1
 62
1
 40
0.000000
 41
0.000000
 66
  1
  0
VERTEX
  8
gg1
 10
1.500000
 20
0.480000
  0
VERTEX
  8
gg1
 10
1.500000
 20
0.520000
  0
SEQEND
  8
gg1
  0
POLYLINE
  8
gg1
 62
1
 40
0.000000
 41
0.000000
 66
  1
  0
VERTEX
  8
gg1
 10
1.480000
 20
0.600000
  0
VERTEX
  8
gg1
 10
1.520000
 20
0.600000
  0
SEQEND
  8
gg1
  0
POLYLINE
  8
gg1
 62
1
 40
0.000000
 41
0.000000
 66
  1
  0
VERTEX
  8
gg1
 10
1.500000
 20
0.580000
  0
VERTEX
  8
gg1
 10
1.500000
 20
0.620000
  0
SEQEND
  8
gg1
  0
POLYLINE
  8
gg1
 62
1
 40
0.000000
 41
0.000000
 66
  1
  0
VERTEX
  8
gg1
 10
0.997500
 20
0.295000
  0
VERTEX
  8
gg1
 10
1.012500
 20
0.295000
  0
SEQEND
  8
gg1
  0
POLYLINE
  8
gg1
 62
1
 40
0.000000
 41
0.000000
 66
  1
  0
VERTEX
  8
gg1
 10
1.005000
 20
0.287500
  0
VERTEX
  8
gg1
 10
1.005000
 20
0.302500
  0
SEQEND
  8
gg1
  0
POLYLINE
  8
gg1
 62
1
 40
0.000000
 41
0.000000
 66
  1
  0
VERTEX
  8
gg1
 10
1.022500
 20
0.315000
  0
VERTEX
  8
gg1
 10
1.037500
 20
0.315000
  0
SEQEND
  8
gg1
  0
POLYLINE
  8
gg1
 62
1
 40
0.000000
 41
0.000000
 66
  1
  0
VERTEX
  8
gg1
 10
1.030000
 20
0.307500
  0
VERTEX
  8
gg1
 10
1.030000
 20
0.322500
  0
SEQEND
  8
gg1
  0
POLYLINE
  8
gg1
 62
1
 40
0.000000
 41
0.000000
 66
  1
  0
VERTEX
  8
gg1
 10
1.067500
 20
0.350000
  0
VERTEX
  8
gg1
 10
1.082500
 20
0.350000
  0
SEQEND
  8
gg1
  0
POLYLINE
  8
gg1
 62
1
 40
0.000000
 41
0.000000
 66
  1
  0
VERTEX
  8
gg1
 10
1.075000
 20
0.342500
  0
VERTEX
  8
gg1
 10
1.075000
 20
0.357500
  0
SEQEND
  8
gg1
  0
POLYLINE
  8
gg1
 62
1
 40
0.000000
 41
0.000000
 66
  1
  0
VERTEX
  8
gg1
 10
0.424500
 20
0.755000
  0
VERTEX
  8
gg1
 10
0.439500
 20
0.755000
  0
SEQEND
  8
gg1
  0
POLYLINE
  8
gg1
 62
1
 40
0.000000
 41
0.000000
 66
  1
  0
VERTEX
  8
gg1
 10
0.432000
 20
0.747500
  0
VERTEX
  8
gg1
 10
0.432000
 20
0.762500
  0
SEQEND
  8
gg1
  0
POLYLINE
  8
gg1
 62
1
 40
0.000000
 41
0.000000
 66
  1
  0
VERTEX
  8
gg1
 10
0.490500
 20
0.755000
  0
VERTEX
  8
gg1
 10
0.505500
 20
0.755000
  0
SEQEND
  8
gg1
  0
POLYLINE
  8
gg1
 62
1
 40
0.000000
 41
0.000000
 66
  1
  0
VERTEX
  8
gg1
 10
0.498000
 20
0.747500
  0
VERTEX
  8
gg1
 10
0.498000
 20
0.762500
  0
SEQEND
  8
gg1
  0
POLYLINE
  8
gg1
 62
1
 40
0.000000
 41
0.000000
 66
  1
  0
VERTEX
  8
gg1
 10
0.424500
 20
0.785000
  0
VERTEX
  8
gg1
 10
0.439500
 20
0.785000
  0
SEQEND
  8
gg1
  0
POLYLINE
  8
gg1
 62
1
 40
0.000000
 41
0.000000
 66
  1
  0
VERTEX
  8
gg1
 10
0.432000
 20
0.777500
  0
VERTEX
  8
gg1
 10
0.432000
 20
0.792500
  0
SEQEND
  8
gg1
  0
POLYLINE
  8
gg1
 62
1
 40
0.000000
 41
0.000000
 66
  1
  0
VERTEX
  8
gg1
 10
1.422500
 20
0.335000
  0
VERTEX
  8
gg1
 10
1.437500
 20
0.335000
  0
SEQEND
  8
gg1
  0
POLYLINE
  8
gg1
 62
1
 40
0.000000
 41
0.000000
 66
  1
  0
VERTEX
  8
gg1
 10
1.430000
 20
0.327500
  0
VERTEX
  8
gg1
 10
1.430000
 20
0.342500
  0
SEQEND
  8
gg1
  0
POLYLINE
  8
gg1
 62
1
 40
0.000000
 41
0.000000
 66
  1
  0
VERTEX
  8
gg1
 10
1.392500
 20
0.355000
  0
VERTEX
  8
gg1
 10
1.407500
 20
0.355000
  0
SEQEND
  8
gg1
  0
POLYLINE
  8
gg1
 62
1
 40
0.000000
 41
0.000000
 66
  1
  0
VERTEX
  8
gg1
 10
1.400000
 20
0.347500
  0
VERTEX
  8
gg1
 10
1.400000
 20
0.362500
  0
SEQEND
  8
gg1
  0
POLYLINE
  8
gg1
 62
1
 40
0.000000
 41
0.000000
 66
  1
  0
VERTEX
  8
gg1
 10
1.422500
 20
0.370000
  0
VERTEX
  8
gg1
 10
1.437500
 20
0.370000
  0
SEQEND
  8
gg1
  0
POLYLINE
  8
gg1
 62
1
 40
0.000000
 41
0.000000
 66
  1
  0
VERTEX
  8
gg1
 10
1.430000
 20
0.362500
  0
VERTEX
  8
gg1
 10
1.430000
 20
0.377500
  0
SEQEND
  8
gg1
  0
POLYLINE
  8
gg1
 62
1
 40
0.000000
 41
0.000000
 66
  1
  0
VERTEX
  8
gg1
 10
1.392500
 20
0.390000
  0
VERTEX
  8
gg1
 10
1.407500
 20
0.390000
  0
SEQEND
  8
gg1
  0
POLYLINE
  8
gg1
 62
1
 40
0.000000
 41
0.000000
 66
  1
  0
VERTEX
  8
gg1
 10
1.400000
 20
0.382500
  0
VERTEX
  8
gg1
 10
1.400000
 20
0.397500
  0
SEQEND
  8
gg1
  0
POLYLINE
  8
gg1
 62
1
 40
0.000000
 41
0.000000
 66
  1
  0
VERTEX
  8
gg1
 10
1.032500
 20
0.350000
  0
VERTEX
  8
gg1
 10
1.047500
 20
0.350000
  0
SEQEND
  8
gg1
  0
POLYLINE
  8
gg1
 62
1
 40
0.000000
 41
0.000000
 66
  1
  0
VERTEX
  8
gg1
 10
1.040000
 20
0.342500
  0
VERTEX
  8
gg1
 10
1.040000
 20
0.357500
  0
SEQEND
  8
gg1
  0
POLYLINE
  8
gg1
 62
1
 40
0.000000
 41
0.000000
 66
  1
  0
VERTEX
  8
gg1
 10
1.182500
 20
0.065000
  0
VERTEX
  8
gg1
 10
1.197500
 20
0.065000
  0
SEQEND
  8
gg1
  0
POLYLINE
  8
gg1
 62
1
 40
0.000000
 41
0.000000
 66
  1
  0
VERTEX
  8
gg1
 10
1.190000
 20
0.057500
  0
VERTEX
  8
gg1
 10
1.190000
 20
0.072500
  0
SEQEND
  8
gg1
  0
POLYLINE
  8
gg1
 62
1
 40
0.000000
 41
0.000000
 66
  1
  0
VERTEX
  8
gg1
 10
1.212500
 20
0.040000
  0
VERTEX
  8
gg1
 10
1.227500
 20
0.040000
  0
SEQEND
  8
gg1
  0
POLYLINE
  8
gg1
 62
1
 40
0.000000
 41
0.000000
 66
  1
  0
VERTEX
  8
gg1
 10
1.220000
 20
0.032500
  0
VERTEX
  8
gg1
 10
1.220000
 20
0.047500
  0
SEQEND
  8
gg1
  0
POLYLINE
  8
gg1
 62
1
 40
0.000000
 41
0.000000
 66
  1
  0
VERTEX
  8
gg1
 10
1.242500
 20
0.070000
  0
VERTEX
  8
gg1
 10
1.257500
 20
0.070000
  0
SEQEND
  8
gg1
  0
POLYLINE
  8
gg1
 62
1
 40
0.000000
 41
0.000000
 66
  1
  0
VERTEX
  8
gg1
 10
1.250000
 20
0.062500
  0
VERTEX
  8
gg1
 10
1.250000
 20
0.077500
  0
SEQEND
  8
gg1
  0
POLYLINE
  8
gg1
 62
1
 40
0.000000
 41
0.000000
 66
  1
  0
VERTEX
  8
gg1
 10
1.212500
 20
0.095000
  0
VERTEX
  8
gg1
 10
1.227500
 20
0.095000
  0
SEQEND
  8
gg1
  0
POLYLINE
  8
gg1
 62
1
 40
0.000000
 41
0.000000
 66
  1
  0
VERTEX
  8
gg1
 10
1.220000
 20
0.087500
  0
VERTEX
  8
gg1
 10
1.220000
 20
0.102500
  0
SEQEND
  8
gg1
  0
POLYLINE
  8
gg1
 62
1
 40
0.000000
 41
0.000000
 66
  1
  0
VERTEX
  8
gg1
 10
1.242500
 20
0.125000
  0
VERTEX
  8
gg1
 10
1.257500
 20
0.125000
  0
SEQEND
  8
gg1
  0
POLYLINE
  8
gg1
 62
1
 40
0.000000
 41
0.000000
 66
  1
  0
VERTEX
  8
gg1
 10
1.250000
 20
0.117500
  0
VERTEX
  8
gg1
 10
1.250000
 20
0.132500
  0
SEQEND
  8
gg1
  0
POLYLINE
  8
gg1
 62
1
 40
0.000000
 41
0.000000
 66
  1
  0
VERTEX
  8
gg1
 10
1.402500
 20
0.040000
  0
VERTEX
  8
gg1
 10
1.417500
 20
0.040000
  0
SEQEND
  8
gg1
  0
POLYLINE
  8
gg1
 62
1
 40
0.000000
 41
0.000000
 66
  1
  0
VERTEX
  8
gg1
 10
1.410000
 20
0.032500
  0
VERTEX
  8
gg1
 10
1.410000
 20
0.047500
  0
SEQEND
  8
gg1
  0
POLYLINE
  8
gg1
 62
1
 40
0.000000
 41
0.000000
 66
  1
  0
VERTEX
  8
gg1
 10
1.367500
 20
0.065000
  0
VERTEX
  8
gg1
 10
1.382500
 20
0.065000
  0
SEQEND
  8
gg1
  0
POLYLINE
  8
gg1
 62
1
 40
0.000000
 41
0.000000
 66
  1
  0
VERTEX
  8
gg1
 10
1.375000
 20
0.057500
  0
VERTEX
  8
gg1
 10
1.375000
 20
0.072500
  0
SEQEND
  8
gg1
  0
POLYLINE
  8
gg1
 62
1
 40
0.000000
 41
0.000000
 66
  1
  0
VERTEX
  8
gg1
 10
1.402500
 20
0.085000
  0
VERTEX
  8
gg1
 10
1.417500
 20
0.085000
  0
SEQEND
  8
gg1
  0
POLYLINE
  8
gg1
 62
1
 40
0.000000
 41
0.000000
 66
  1
  0
VERTEX
  8
gg1
 10
1.410000
 20
0.077500
  0
VERTEX
  8
gg1
 10
1.410000
 20
0.092500
  0
SEQEND
  8
gg1
  0
POLYLINE
  8
gg1
 62
1
 40
0.000000
 41
0.000000
 66
  1
  0
VERTEX
  8
gg1
 10
1.367500
 20
0.110000
  0
VERTEX
  8
gg1
 10
1.382500
 20
0.110000
  0
SEQEND
  8
gg1
  0
POLYLINE
  8
gg1
 62
1
 40
0.000000
 41
0.000000
 66
  1
  0
VERTEX
  8
gg1
 10
1.375000
 20
0.102500
  0
VERTEX
  8
gg1
 10
1.375000
 20
0.117500
  0
SEQEND
  8
gg1
  0
POLYLINE
  8
gg1
 62
1
 40
0.000000
 41
0.000000
 66
  1
  0
VERTEX
  8
gg1
 10
1.402500
 20
0.130000
  0
VERTEX
  8
gg1
 10
1.417500
 20
0.130000
  0
SEQEND
  8
gg1
  0
POLYLINE
  8
gg1
 62
1
 40
0.000000
 41
0.000000
 66
  1
  0
VERTEX
  8
gg1
 10
1.410000
 20
0.122500
  0
VERTEX
  8
gg1
 10
1.410000
 20
0.137500
  0
SEQEND
  8
gg1
  0
POLYLINE
  8
gg1
 62
1
 40
0.000000
 41
0.000000
 66
  1
  0
VERTEX
  8
gg1
 10
1.367500
 20
0.155000
  0
VERTEX
  8
gg1
 10
1.382500
 20
0.155000
  0
SEQEND
  8
gg1
  0
POLYLINE
  8
gg1
 62
1
 40
0.000000
 41
0.000000
 66
  1
  0
VERTEX
  8
gg1
 10
1.375000
 20
0.147500
  0
VERTEX
  8
gg1
 10
1.375000
 20
0.162500
  0
SEQEND
  8
gg1
  0
POLYLINE
  8
gg1
 62
1
 40
0.000000
 41
0.000000
 66
  1
  0
VERTEX
  8
gg1
 10
1.457500
 20
0.715000
  0
VERTEX
  8
gg1
 10
1.472500
 20
0.715000
  0
SEQEND
  8
gg1
  0
POLYLINE
  8
gg1
 62
1
 40
0.000000
 41
0.000000
 66
  1
  0
VERTEX
  8
gg1
 10
1.465000
 20
0.707500
  0
VERTEX
  8
gg1
 10
1.465000
 20
0.722500
  0
SEQEND
  8
gg1
  0
POLYLINE
  8
gg1
 62
1
 40
0.000000
 41
0.000000
 66
  1
  0
VERTEX
  8
gg1
 10
1.397500
 20
0.745000
  0
VERTEX
  8
gg1
 10
1.412500
 20
0.745000
  0
SEQEND
  8
gg1
  0
POLYLINE
  8
gg1
 62
1
 40
0.000000
 41
0.000000
 66
  1
  0
VERTEX
  8
gg1
 10
1.405000
 20
0.737500
  0
VERTEX
  8
gg1
 10
1.405000
 20
0.752500
  0
SEQEND
  8
gg1
  0
POLYLINE
  8
gg1
 62
1
 40
0.000000
 41
0.000000
 66
  1
  0
VERTEX
  8
gg1
 10
1.457500
 20
0.680000
  0
VERTEX
  8
gg1
 10
1.472500
 20
0.680000
  0
SEQEND
  8
gg1
  0
POLYLINE
  8
gg1
 62
1
 40
0.000000
 41
0.000000
 66
  1
  0
VERTEX
  8
gg1
 10
1.465000
 20
0.672500
  0
VERTEX
  8
gg1
 10
1.465000
 20
0.687500
  0
SEQEND
  8
gg1
  0
POLYLINE
  8
gg1
 62
1
 40
0.000000
 41
0.000000
 66
  1
  0
VERTEX
  8
gg1
 10
1.397500
 20
0.780000
  0
VERTEX
  8
gg1
 10
1.412500
 20
0.780000
  0
SEQEND
  8
gg1
  0
POLYLINE
  8
gg1
 62
1
 40
0.000000
 41
0.000000
 66
  1
  0
VERTEX
  8
gg1
 10
1.405000
 20
0.772500
  0
VERTEX
  8
gg1
 10
1.405000
 20
0.787500
  0
SEQEND
  8
gg1
  0
POLYLINE
  8
gg1
 62
1
 40
0.000000
 41
0.000000
 66
  1
  0
VERTEX
  8
gg1
 10
1.067500
 20
0.385000
  0
VERTEX
  8
gg1
 10
1.082500
 20
0.385000
  0
SEQEND
  8
gg1
  0
POLYLINE
  8
gg1
 62
1
 40
0.000000
 41
0.000000
 66
  1
  0
VERTEX
  8
gg1
 10
1.075000
 20
0.377500
  0
VERTEX
  8
gg1
 10
1.075000
 20
0.392500
  0
SEQEND
  8
gg1
  0
POLYLINE
  8
gg1
 62
1
 40
0.000000
 41
0.000000
 66
  1
  0
VERTEX
  8
gg1
 10
1.032500
 20
0.385000
  0
VERTEX
  8
gg1
 10
1.047500
 20
0.385000
  0
SEQEND
  8
gg1
  0
POLYLINE
  8
gg1
 62
1
 40
0.000000
 41
0.000000
 66
  1
  0
VERTEX
  8
gg1
 10
1.040000
 20
0.377500
  0
VERTEX
  8
gg1
 10
1.040000
 20
0.392500
  0
SEQEND
  8
gg1
  0
POLYLINE
  8
gg1
 62
1
 40
0.000000
 41
0.000000
 66
  1
  0
VERTEX
  8
gg1
 10
0.749500
 20
0.283000
  0
VERTEX
  8
gg1
 10
0.764500
 20
0.283000
  0
SEQEND
  8
gg1
  0
POLYLINE
  8
gg1
 62
1
 40
0.000000
 41
0.000000
 66
  1
  0
VERTEX
  8
gg1
 10
0.757000
 20
0.275500
  0
VERTEX
  8
gg1
 10
0.757000
 20
0.290500
  0
SEQEND
  8
gg1
  0
POLYLINE
  8
gg1
 62
1
 40
0.000000
 41
0.000000
 66
  1
  0
VERTEX
  8
gg1
 10
0.719500
 20
0.280000
  0
VERTEX
  8
gg1
 10
0.734500
 20
0.280000
  0
SEQEND
  8
gg1
  0
POLYLINE
  8
gg1
 62
1
 40
0.000000
 41
0.000000
 66
  1
  0
VERTEX
  8
gg1
 10
0.727000
 20
0.272500
  0
VERTEX
  8
gg1
 10
0.727000
 20
0.287500
  0
SEQEND
  8
gg1
  0
POLYLINE
  8
gg1
 62
1
 40
0.000000
 41
0.000000
 66
  1
  0
VERTEX
  8
gg1
 10
0.606500
 20
0.149000
  0
VERTEX
  8
gg1
 10
0.621500
 20
0.149000
  0
SEQEND
  8
gg1
  0
POLYLINE
  8
gg1
 62
1
 40
0.000000
 41
0.000000
 66
  1
  0
VERTEX
  8
gg1
 10
0.614000
 20
0.141500
  0
VERTEX
  8
gg1
 10
0.614000
 20
0.156500
  0
SEQEND
  8
gg1
  0
POLYLINE
  8
gg1
 62
1
 40
0.000000
 41
0.000000
 66
  1
  0
VERTEX
  8
gg1
 10
0.487500
 20
0.160000
  0
VERTEX
  8
gg1
 10
0.502500
 20
0.160000
  0
SEQEND
  8
gg1
  0
POLYLINE
  8
gg1
 62
1
 40
0.000000
 41
0.000000
 66
  1
  0
VERTEX
  8
gg1
 10
0.495000
 20
0.152500
  0
VERTEX
  8
gg1
 10
0.495000
 20
0.167500
  0
SEQEND
  8
gg1
  0
POLYLINE
  8
gg1
 62
1
 40
0.000000
 41
0.000000
 66
  1
  0
VERTEX
  8
gg1
 10
0.644800
 20
0.241700
  0
VERTEX
  8
gg1
 10
0.659800
 20
0.241700
  0
SEQEND
  8
gg1
  0
POLYLINE
  8
gg1
 62
1
 40
0.000000
 41
0.000000
 66
  1
  0
VERTEX
  8
gg1
 10
0.652300
 20
0.234200
  0
VERTEX
  8
gg1
 10
0.652300
 20
0.249200
  0
SEQEND
  8
gg1
  0
POLYLINE
  8
gg1
 62
1
 40
0.000000
 41
0.000000
 66
  1
  0
VERTEX
  8
gg1
 10
0.644800
 20
0.204300
  0
VERTEX
  8
gg1
 10
0.659800
 20
0.204300
  0
SEQEND
  8
gg1
  0
POLYLINE
  8
gg1
 62
1
 40
0.000000
 41
0.000000
 66
  1
  0
VERTEX
  8
gg1
 10
0.652300
 20
0.196800
  0
VERTEX
  8
gg1
 10
0.652300
 20
0.211800
  0
SEQEND
  8
gg1
  0
POLYLINE
  8
gg1
 62
1
 40
0.000000
 41
0.000000
 66
  1
  0
VERTEX
  8
gg1
 10
0.682200
 20
0.204300
  0
VERTEX
  8
gg1
 10
0.697200
 20
0.204300
  0
SEQEND
  8
gg1
  0
POLYLINE
  8
gg1
 62
1
 40
0.000000
 41
0.000000
 66
  1
  0
VERTEX
  8
gg1
 10
0.689700
 20
0.196800
  0
VERTEX
  8
gg1
 10
0.689700
 20
0.211800
  0
SEQEND
  8
gg1
  0
POLYLINE
  8
gg1
 62
1
 40
0.000000
 41
0.000000
 66
  1
  0
VERTEX
  8
gg1
 10
0.682200
 20
0.241700
  0
VERTEX
  8
gg1
 10
0.697200
 20
0.241700
  0
SEQEND
  8
gg1
  0
POLYLINE
  8
gg1
 62
1
 40
0.000000
 41
0.000000
 66
  1
  0
VERTEX
  8
gg1
 10
0.689700
 20
0.234200
  0
VERTEX
  8
gg1
 10
0.689700
 20
0.249200
  0
SEQEND
  8
gg1
  0
POLYLINE
  8
gg1
 62
1
 40
0.000000
 41
0.000000
 66
  1
  0
VERTEX
  8
gg1
 10
0.221500
 20
0.785000
  0
VERTEX
  8
gg1
 10
0.236500
 20
0.785000
  0
SEQEND
  8
gg1
  0
POLYLINE
  8
gg1
 62
1
 40
0.000000
 41
0.000000
 66
  1
  0
VERTEX
  8
gg1
 10
0.229000
 20
0.777500
  0
VERTEX
  8
gg1
 10
0.229000
 20
0.792500
  0
SEQEND
  8
gg1
  0
POLYLINE
  8
gg1
 62
1
 40
0.000000
 41
0.000000
 66
  1
  0
VERTEX
  8
gg1
 10
0.191500
 20
0.760000
  0
VERTEX
  8
gg1
 10
0.206500
 20
0.760000
  0
SEQEND
  8
gg1
  0
POLYLINE
  8
gg1
 62
1
 40
0.000000
 41
0.000000
 66
  1
  0
VERTEX
  8
gg1
 10
0.199000
 20
0.752500
  0
VERTEX
  8
gg1
 10
0.199000
 20
0.767500
  0
SEQEND
  8
gg1
  0
POLYLINE
  8
gg1
 62
1
 40
0.000000
 41
0.000000
 66
  1
  0
VERTEX
  8
gg1
 10
0.221500
 20
0.735000
  0
VERTEX
  8
gg1
 10
0.236500
 20
0.735000
  0
SEQEND
  8
gg1
  0
POLYLINE
  8
gg1
 62
1
 40
0.000000
 41
0.000000
 66
  1
  0
VERTEX
  8
gg1
 10
0.229000
 20
0.727500
  0
VERTEX
  8
gg1
 10
0.229000
 20
0.742500
  0
SEQEND
  8
gg1
  0
POLYLINE
  8
gg1
 62
1
 40
0.000000
 41
0.000000
 66
  1
  0
VERTEX
  8
gg1
 10
0.191500
 20
0.710000
  0
VERTEX
  8
gg1
 10
0.206500
 20
0.710000
  0
SEQEND
  8
gg1
  0
POLYLINE
  8
gg1
 62
1
 40
0.000000
 41
0.000000
 66
  1
  0
VERTEX
  8
gg1
 10
0.199000
 20
0.702500
  0
VERTEX
  8
gg1
 10
0.199000
 20
0.717500
  0
SEQEND
  8
gg1
  0
POLYLINE
  8
gg1
 62
1
 40
0.000000
 41
0.000000
 66
  1
  0
VERTEX
  8
gg1
 10
0.221500
 20
0.685000
  0
VERTEX
  8
gg1
 10
0.236500
 20
0.685000
  0
SEQEND
  8
gg1
  0
POLYLINE
  8
gg1
 62
1
 40
0.000000
 41
0.000000
 66
  1
  0
VERTEX
  8
gg1
 10
0.229000
 20
0.677500
  0
VERTEX
  8
gg1
 10
0.229000
 20
0.692500
  0
SEQEND
  8
gg1
  0
POLYLINE
  8
gg1
 62
1
 40
0.000000
 41
0.000000
 66
  1
  0
VERTEX
  8
gg1
 10
0.497500
 20
0.555000
  0
VERTEX
  8
gg1
 10
0.512500
 20
0.555000
  0
SEQEND
  8
gg1
  0
POLYLINE
  8
gg1
 62
1
 40
0.000000
 41
0.000000
 66
  1
  0
VERTEX
  8
gg1
 10
0.505000
 20
0.547500
  0
VERTEX
  8
gg1
 10
0.505000
 20
0.562500
  0
SEQEND
  8
gg1
  0
POLYLINE
  8
gg1
 62
1
 40
0.000000
 41
0.000000
 66
  1
  0
VERTEX
  8
gg1
 10
0.527500
 20
0.555000
  0
VERTEX
  8
gg1
 10
0.542500
 20
0.555000
  0
SEQEND
  8
gg1
  0
POLYLINE
  8
gg1
 62
1
 40
0.000000
 41
0.000000
 66
  1
  0
VERTEX
  8
gg1
 10
0.535000
 20
0.547500
  0
VERTEX
  8
gg1
 10
0.535000
 20
0.562500
  0
SEQEND
  8
gg1
  0
POLYLINE
  8
gg1
 62
1
 40
0.000000
 41
0.000000
 66
  1
  0
VERTEX
  8
gg1
 10
0.557500
 20
0.555000
  0
VERTEX
  8
gg1
 10
0.572500
 20
0.555000
  0
SEQEND
  8
gg1
  0
POLYLINE
  8
gg1
 62
1
 40
0.000000
 41
0.000000
 66
  1
  0
VERTEX
  8
gg1
 10
0.565000
 20
0.547500
  0
VERTEX
  8
gg1
 10
0.565000
 20
0.562500
  0
SEQEND
  8
gg1
  0
POLYLINE
  8
gg1
 62
1
 40
0.000000
 41
0.000000
 66
  1
  0
VERTEX
  8
gg1
 10
0.587500
 20
0.555000
  0
VERTEX
  8
gg1
 10
0.602500
 20
0.555000
  0
SEQEND
  8
gg1
  0
POLYLINE
  8
gg1
 62
1
 40
0.000000
 41
0.000000
 66
  1
  0
VERTEX
  8
gg1
 10
0.595000
 20
0.547500
  0
VERTEX
  8
gg1
 10
0.595000
 20
0.562500
  0
SEQEND
  8
gg1
  0
POLYLINE
  8
gg1
 62
1
 40
0.000000
 41
0.000000
 66
  1
  0
VERTEX
  8
gg1
 10
0.617500
 20
0.555000
  0
VERTEX
  8
gg1
 10
0.632500
 20
0.555000
  0
SEQEND
  8
gg1
  0
POLYLINE
  8
gg1
 62
1
 40
0.000000
 41
0.000000
 66
  1
  0
VERTEX
  8
gg1
 10
0.625000
 20
0.547500
  0
VERTEX
  8
gg1
 10
0.625000
 20
0.562500
  0
SEQEND
  8
gg1
  0
POLYLINE
  8
gg1
 62
1
 40
0.000000
 41
0.000000
 66
  1
  0
VERTEX
  8
gg1
 10
0.647500
 20
0.555000
  0
VERTEX
  8
gg1
 10
0.662500
 20
0.555000
  0
SEQEND
  8
gg1
  0
POLYLINE
  8
gg1
 62
1
 40
0.000000
 41
0.000000
 66
  1
  0
VERTEX
  8
gg1
 10
0.655000
 20
0.547500
  0
VERTEX
  8
gg1
 10
0.655000
 20
0.562500
  0
SEQEND
  8
gg1
  0
POLYLINE
  8
gg1
 62
1
 40
0.000000
 41
0.000000
 66
  1
  0
VERTEX
  8
gg1
 10
0.490500
 20
0.785000
  0
VERTEX
  8
gg1
 10
0.505500
 20
0.785000
  0
SEQEND
  8
gg1
  0
POLYLINE
  8
gg1
 62
1
 40
0.000000
 41
0.000000
 66
  1
  0
VERTEX
  8
gg1
 10
0.498000
 20
0.777500
  0
VERTEX
  8
gg1
 10
0.498000
 20
0.792500
  0
SEQEND
  8
gg1
  0
POLYLINE
  8
gg1
 62
1
 40
0.000000
 41
0.000000
 66
  1
  0
VERTEX
  8
gg1
 10
0.262500
 20
0.160000
  0
VERTEX
  8
gg1
 10
0.277500
 20
0.160000
  0
SEQEND
  8
gg1
  0
POLYLINE
  8
gg1
 62
1
 40
0.000000
 41
0.000000
 66
  1
  0
VERTEX
  8
gg1
 10
0.270000
 20
0.152500
  0
VERTEX
  8
gg1
 10
0.270000
 20
0.167500
  0
SEQEND
  8
gg1
  0
POLYLINE
  8
gg1
 62
1
 40
0.000000
 41
0.000000
 66
  1
  0
VERTEX
  8
gg1
 10
0.307500
 20
0.140000
  0
VERTEX
  8
gg1
 10
0.322500
 20
0.140000
  0
SEQEND
  8
gg1
  0
POLYLINE
  8
gg1
 62
1
 40
0.000000
 41
0.000000
 66
  1
  0
VERTEX
  8
gg1
 10
0.315000
 20
0.132500
  0
VERTEX
  8
gg1
 10
0.315000
 20
0.147500
  0
SEQEND
  8
gg1
  0
POLYLINE
  8
gg1
 62
1
 40
0.000000
 41
0.000000
 66
  1
  0
VERTEX
  8
gg1
 10
0.262500
 20
0.125000
  0
VERTEX
  8
gg1
 10
0.277500
 20
0.125000
  0
SEQEND
  8
gg1
  0
POLYLINE
  8
gg1
 62
1
 40
0.000000
 41
0.000000
 66
  1
  0
VERTEX
  8
gg1
 10
0.270000
 20
0.117500
  0
VERTEX
  8
gg1
 10
0.270000
 20
0.132500
  0
SEQEND
  8
gg1
  0
POLYLINE
  8
gg1
 62
1
 40
0.000000
 41
0.000000
 66
  1
  0
VERTEX
  8
gg1
 10
0.307500
 20
0.105000
  0
VERTEX
  8
gg1
 10
0.322500
 20
0.105000
  0
SEQEND
  8
gg1
  0
POLYLINE
  8
gg1
 62
1
 40
0.000000
 41
0.000000
 66
  1
  0
VERTEX
  8
gg1
 10
0.315000
 20
0.097500
  0
VERTEX
  8
gg1
 10
0.315000
 20
0.112500
  0
SEQEND
  8
gg1
  0
POLYLINE
  8
gg1
 62
1
 40
0.000000
 41
0.000000
 66
  1
  0
VERTEX
  8
gg1
 10
0.262500
 20
0.090000
  0
VERTEX
  8
gg1
 10
0.277500
 20
0.090000
  0
SEQEND
  8
gg1
  0
POLYLINE
  8
gg1
 62
1
 40
0.000000
 41
0.000000
 66
  1
  0
VERTEX
  8
gg1
 10
0.270000
 20
0.082500
  0
VERTEX
  8
gg1
 10
0.270000
 20
0.097500
  0
SEQEND
  8
gg1
  0
POLYLINE
  8
gg1
 62
1
 40
0.000000
 41
0.000000
 66
  1
  0
VERTEX
  8
gg1
 10
0.307500
 20
0.070000
  0
VERTEX
  8
gg1
 10
0.322500
 20
0.070000
  0
SEQEND
  8
gg1
  0
POLYLINE
  8
gg1
 62
1
 40
0.000000
 41
0.000000
 66
  1
  0
VERTEX
  8
gg1
 10
0.315000
 20
0.062500
  0
VERTEX
  8
gg1
 10
0.315000
 20
0.077500
  0
SEQEND
  8
gg1
  0
POLYLINE
  8
gg1
 62
1
 40
0.000000
 41
0.000000
 66
  1
  0
VERTEX
  8
gg1
 10
0.262500
 20
0.055000
  0
VERTEX
  8
gg1
 10
0.277500
 20
0.055000
  0
SEQEND
  8
gg1
  0
POLYLINE
  8
gg1
 62
1
 40
0.000000
 41
0.000000
 66
  1
  0
VERTEX
  8
gg1
 10
0.270000
 20
0.047500
  0
VERTEX
  8
gg1
 10
0.270000
 20
0.062500
  0
SEQEND
  8
gg1
  0
POLYLINE
  8
gg1
 62
1
 40
0.000000
 41
0.000000
 66
  1
  0
VERTEX
  8
gg1
 10
0.442500
 20
0.105000
  0
VERTEX
  8
gg1
 10
0.457500
 20
0.105000
  0
SEQEND
  8
gg1
  0
POLYLINE
  8
gg1
 62
1
 40
0.000000
 41
0.000000
 66
  1
  0
VERTEX
  8
gg1
 10
0.450000
 20
0.097500
  0
VERTEX
  8
gg1
 10
0.450000
 20
0.112500
  0
SEQEND
  8
gg1
  0
POLYLINE
  8
gg1
 62
1
 40
0.000000
 41
0.000000
 66
  1
  0
VERTEX
  8
gg1
 10
0.487500
 20
0.090000
  0
VERTEX
  8
gg1
 10
0.502500
 20
0.090000
  0
SEQEND
  8
gg1
  0
POLYLINE
  8
gg1
 62
1
 40
0.000000
 41
0.000000
 66
  1
  0
VERTEX
  8
gg1
 10
0.495000
 20
0.082500
  0
VERTEX
  8
gg1
 10
0.495000
 20
0.097500
  0
SEQEND
  8
gg1
  0
POLYLINE
  8
gg1
 62
1
 40
0.000000
 41
0.000000
 66
  1
  0
VERTEX
  8
gg1
 10
0.442500
 20
0.070000
  0
VERTEX
  8
gg1
 10
0.457500
 20
0.070000
  0
SEQEND
  8
gg1
  0
POLYLINE
  8
gg1
 62
1
 40
0.000000
 41
0.000000
 66
  1
  0
VERTEX
  8
gg1
 10
0.450000
 20
0.062500
  0
VERTEX
  8
gg1
 10
0.450000
 20
0.077500
  0
SEQEND
  8
gg1
  0
POLYLINE
  8
gg1
 62
1
 40
0.000000
 41
0.000000
 66
  1
  0
VERTEX
  8
gg1
 10
0.487500
 20
0.055000
  0
VERTEX
  8
gg1
 10
0.502500
 20
0.055000
  0
SEQEND
  8
gg1
  0
POLYLINE
  8
gg1
 62
1
 40
0.000000
 41
0.000000
 66
  1
  0
VERTEX
  8
gg1
 10
0.495000
 20
0.047500
  0
VERTEX
  8
gg1
 10
0.495000
 20
0.062500
  0
SEQEND
  8
gg1
  0
POLYLINE
  8
gg1
 62
1
 40
0.000000
 41
0.000000
 66
  1
  0
VERTEX
  8
gg1
 10
0.487500
 20
0.125000
  0
VERTEX
  8
gg1
 10
0.502500
 20
0.125000
  0
SEQEND
  8
gg1
  0
POLYLINE
  8
gg1
 62
1
 40
0.000000
 41
0.000000
 66
  1
  0
VERTEX
  8
gg1
 10
0.495000
 20
0.117500
  0
VERTEX
  8
gg1
 10
0.495000
 20
0.132500
  0
SEQEND
  8
gg1
  0
POLYLINE
  8
gg1
 62
1
 40
0.000000
 41
0.000000
 66
  1
  0
VERTEX
  8
gg1
 10
0.442500
 20
0.140000
  0
VERTEX
  8
gg1
 10
0.457500
 20
0.140000
  0
SEQEND
  8
gg1
  0
POLYLINE
  8
gg1
 62
1
 40
0.000000
 41
0.000000
 66
  1
  0
VERTEX
  8
gg1
 10
0.450000
 20
0.132500
  0
VERTEX
  8
gg1
 10
0.450000
 20
0.147500
  0
SEQEND
  8
gg1
  0
POLYLINE
  8
gg1
 62
1
 40
0.000000
 41
0.000000
 66
  1
  0
VERTEX
  8
gg1
 10
1.427500
 20
0.760000
  0
VERTEX
  8
gg1
 10
1.442500
 20
0.760000
  0
SEQEND
  8
gg1
  0
POLYLINE
  8
gg1
 62
1
 40
0.000000
 41
0.000000
 66
  1
  0
VERTEX
  8
gg1
 10
1.435000
 20
0.752500
  0
VERTEX
  8
gg1
 10
1.435000
 20
0.767500
  0
SEQEND
  8
gg1
  0
POLYLINE
  8
gg1
 62
1
 40
0.000000
 41
0.000000
 66
  1
  0
VERTEX
  8
gg1
 10
0.654100
 20
-0.421000
  0
VERTEX
  8
gg1
 10
0.674100
 20
-0.421000
  0
VERTEX
  8
gg1
 10
0.664100
 20
-0.421000
  0
VERTEX
  8
gg1
 10
0.664100
 20
-0.361000
  0
VERTEX
  8
gg1
 10
0.654100
 20
-0.371000
  0
SEQEND
  8
gg1
  0
POLYLINE
  8
gg1
 62
1
 40
0.000000
 41
0.000000
 66
  1
  0
VERTEX
  8
gg1
 10
0.704000
 20
-0.361000
  0
VERTEX
  8
gg1
 10
0.744000
 20
-0.361000
  0
VERTEX
  8
gg1
 10
0.744000
 20
-0.371000
  0
VERTEX
  8
gg1
 10
0.704000
 20
-0.411000
  0
VERTEX
  8
gg1
 10
0.704000
 20
-0.421000
  0
SEQEND
  8
gg1
  0
POLYLINE
  8
gg1
 62
1
 40
0.000000
 41
0.000000
 66
  1
  0
VERTEX
  8
gg1
 10
0.764000
 20
-0.371000
  0
VERTEX
  8
gg1
 10
0.774000
 20
-0.361000
  0
VERTEX
  8
gg1
 10
0.794000
 20
-0.361000
  0
VERTEX
  8
gg1
 10
0.804000
 20
-0.371000
  0
VERTEX
  8
gg1
 10
0.804000
 20
-0.411000
  0
VERTEX
  8
gg1
 10
0.794000
 20
-0.421000
  0
VERTEX
  8
gg1
 10
0.774000
 20
-0.421000
  0
VERTEX
  8
gg1
 10
0.764000
 20
-0.411000
  0
VERTEX
  8
gg1
 10
0.764000
 20
-0.371000
  0
SEQEND
  8
gg1
  0
POLYLINE
  8
gg1
 62
1
 40
0.000000
 41
0.000000
 66
  1
  0
VERTEX
  8
gg1
 10
0.824000
 20
-0.371000
  0
VERTEX
  8
gg1
 10
0.834000
 20
-0.361000
  0
VERTEX
  8
gg1
 10
0.854000
 20
-0.361000
  0
VERTEX
  8
gg1
 10
0.864000
 20
-0.371000
  0
VERTEX
  8
gg1
 10
0.864000
 20
-0.411000
  0
VERTEX
  8
gg1
 10
0.854000
 20
-0.421000
  0
VERTEX
  8
gg1
 10
0.834000
 20
-0.421000
  0
VERTEX
  8
gg1
 10
0.824000
 20
-0.411000
  0
VERTEX
  8
gg1
 10
0.824000
 20
-0.371000
  0
SEQEND
  8
gg1
  0
POLYLINE
  8
gg1
 62
1
 40
0.000000
 41
0.000000
 66
  1
  0
VERTEX
  8
gg1
 10
0.884000
 20
-0.421000
  0
VERTEX
  8
gg1
 10
0.884000
 20
-0.381000
  0
VERTEX
  8
gg1
 10
0.894000
 20
-0.381000
  0
VERTEX
  8
gg1
 10
0.904000
 20
-0.391000
  0
VERTEX
  8
gg1
 10
0.904000
 20
-0.421000
  0
VERTEX
  8
gg1
 10
0.904000
 20
-0.391000
  0
VERTEX
  8
gg1
 10
0.914000
 20
-0.381000
  0
VERTEX
  8
gg1
 10
0.924000
 20
-0.391000
  0
VERTEX
  8
gg1
 10
0.924000
 20
-0.421000
  0
SEQEND
  8
gg1
  0
POLYLINE
  8
gg1
 62
1
 40
0.000000
 41
0.000000
 66
  1
  0
VERTEX
  8
gg1
 10
0.944000
 20
-0.421000
  0
VERTEX
  8
gg1
 10
0.964000
 20
-0.421000
  0
VERTEX
  8
gg1
 10
0.954000
 20
-0.421000
  0
VERTEX
  8
gg1
 10
0.954000
 20
-0.381000
  0
VERTEX
  8
gg1
 10
0.944000
 20
-0.381000
  0
SEQEND
  8
gg1
  0
POLYLINE
  8
gg1
 62
1
 40
0.000000
 41
0.000000
 66
  1
  0
VERTEX
  8
gg1
 10
0.993900
 20
-0.421000
  0
VERTEX
  8
gg1
 10
1.013900
 20
-0.421000
  0
VERTEX
  8
gg1
 10
1.003900
 20
-0.421000
  0
VERTEX
  8
gg1
 10
1.003900
 20
-0.361000
  0
VERTEX
  8
gg1
 10
0.993900
 20
-0.361000
  0
SEQEND
  8
gg1
  0
POLYLINE
  8
gg1
 62
1
 40
0.000000
 41
0.000000
 66
  1
  0
VERTEX
  8
gg1
 10
-0.164000
 20
0.241500
  0
VERTEX
  8
gg1
 10
-0.174000
 20
0.251500
  0
VERTEX
  8
gg1
 10
-0.174000
 20
0.271500
  0
VERTEX
  8
gg1
 10
-0.164000
 20
0.281500
  0
VERTEX
  8
gg1
 10
-0.154000
 20
0.281500
  0
VERTEX
  8
gg1
 10
-0.144000
 20
0.271500
  0
VERTEX
  8
gg1
 10
-0.134000
 20
0.281500
  0
VERTEX
  8
gg1
 10
-0.124000
 20
0.281500
  0
VERTEX
  8
gg1
 10
-0.114000
 20
0.271500
  0
VERTEX
  8
gg1
 10
-0.114000
 20
0.251500
  0
VERTEX
  8
gg1
 10
-0.124000
 20
0.241500
  0
VERTEX
  8
gg1
 10
-0.134000
 20
0.241500
  0
VERTEX
  8
gg1
 10
-0.144000
 20
0.251500
  0
VERTEX
  8
gg1
 10
-0.154000
 20
0.241500
  0
VERTEX
  8
gg1
 10
-0.164000
 20
0.241500
  0
SEQEND
  8
gg1
  0
POLYLINE
  8
gg1
 62
1
 40
0.000000
 41
0.000000
 66
  1
  0
VERTEX
  8
gg1
 10
-0.144000
 20
0.251500
  0
VERTEX
  8
gg1
 10
-0.144000
 20
0.271500
  0
SEQEND
  8
gg1
  0
POLYLINE
  8
gg1
 62
1
 40
0.000000
 41
0.000000
 66
  1
  0
VERTEX
  8
gg1
 10
-0.114000
 20
0.341500
  0
VERTEX
  8
gg1
 10
-0.114000
 20
0.301500
  0
VERTEX
  8
gg1
 10
-0.154000
 20
0.341500
  0
VERTEX
  8
gg1
 10
-0.164000
 20
0.341500
  0
VERTEX
  8
gg1
 10
-0.174000
 20
0.331500
  0
VERTEX
  8
gg1
 10
-0.174000
 20
0.311500
  0
VERTEX
  8
gg1
 10
-0.164000
 20
0.301500
  0
SEQEND
  8
gg1
  0
POLYLINE
  8
gg1
 62
1
 40
0.000000
 41
0.000000
 66
  1
  0
VERTEX
  8
gg1
 10
-0.174000
 20
0.401500
  0
VERTEX
  8
gg1
 10
-0.174000
 20
0.361500
  0
VERTEX
  8
gg1
 10
-0.144000
 20
0.361500
  0
VERTEX
  8
gg1
 10
-0.154000
 20
0.381500
  0
VERTEX
  8
gg1
 10
-0.154000
 20
0.391500
  0
VERTEX
  8
gg1
 10
-0.144000
 20
0.401500
  0
VERTEX
  8
gg1
 10
-0.124000
 20
0.401500
  0
VERTEX
  8
gg1
 10
-0.114000
 20
0.391500
  0
VERTEX
  8
gg1
 10
-0.114000
 20
0.371500
  0
VERTEX
  8
gg1
 10
-0.124000
 20
0.361500
  0
SEQEND
  8
gg1
  0
POLYLINE
  8
gg1
 62
1
 40
0.000000
 41
0.000000
 66
  1
  0
VERTEX
  8
gg1
 10
-0.114000
 20
0.421500
  0
VERTEX
  8
gg1
 10
-0.154000
 20
0.421500
  0
VERTEX
  8
gg1
 10
-0.154000
 20
0.431500
  0
VERTEX
  8
gg1
 10
-0.144000
 20
0.441500
  0
VERTEX
  8
gg1
 10
-0.114000
 20
0.441500
  0
VERTEX
  8
gg1
 10
-0.144000
 20
0.441500
  0
VERTEX
  8
gg1
 10
-0.154000
 20
0.451500
  0
VERTEX
  8
gg1
 10
-0.144000
 20
0.461500
  0
VERTEX
  8
gg1
 10
-0.114000
 20
0.461500
  0
SEQEND
  8
gg1
  0
POLYLINE
  8
gg1
 62
1
 40
0.000000
 41
0.000000
 66
  1
  0
VERTEX
  8
gg1
 10
-0.114000
 20
0.481500
  0
VERTEX
  8
gg1
 10
-0.114000
 20
0.501500
  0
VERTEX
  8
gg1
 10
-0.114000
 20
0.491500
  0
VERTEX
  8
gg1
 10
-0.154000
 20
0.491500
  0
VERTEX
  8
gg1
 10
-0.154000
 20
0.481500
  0
SEQEND
  8
gg1
  0
POLYLINE
  8
gg1
 62
1
 40
0.000000
 41
0.000000
 66
  1
  0
VERTEX
  8
gg1
 10
-0.114000
 20
0.531500
  0
VERTEX
  8
gg1
 10
-0.114000
 20
0.551500
  0
VERTEX
  8
gg1
 10
-0.114000
 20
0.541500
  0
VERTEX
  8
gg1
 10
-0.174000
 20
0.541500
  0
VERTEX
  8
gg1
 10
-0.174000
 20
0.531500
  0
SEQEND
  8
gg1
  0
ENDSEC
  0
EOF
