  0
SECTION
  2
HEADER
  9
$EXTMIN
 10
7.373000
 20
14.861000
  9
$EXTMAX
 10
8.305000
 20
15.905000
  9
$LIMMIN
 10
7.373000
 20
14.861000
  9
$LIMMAX
 10
8.305000
 20
15.905000
  9
$FILLMODE
 70
  1
  0
ENDSEC
  0
SECTION
  2
TABLES
  0
TABLE
  2
LTYPE
 70
  1
  0
LTYPE
  2
CONTINUOUS
 70
 64
  3
Solid line
 72
 65
 73
  0
 40
0.0
  0
ENDTAB
  0
TABLE
  2
LAYER
 70
 1
  0
LAYER
  2
0
 70
  0
 62
7
  6
CONTINUOUS
  0
LAYER
  2
gg1
 70
  0
 62
1
  6
CONTINUOUS
  0
ENDTAB
  0
TABLE
  2
STYLE
 70
  1
  0
STYLE
  2
STANDARD
 70
  0
 40
0.0
 41
1.0
 50
0.0
 71
  0
 42
0.2
  3
txt
  4

  0
ENDTAB
  0
ENDSEC
  0
SECTION
  2
BLOCKS
  0
BLOCK
  8
0
  2
D10
 70
64
 10
0.0
 20
0.0
  3
D10
  0
CIRCLE
  8
0
 10
0.000000
 20
0.000000
 40
0.005000
 0
ENDBLK
  8
0
  0
BLOCK
  8
0
  2
D11
 70
64
 10
0.0
 20
0.0
  3
D11
  0
CIRCLE
  8
0
 10
0.000000
 20
0.000000
 40
0.003000
 0
ENDBLK
  8
0
  0
BLOCK
  8
0
  2
D12
 70
64
 10
0.0
 20
0.0
  3
D12
  0
CIRCLE
  8
0
 10
0.000000
 20
0.000000
 40
0.002500
 0
ENDBLK
  8
0
  0
ENDSEC
  0
SECTION
  2
ENTITIES
  0
POLYLINE
  8
gg1
 62
1
 40
0.000000
 41
0.000000
 66
  1
  0
VERTEX
  8
gg1
 10
7.500000
 20
15.000000
  0
VERTEX
  8
gg1
 10
7.500000
 20
15.900000
  0
SEQEND
  8
gg1
  0
POLYLINE
  8
gg1
 62
1
 40
0.000000
 41
0.000000
 66
  1
  0
VERTEX
  8
gg1
 10
7.500000
 20
15.000000
  0
VERTEX
  8
gg1
 10
8.300000
 20
15.000000
  0
VERTEX
  8
gg1
 10
8.300000
 20
15.900000
  0
SEQEND
  8
gg1
  0
POLYLINE
  8
gg1
 62
1
 40
0.000000
 41
0.000000
 66
  1
  0
VERTEX
  8
gg1
 10
7.500000
 20
15.900000
  0
VERTEX
  8
gg1
 10
8.300000
 20
15.900000
  0
SEQEND
  8
gg1
  0
POLYLINE
  8
gg1
 62
1
 40
0.000000
 41
0.000000
 66
  1
  0
VERTEX
  8
gg1
 10
7.380000
 20
15.060000
  0
VERTEX
  8
gg1
 10
7.400000
 20
15.000000
  0
VERTEX
  8
gg1
 10
7.420000
 20
15.060000
  0
SEQEND
  8
gg1
  0
POLYLINE
  8
gg1
 62
1
 40
0.000000
 41
0.000000
 66
  1
  0
VERTEX
  8
gg1
 10
7.400000
 20
15.900000
  0
VERTEX
  8
gg1
 10
7.420000
 20
15.840000
  0
SEQEND
  8
gg1
  0
POLYLINE
  8
gg1
 62
1
 40
0.000000
 41
0.000000
 66
  1
  0
VERTEX
  8
gg1
 10
7.380000
 20
15.840000
  0
VERTEX
  8
gg1
 10
7.400000
 20
15.900000
  0
SEQEND
  8
gg1
  0
POLYLINE
  8
gg1
 62
1
 40
0.000000
 41
0.000000
 66
  1
  0
VERTEX
  8
gg1
 10
7.400000
 20
15.000000
  0
VERTEX
  8
gg1
 10
7.400000
 20
15.263050
  0
SEQEND
  8
gg1
  0
POLYLINE
  8
gg1
 62
1
 40
0.000000
 41
0.000000
 66
  1
  0
VERTEX
  8
gg1
 10
7.400000
 20
15.604950
  0
VERTEX
  8
gg1
 10
7.400000
 20
15.900000
  0
SEQEND
  8
gg1
  0
POLYLINE
  8
gg1
 62
1
 40
0.000000
 41
0.000000
 66
  1
  0
VERTEX
  8
gg1
 10
7.390000
 20
15.000000
  0
VERTEX
  8
gg1
 10
7.485000
 20
15.000000
  0
SEQEND
  8
gg1
  0
POLYLINE
  8
gg1
 62
1
 40
0.000000
 41
0.000000
 66
  1
  0
VERTEX
  8
gg1
 10
7.390000
 20
15.900000
  0
VERTEX
  8
gg1
 10
7.485000
 20
15.900000
  0
SEQEND
  8
gg1
  0
POLYLINE
  8
gg1
 62
1
 40
0.000000
 41
0.000000
 66
  1
  0
VERTEX
  8
gg1
 10
7.500000
 20
14.900000
  0
VERTEX
  8
gg1
 10
7.560000
 20
14.920000
  0
SEQEND
  8
gg1
  0
POLYLINE
  8
gg1
 62
1
 40
0.000000
 41
0.000000
 66
  1
  0
VERTEX
  8
gg1
 10
7.500000
 20
14.900000
  0
VERTEX
  8
gg1
 10
7.560000
 20
14.880000
  0
SEQEND
  8
gg1
  0
POLYLINE
  8
gg1
 62
1
 40
0.000000
 41
0.000000
 66
  1
  0
VERTEX
  8
gg1
 10
8.240000
 20
14.880000
  0
VERTEX
  8
gg1
 10
8.300000
 20
14.900000
  0
SEQEND
  8
gg1
  0
POLYLINE
  8
gg1
 62
1
 40
0.000000
 41
0.000000
 66
  1
  0
VERTEX
  8
gg1
 10
8.240000
 20
14.920000
  0
VERTEX
  8
gg1
 10
8.300000
 20
14.900000
  0
SEQEND
  8
gg1
  0
POLYLINE
  8
gg1
 62
1
 40
0.000000
 41
0.000000
 66
  1
  0
VERTEX
  8
gg1
 10
7.500000
 20
14.900000
  0
VERTEX
  8
gg1
 10
7.713050
 20
14.900000
  0
SEQEND
  8
gg1
  0
POLYLINE
  8
gg1
 62
1
 40
0.000000
 41
0.000000
 66
  1
  0
VERTEX
  8
gg1
 10
8.054950
 20
14.900000
  0
VERTEX
  8
gg1
 10
8.300000
 20
14.900000
  0
SEQEND
  8
gg1
  0
POLYLINE
  8
gg1
 62
1
 40
0.000000
 41
0.000000
 66
  1
  0
VERTEX
  8
gg1
 10
7.500000
 20
14.890000
  0
VERTEX
  8
gg1
 10
7.500000
 20
14.985000
  0
SEQEND
  8
gg1
  0
POLYLINE
  8
gg1
 62
1
 40
0.000000
 41
0.000000
 66
  1
  0
VERTEX
  8
gg1
 10
8.300000
 20
14.890000
  0
VERTEX
  8
gg1
 10
8.300000
 20
14.985000
  0
SEQEND
  8
gg1
  0
POLYLINE
  8
gg1
 62
1
 40
0.000000
 41
0.000000
 66
  1
  0
VERTEX
  8
gg1
 10
7.425990
 20
15.279050
  0
VERTEX
  8
gg1
 10
7.435990
 20
15.289050
  0
VERTEX
  8
gg1
 10
7.435990
 20
15.309040
  0
VERTEX
  8
gg1
 10
7.425990
 20
15.319040
  0
VERTEX
  8
gg1
 10
7.386010
 20
15.319040
  0
VERTEX
  8
gg1
 10
7.376010
 20
15.309040
  0
VERTEX
  8
gg1
 10
7.376010
 20
15.289050
  0
VERTEX
  8
gg1
 10
7.386010
 20
15.279050
  0
VERTEX
  8
gg1
 10
7.396000
 20
15.279050
  0
VERTEX
  8
gg1
 10
7.406000
 20
15.289050
  0
VERTEX
  8
gg1
 10
7.406000
 20
15.319040
  0
SEQEND
  8
gg1
  0
POLYLINE
  8
gg1
 62
1
 40
0.000000
 41
0.000000
 66
  1
  0
VERTEX
  8
gg1
 10
7.386010
 20
15.339030
  0
VERTEX
  8
gg1
 10
7.376010
 20
15.349030
  0
VERTEX
  8
gg1
 10
7.376010
 20
15.369020
  0
VERTEX
  8
gg1
 10
7.386010
 20
15.379020
  0
VERTEX
  8
gg1
 10
7.425990
 20
15.379020
  0
VERTEX
  8
gg1
 10
7.435990
 20
15.369020
  0
VERTEX
  8
gg1
 10
7.435990
 20
15.349030
  0
VERTEX
  8
gg1
 10
7.425990
 20
15.339030
  0
VERTEX
  8
gg1
 10
7.386010
 20
15.339030
  0
SEQEND
  8
gg1
  0
POLYLINE
  8
gg1
 62
1
 40
0.000000
 41
0.000000
 66
  1
  0
VERTEX
  8
gg1
 10
7.386010
 20
15.399010
  0
VERTEX
  8
gg1
 10
7.376010
 20
15.409010
  0
VERTEX
  8
gg1
 10
7.376010
 20
15.429000
  0
VERTEX
  8
gg1
 10
7.386010
 20
15.439000
  0
VERTEX
  8
gg1
 10
7.425990
 20
15.439000
  0
VERTEX
  8
gg1
 10
7.435990
 20
15.429000
  0
VERTEX
  8
gg1
 10
7.435990
 20
15.409010
  0
VERTEX
  8
gg1
 10
7.425990
 20
15.399010
  0
VERTEX
  8
gg1
 10
7.386010
 20
15.399010
  0
SEQEND
  8
gg1
  0
POLYLINE
  8
gg1
 62
1
 40
0.000000
 41
0.000000
 66
  1
  0
VERTEX
  8
gg1
 10
7.435990
 20
15.458990
  0
VERTEX
  8
gg1
 10
7.396000
 20
15.458990
  0
VERTEX
  8
gg1
 10
7.396000
 20
15.468990
  0
VERTEX
  8
gg1
 10
7.406000
 20
15.478980
  0
VERTEX
  8
gg1
 10
7.435990
 20
15.478980
  0
VERTEX
  8
gg1
 10
7.406000
 20
15.478980
  0
VERTEX
  8
gg1
 10
7.396000
 20
15.488980
  0
VERTEX
  8
gg1
 10
7.406000
 20
15.498980
  0
VERTEX
  8
gg1
 10
7.435990
 20
15.498980
  0
SEQEND
  8
gg1
  0
POLYLINE
  8
gg1
 62
1
 40
0.000000
 41
0.000000
 66
  1
  0
VERTEX
  8
gg1
 10
7.435990
 20
15.518970
  0
VERTEX
  8
gg1
 10
7.435990
 20
15.538970
  0
VERTEX
  8
gg1
 10
7.435990
 20
15.528970
  0
VERTEX
  8
gg1
 10
7.396000
 20
15.528970
  0
VERTEX
  8
gg1
 10
7.396000
 20
15.518970
  0
SEQEND
  8
gg1
  0
POLYLINE
  8
gg1
 62
1
 40
0.000000
 41
0.000000
 66
  1
  0
VERTEX
  8
gg1
 10
7.435990
 20
15.568960
  0
VERTEX
  8
gg1
 10
7.435990
 20
15.588950
  0
VERTEX
  8
gg1
 10
7.435990
 20
15.578950
  0
VERTEX
  8
gg1
 10
7.376010
 20
15.578950
  0
VERTEX
  8
gg1
 10
7.376010
 20
15.568960
  0
SEQEND
  8
gg1
  0
POLYLINE
  8
gg1
 62
1
 40
0.000000
 41
0.000000
 66
  1
  0
VERTEX
  8
gg1
 10
7.729050
 20
14.913990
  0
VERTEX
  8
gg1
 10
7.739050
 20
14.923990
  0
VERTEX
  8
gg1
 10
7.759040
 20
14.923990
  0
VERTEX
  8
gg1
 10
7.769040
 20
14.913990
  0
VERTEX
  8
gg1
 10
7.769040
 20
14.904000
  0
VERTEX
  8
gg1
 10
7.759040
 20
14.894000
  0
VERTEX
  8
gg1
 10
7.769040
 20
14.884000
  0
VERTEX
  8
gg1
 10
7.769040
 20
14.874010
  0
VERTEX
  8
gg1
 10
7.759040
 20
14.864010
  0
VERTEX
  8
gg1
 10
7.739050
 20
14.864010
  0
VERTEX
  8
gg1
 10
7.729050
 20
14.874010
  0
VERTEX
  8
gg1
 10
7.729050
 20
14.884000
  0
VERTEX
  8
gg1
 10
7.739050
 20
14.894000
  0
VERTEX
  8
gg1
 10
7.729050
 20
14.904000
  0
VERTEX
  8
gg1
 10
7.729050
 20
14.913990
  0
SEQEND
  8
gg1
  0
POLYLINE
  8
gg1
 62
1
 40
0.000000
 41
0.000000
 66
  1
  0
VERTEX
  8
gg1
 10
7.739050
 20
14.894000
  0
VERTEX
  8
gg1
 10
7.759040
 20
14.894000
  0
SEQEND
  8
gg1
  0
POLYLINE
  8
gg1
 62
1
 40
0.000000
 41
0.000000
 66
  1
  0
VERTEX
  8
gg1
 10
7.789030
 20
14.913990
  0
VERTEX
  8
gg1
 10
7.799030
 20
14.923990
  0
VERTEX
  8
gg1
 10
7.819020
 20
14.923990
  0
VERTEX
  8
gg1
 10
7.829020
 20
14.913990
  0
VERTEX
  8
gg1
 10
7.829020
 20
14.874010
  0
VERTEX
  8
gg1
 10
7.819020
 20
14.864010
  0
VERTEX
  8
gg1
 10
7.799030
 20
14.864010
  0
VERTEX
  8
gg1
 10
7.789030
 20
14.874010
  0
VERTEX
  8
gg1
 10
7.789030
 20
14.913990
  0
SEQEND
  8
gg1
  0
POLYLINE
  8
gg1
 62
1
 40
0.000000
 41
0.000000
 66
  1
  0
VERTEX
  8
gg1
 10
7.849010
 20
14.913990
  0
VERTEX
  8
gg1
 10
7.859010
 20
14.923990
  0
VERTEX
  8
gg1
 10
7.879000
 20
14.923990
  0
VERTEX
  8
gg1
 10
7.889000
 20
14.913990
  0
VERTEX
  8
gg1
 10
7.889000
 20
14.874010
  0
VERTEX
  8
gg1
 10
7.879000
 20
14.864010
  0
VERTEX
  8
gg1
 10
7.859010
 20
14.864010
  0
VERTEX
  8
gg1
 10
7.849010
 20
14.874010
  0
VERTEX
  8
gg1
 10
7.849010
 20
14.913990
  0
SEQEND
  8
gg1
  0
POLYLINE
  8
gg1
 62
1
 40
0.000000
 41
0.000000
 66
  1
  0
VERTEX
  8
gg1
 10
7.908990
 20
14.864010
  0
VERTEX
  8
gg1
 10
7.908990
 20
14.904000
  0
VERTEX
  8
gg1
 10
7.918990
 20
14.904000
  0
VERTEX
  8
gg1
 10
7.928990
 20
14.894000
  0
VERTEX
  8
gg1
 10
7.928990
 20
14.864010
  0
VERTEX
  8
gg1
 10
7.928990
 20
14.894000
  0
VERTEX
  8
gg1
 10
7.938980
 20
14.904000
  0
VERTEX
  8
gg1
 10
7.948980
 20
14.894000
  0
VERTEX
  8
gg1
 10
7.948980
 20
14.864010
  0
SEQEND
  8
gg1
  0
POLYLINE
  8
gg1
 62
1
 40
0.000000
 41
0.000000
 66
  1
  0
VERTEX
  8
gg1
 10
7.968970
 20
14.864010
  0
VERTEX
  8
gg1
 10
7.988970
 20
14.864010
  0
VERTEX
  8
gg1
 10
7.978970
 20
14.864010
  0
VERTEX
  8
gg1
 10
7.978970
 20
14.904000
  0
VERTEX
  8
gg1
 10
7.968970
 20
14.904000
  0
SEQEND
  8
gg1
  0
POLYLINE
  8
gg1
 62
1
 40
0.000000
 41
0.000000
 66
  1
  0
VERTEX
  8
gg1
 10
8.018960
 20
14.864010
  0
VERTEX
  8
gg1
 10
8.038950
 20
14.864010
  0
VERTEX
  8
gg1
 10
8.028950
 20
14.864010
  0
VERTEX
  8
gg1
 10
8.028950
 20
14.923990
  0
VERTEX
  8
gg1
 10
8.018960
 20
14.923990
  0
SEQEND
  8
gg1
  0
POLYLINE
  8
gg1
 62
1
 40
0.000000
 41
0.000000
 66
  1
  0
VERTEX
  8
gg1
 10
8.130000
 20
15.706690
  0
VERTEX
  8
gg1
 10
8.190000
 20
15.706690
  0
SEQEND
  8
gg1
  0
POLYLINE
  8
gg1
 62
1
 40
0.000000
 41
0.000000
 66
  1
  0
VERTEX
  8
gg1
 10
8.160000
 20
15.676690
  0
VERTEX
  8
gg1
 10
8.160000
 20
15.736690
  0
SEQEND
  8
gg1
  0
POLYLINE
  8
gg1
 62
1
 40
0.000000
 41
0.000000
 66
  1
  0
VERTEX
  8
gg1
 10
8.130000
 20
15.568900
  0
VERTEX
  8
gg1
 10
8.190000
 20
15.568900
  0
SEQEND
  8
gg1
  0
POLYLINE
  8
gg1
 62
1
 40
0.000000
 41
0.000000
 66
  1
  0
VERTEX
  8
gg1
 10
8.160000
 20
15.538900
  0
VERTEX
  8
gg1
 10
8.160000
 20
15.598900
  0
SEQEND
  8
gg1
  0
POLYLINE
  8
gg1
 62
1
 40
0.000000
 41
0.000000
 66
  1
  0
VERTEX
  8
gg1
 10
8.130000
 20
15.293310
  0
VERTEX
  8
gg1
 10
8.190000
 20
15.293310
  0
SEQEND
  8
gg1
  0
POLYLINE
  8
gg1
 62
1
 40
0.000000
 41
0.000000
 66
  1
  0
VERTEX
  8
gg1
 10
8.160000
 20
15.263310
  0
VERTEX
  8
gg1
 10
8.160000
 20
15.323310
  0
SEQEND
  8
gg1
  0
POLYLINE
  8
gg1
 62
1
 40
0.000000
 41
0.000000
 66
  1
  0
VERTEX
  8
gg1
 10
8.130000
 20
15.431100
  0
VERTEX
  8
gg1
 10
8.190000
 20
15.431100
  0
SEQEND
  8
gg1
  0
POLYLINE
  8
gg1
 62
1
 40
0.000000
 41
0.000000
 66
  1
  0
VERTEX
  8
gg1
 10
8.160000
 20
15.401100
  0
VERTEX
  8
gg1
 10
8.160000
 20
15.461100
  0
SEQEND
  8
gg1
  0
POLYLINE
  8
gg1
 62
1
 40
0.000000
 41
0.000000
 66
  1
  0
VERTEX
  8
gg1
 10
8.230000
 20
15.650000
  0
VERTEX
  8
gg1
 10
8.270000
 20
15.650000
  0
SEQEND
  8
gg1
  0
POLYLINE
  8
gg1
 62
1
 40
0.000000
 41
0.000000
 66
  1
  0
VERTEX
  8
gg1
 10
8.250000
 20
15.630000
  0
VERTEX
  8
gg1
 10
8.250000
 20
15.670000
  0
SEQEND
  8
gg1
  0
POLYLINE
  8
gg1
 62
1
 40
0.000000
 41
0.000000
 66
  1
  0
VERTEX
  8
gg1
 10
7.530000
 20
15.850000
  0
VERTEX
  8
gg1
 10
7.570000
 20
15.850000
  0
SEQEND
  8
gg1
  0
POLYLINE
  8
gg1
 62
1
 40
0.000000
 41
0.000000
 66
  1
  0
VERTEX
  8
gg1
 10
7.550000
 20
15.830000
  0
VERTEX
  8
gg1
 10
7.550000
 20
15.870000
  0
SEQEND
  8
gg1
  0
POLYLINE
  8
gg1
 62
1
 40
0.000000
 41
0.000000
 66
  1
  0
VERTEX
  8
gg1
 10
7.530000
 20
15.750000
  0
VERTEX
  8
gg1
 10
7.570000
 20
15.750000
  0
SEQEND
  8
gg1
  0
POLYLINE
  8
gg1
 62
1
 40
0.000000
 41
0.000000
 66
  1
  0
VERTEX
  8
gg1
 10
7.550000
 20
15.730000
  0
VERTEX
  8
gg1
 10
7.550000
 20
15.770000
  0
SEQEND
  8
gg1
  0
POLYLINE
  8
gg1
 62
1
 40
0.000000
 41
0.000000
 66
  1
  0
VERTEX
  8
gg1
 10
7.530000
 20
15.650000
  0
VERTEX
  8
gg1
 10
7.570000
 20
15.650000
  0
SEQEND
  8
gg1
  0
POLYLINE
  8
gg1
 62
1
 40
0.000000
 41
0.000000
 66
  1
  0
VERTEX
  8
gg1
 10
7.550000
 20
15.630000
  0
VERTEX
  8
gg1
 10
7.550000
 20
15.670000
  0
SEQEND
  8
gg1
  0
POLYLINE
  8
gg1
 62
1
 40
0.000000
 41
0.000000
 66
  1
  0
VERTEX
  8
gg1
 10
7.530000
 20
15.150000
  0
VERTEX
  8
gg1
 10
7.570000
 20
15.150000
  0
SEQEND
  8
gg1
  0
POLYLINE
  8
gg1
 62
1
 40
0.000000
 41
0.000000
 66
  1
  0
VERTEX
  8
gg1
 10
7.550000
 20
15.130000
  0
VERTEX
  8
gg1
 10
7.550000
 20
15.170000
  0
SEQEND
  8
gg1
  0
POLYLINE
  8
gg1
 62
1
 40
0.000000
 41
0.000000
 66
  1
  0
VERTEX
  8
gg1
 10
7.530000
 20
15.250000
  0
VERTEX
  8
gg1
 10
7.570000
 20
15.250000
  0
SEQEND
  8
gg1
  0
POLYLINE
  8
gg1
 62
1
 40
0.000000
 41
0.000000
 66
  1
  0
VERTEX
  8
gg1
 10
7.550000
 20
15.230000
  0
VERTEX
  8
gg1
 10
7.550000
 20
15.270000
  0
SEQEND
  8
gg1
  0
POLYLINE
  8
gg1
 62
1
 40
0.000000
 41
0.000000
 66
  1
  0
VERTEX
  8
gg1
 10
7.530000
 20
15.350000
  0
VERTEX
  8
gg1
 10
7.570000
 20
15.350000
  0
SEQEND
  8
gg1
  0
POLYLINE
  8
gg1
 62
1
 40
0.000000
 41
0.000000
 66
  1
  0
VERTEX
  8
gg1
 10
7.550000
 20
15.330000
  0
VERTEX
  8
gg1
 10
7.550000
 20
15.370000
  0
SEQEND
  8
gg1
  0
POLYLINE
  8
gg1
 62
1
 40
0.000000
 41
0.000000
 66
  1
  0
VERTEX
  8
gg1
 10
7.530000
 20
15.450000
  0
VERTEX
  8
gg1
 10
7.570000
 20
15.450000
  0
SEQEND
  8
gg1
  0
POLYLINE
  8
gg1
 62
1
 40
0.000000
 41
0.000000
 66
  1
  0
VERTEX
  8
gg1
 10
7.550000
 20
15.430000
  0
VERTEX
  8
gg1
 10
7.550000
 20
15.470000
  0
SEQEND
  8
gg1
  0
POLYLINE
  8
gg1
 62
1
 40
0.000000
 41
0.000000
 66
  1
  0
VERTEX
  8
gg1
 10
7.530000
 20
15.550000
  0
VERTEX
  8
gg1
 10
7.570000
 20
15.550000
  0
SEQEND
  8
gg1
  0
POLYLINE
  8
gg1
 62
1
 40
0.000000
 41
0.000000
 66
  1
  0
VERTEX
  8
gg1
 10
7.550000
 20
15.530000
  0
VERTEX
  8
gg1
 10
7.550000
 20
15.570000
  0
SEQEND
  8
gg1
  0
POLYLINE
  8
gg1
 62
1
 40
0.000000
 41
0.000000
 66
  1
  0
VERTEX
  8
gg1
 10
7.530000
 20
15.050000
  0
VERTEX
  8
gg1
 10
7.570000
 20
15.050000
  0
SEQEND
  8
gg1
  0
POLYLINE
  8
gg1
 62
1
 40
0.000000
 41
0.000000
 66
  1
  0
VERTEX
  8
gg1
 10
7.550000
 20
15.030000
  0
VERTEX
  8
gg1
 10
7.550000
 20
15.070000
  0
SEQEND
  8
gg1
  0
POLYLINE
  8
gg1
 62
1
 40
0.000000
 41
0.000000
 66
  1
  0
VERTEX
  8
gg1
 10
7.800000
 20
15.855000
  0
VERTEX
  8
gg1
 10
7.820000
 20
15.855000
  0
SEQEND
  8
gg1
  0
POLYLINE
  8
gg1
 62
1
 40
0.000000
 41
0.000000
 66
  1
  0
VERTEX
  8
gg1
 10
7.810000
 20
15.845000
  0
VERTEX
  8
gg1
 10
7.810000
 20
15.865000
  0
SEQEND
  8
gg1
  0
POLYLINE
  8
gg1
 62
1
 40
0.000000
 41
0.000000
 66
  1
  0
VERTEX
  8
gg1
 10
8.230000
 20
15.350000
  0
VERTEX
  8
gg1
 10
8.270000
 20
15.350000
  0
SEQEND
  8
gg1
  0
POLYLINE
  8
gg1
 62
1
 40
0.000000
 41
0.000000
 66
  1
  0
VERTEX
  8
gg1
 10
8.250000
 20
15.330000
  0
VERTEX
  8
gg1
 10
8.250000
 20
15.370000
  0
SEQEND
  8
gg1
  0
POLYLINE
  8
gg1
 62
1
 40
0.000000
 41
0.000000
 66
  1
  0
VERTEX
  8
gg1
 10
8.230000
 20
15.450000
  0
VERTEX
  8
gg1
 10
8.270000
 20
15.450000
  0
SEQEND
  8
gg1
  0
POLYLINE
  8
gg1
 62
1
 40
0.000000
 41
0.000000
 66
  1
  0
VERTEX
  8
gg1
 10
8.250000
 20
15.430000
  0
VERTEX
  8
gg1
 10
8.250000
 20
15.470000
  0
SEQEND
  8
gg1
  0
POLYLINE
  8
gg1
 62
1
 40
0.000000
 41
0.000000
 66
  1
  0
VERTEX
  8
gg1
 10
8.230000
 20
15.550000
  0
VERTEX
  8
gg1
 10
8.270000
 20
15.550000
  0
SEQEND
  8
gg1
  0
POLYLINE
  8
gg1
 62
1
 40
0.000000
 41
0.000000
 66
  1
  0
VERTEX
  8
gg1
 10
8.250000
 20
15.530000
  0
VERTEX
  8
gg1
 10
8.250000
 20
15.570000
  0
SEQEND
  8
gg1
  0
POLYLINE
  8
gg1
 62
1
 40
0.000000
 41
0.000000
 66
  1
  0
VERTEX
  8
gg1
 10
7.630000
 20
15.050000
  0
VERTEX
  8
gg1
 10
7.670000
 20
15.050000
  0
SEQEND
  8
gg1
  0
POLYLINE
  8
gg1
 62
1
 40
0.000000
 41
0.000000
 66
  1
  0
VERTEX
  8
gg1
 10
7.650000
 20
15.030000
  0
VERTEX
  8
gg1
 10
7.650000
 20
15.070000
  0
SEQEND
  8
gg1
  0
POLYLINE
  8
gg1
 62
1
 40
0.000000
 41
0.000000
 66
  1
  0
VERTEX
  8
gg1
 10
8.157000
 20
15.100000
  0
VERTEX
  8
gg1
 10
8.243000
 20
15.100000
  0
SEQEND
  8
gg1
  0
POLYLINE
  8
gg1
 62
1
 40
0.000000
 41
0.000000
 66
  1
  0
VERTEX
  8
gg1
 10
8.200000
 20
15.057000
  0
VERTEX
  8
gg1
 10
8.200000
 20
15.143000
  0
SEQEND
  8
gg1
  0
ENDSEC
  0
EOF
