  0
SECTION
  2
HEADER
  9
$EXTMIN
 10
183.261000
 20
378.485400
  9
$EXTMAX
 10
205.867000
 20
391.922000
  9
$LIMMIN
 10
183.261000
 20
378.485400
  9
$LIMMAX
 10
205.867000
 20
391.922000
  9
$FILLMODE
 70
  1
  0
ENDSEC
  0
SECTION
  2
TABLES
  0
TABLE
  2
LTYPE
 70
  1
  0
LTYPE
  2
CONTINUOUS
 70
 64
  3
Solid line
 72
 65
 73
  0
 40
0.0
  0
ENDTAB
  0
TABLE
  2
LAYER
 70
 1
  0
LAYER
  2
0
 70
  0
 62
7
  6
CONTINUOUS
  0
LAYER
  2
gg1
 70
  0
 62
1
  6
CONTINUOUS
  0
ENDTAB
  0
TABLE
  2
STYLE
 70
  1
  0
STYLE
  2
STANDARD
 70
  0
 40
0.0
 41
1.0
 50
0.0
 71
  0
 42
0.2
  3
txt
  4

  0
ENDTAB
  0
ENDSEC
  0
SECTION
  2
BLOCKS
  0
BLOCK
  8
0
  2
D10
 70
64
 10
0.0
 20
0.0
  3
D10
  0
CIRCLE
  8
0
 10
0.000000
 20
0.000000
 40
0.127000
 0
ENDBLK
  8
0
  0
BLOCK
  8
0
  2
D11
 70
64
 10
0.0
 20
0.0
  3
D11
  0
CIRCLE
  8
0
 10
0.000000
 20
0.000000
 40
0.063500
 0
ENDBLK
  8
0
  0
BLOCK
  8
0
  2
D12
 70
64
 10
0.0
 20
0.0
  3
D12
  0
CIRCLE
  8
0
 10
0.000000
 20
0.000000
 40
0.076200
 0
ENDBLK
  8
0
  0
ENDSEC
  0
SECTION
  2
ENTITIES
  0
POLYLINE
  8
gg1
 62
1
 40
0.000000
 41
0.000000
 66
  1
  0
VERTEX
  8
gg1
 10
186.436373
 20
391.795784
  0
VERTEX
  8
gg1
 10
187.642875
 20
391.795784
  0
SEQEND
  8
gg1
  0
POLYLINE
  8
gg1
 62
1
 40
0.000000
 41
0.000000
 66
  1
  0
VERTEX
  8
gg1
 10
186.436373
 20
380.746761
  0
VERTEX
  8
gg1
 10
187.642875
 20
380.746761
  0
SEQEND
  8
gg1
  0
POLYLINE
  8
gg1
 62
1
 40
0.000000
 41
0.000000
 66
  1
  0
VERTEX
  8
gg1
 10
186.690373
 20
386.271273
  0
VERTEX
  8
gg1
 10
186.690373
 20
391.795784
  0
SEQEND
  8
gg1
  0
POLYLINE
  8
gg1
 62
1
 40
0.000000
 41
0.000000
 66
  1
  0
VERTEX
  8
gg1
 10
186.690373
 20
380.746761
  0
VERTEX
  8
gg1
 10
186.690373
 20
386.271273
  0
SEQEND
  8
gg1
  0
POLYLINE
  8
gg1
 62
1
 40
0.000000
 41
0.000000
 66
  1
  0
VERTEX
  8
gg1
 10
186.182372
 20
390.271781
  0
VERTEX
  8
gg1
 10
186.690373
 20
391.795784
  0
VERTEX
  8
gg1
 10
187.198374
 20
390.271781
  0
SEQEND
  8
gg1
  0
POLYLINE
  8
gg1
 62
1
 40
0.000000
 41
0.000000
 66
  1
  0
VERTEX
  8
gg1
 10
186.690373
 20
380.746761
  0
VERTEX
  8
gg1
 10
187.198374
 20
382.270765
  0
SEQEND
  8
gg1
  0
POLYLINE
  8
gg1
 62
1
 40
0.000000
 41
0.000000
 66
  1
  0
VERTEX
  8
gg1
 10
186.182372
 20
382.270765
  0
VERTEX
  8
gg1
 10
186.690373
 20
380.746761
  0
SEQEND
  8
gg1
  0
POLYLINE
  8
gg1
 62
1
 40
0.000000
 41
0.000000
 66
  1
  0
VERTEX
  8
gg1
 10
187.960376
 20
379.476759
  0
VERTEX
  8
gg1
 10
189.484379
 20
379.984760
  0
SEQEND
  8
gg1
  0
POLYLINE
  8
gg1
 62
1
 40
0.000000
 41
0.000000
 66
  1
  0
VERTEX
  8
gg1
 10
187.960376
 20
379.476759
  0
VERTEX
  8
gg1
 10
189.484379
 20
378.968758
  0
SEQEND
  8
gg1
  0
POLYLINE
  8
gg1
 62
1
 40
0.000000
 41
0.000000
 66
  1
  0
VERTEX
  8
gg1
 10
204.216408
 20
378.968758
  0
VERTEX
  8
gg1
 10
205.740411
 20
379.476759
  0
SEQEND
  8
gg1
  0
POLYLINE
  8
gg1
 62
1
 40
0.000000
 41
0.000000
 66
  1
  0
VERTEX
  8
gg1
 10
204.216408
 20
379.984760
  0
VERTEX
  8
gg1
 10
205.740411
 20
379.476759
  0
SEQEND
  8
gg1
  0
POLYLINE
  8
gg1
 62
1
 40
0.000000
 41
0.000000
 66
  1
  0
VERTEX
  8
gg1
 10
187.960376
 20
379.476759
  0
VERTEX
  8
gg1
 10
192.101884
 20
379.476759
  0
SEQEND
  8
gg1
  0
POLYLINE
  8
gg1
 62
1
 40
0.000000
 41
0.000000
 66
  1
  0
VERTEX
  8
gg1
 10
200.786102
 20
379.476759
  0
VERTEX
  8
gg1
 10
205.740411
 20
379.476759
  0
SEQEND
  8
gg1
  0
POLYLINE
  8
gg1
 62
1
 40
0.000000
 41
0.000000
 66
  1
  0
VERTEX
  8
gg1
 10
187.960376
 20
379.222758
  0
VERTEX
  8
gg1
 10
187.960376
 20
380.429261
  0
SEQEND
  8
gg1
  0
POLYLINE
  8
gg1
 62
1
 40
0.000000
 41
0.000000
 66
  1
  0
VERTEX
  8
gg1
 10
205.740411
 20
379.222758
  0
VERTEX
  8
gg1
 10
205.740411
 20
380.429261
  0
SEQEND
  8
gg1
  0
POLYLINE
  8
gg1
 62
1
 40
0.000000
 41
0.000000
 66
  1
  0
VERTEX
  8
gg1
 10
187.960376
 20
380.746761
  0
VERTEX
  8
gg1
 10
187.960376
 20
391.795784
  0
VERTEX
  8
gg1
 10
205.740411
 20
391.795784
  0
SEQEND
  8
gg1
  0
POLYLINE
  8
gg1
 62
1
 40
0.000000
 41
0.000000
 66
  1
  0
VERTEX
  8
gg1
 10
205.740411
 20
380.746761
  0
VERTEX
  8
gg1
 10
205.740411
 20
391.795784
  0
SEQEND
  8
gg1
  0
POLYLINE
  8
gg1
 62
1
 40
0.000000
 41
0.000000
 66
  1
  0
VERTEX
  8
gg1
 10
187.960376
 20
380.746761
  0
VERTEX
  8
gg1
 10
205.740411
 20
380.746761
  0
SEQEND
  8
gg1
  0
POLYLINE
  8
gg1
 62
1
 40
0.000000
 41
0.000000
 66
  1
  0
VERTEX
  8
gg1
 10
189.027178
 20
388.771278
  0
VERTEX
  8
gg1
 10
191.211582
 20
388.771278
  0
SEQEND
  8
gg1
  0
POLYLINE
  8
gg1
 62
1
 40
0.000000
 41
0.000000
 66
  1
  0
VERTEX
  8
gg1
 10
190.119380
 20
387.679075
  0
VERTEX
  8
gg1
 10
190.119380
 20
389.863480
  0
SEQEND
  8
gg1
  0
POLYLINE
  8
gg1
 62
1
 40
0.000000
 41
0.000000
 66
  1
  0
VERTEX
  8
gg1
 10
191.262383
 20
390.081280
  0
VERTEX
  8
gg1
 10
192.278385
 20
390.081280
  0
SEQEND
  8
gg1
  0
POLYLINE
  8
gg1
 62
1
 40
0.000000
 41
0.000000
 66
  1
  0
VERTEX
  8
gg1
 10
191.770384
 20
389.573279
  0
VERTEX
  8
gg1
 10
191.770384
 20
390.589281
  0
SEQEND
  8
gg1
  0
POLYLINE
  8
gg1
 62
1
 40
0.000000
 41
0.000000
 66
  1
  0
VERTEX
  8
gg1
 10
191.262383
 20
387.541275
  0
VERTEX
  8
gg1
 10
192.278385
 20
387.541275
  0
SEQEND
  8
gg1
  0
POLYLINE
  8
gg1
 62
1
 40
0.000000
 41
0.000000
 66
  1
  0
VERTEX
  8
gg1
 10
191.770384
 20
387.033274
  0
VERTEX
  8
gg1
 10
191.770384
 20
388.049276
  0
SEQEND
  8
gg1
  0
POLYLINE
  8
gg1
 62
1
 40
0.000000
 41
0.000000
 66
  1
  0
VERTEX
  8
gg1
 10
201.422403
 20
385.001270
  0
VERTEX
  8
gg1
 10
202.438405
 20
385.001270
  0
SEQEND
  8
gg1
  0
POLYLINE
  8
gg1
 62
1
 40
0.000000
 41
0.000000
 66
  1
  0
VERTEX
  8
gg1
 10
201.930404
 20
384.493269
  0
VERTEX
  8
gg1
 10
201.930404
 20
385.509271
  0
SEQEND
  8
gg1
  0
POLYLINE
  8
gg1
 62
1
 40
0.000000
 41
0.000000
 66
  1
  0
VERTEX
  8
gg1
 10
201.422403
 20
382.461265
  0
VERTEX
  8
gg1
 10
202.438405
 20
382.461265
  0
SEQEND
  8
gg1
  0
POLYLINE
  8
gg1
 62
1
 40
0.000000
 41
0.000000
 66
  1
  0
VERTEX
  8
gg1
 10
201.930404
 20
381.953264
  0
VERTEX
  8
gg1
 10
201.930404
 20
382.969266
  0
SEQEND
  8
gg1
  0
POLYLINE
  8
gg1
 62
1
 40
0.000000
 41
0.000000
 66
  1
  0
VERTEX
  8
gg1
 10
189.027178
 20
383.771268
  0
VERTEX
  8
gg1
 10
191.211582
 20
383.771268
  0
SEQEND
  8
gg1
  0
POLYLINE
  8
gg1
 62
1
 40
0.000000
 41
0.000000
 66
  1
  0
VERTEX
  8
gg1
 10
190.119380
 20
382.679065
  0
VERTEX
  8
gg1
 10
190.119380
 20
384.863470
  0
SEQEND
  8
gg1
  0
POLYLINE
  8
gg1
 62
1
 40
0.000000
 41
0.000000
 66
  1
  0
VERTEX
  8
gg1
 10
202.489205
 20
383.771268
  0
VERTEX
  8
gg1
 10
204.673609
 20
383.771268
  0
SEQEND
  8
gg1
  0
POLYLINE
  8
gg1
 62
1
 40
0.000000
 41
0.000000
 66
  1
  0
VERTEX
  8
gg1
 10
203.581407
 20
382.679065
  0
VERTEX
  8
gg1
 10
203.581407
 20
384.863470
  0
SEQEND
  8
gg1
  0
POLYLINE
  8
gg1
 62
1
 40
0.000000
 41
0.000000
 66
  1
  0
VERTEX
  8
gg1
 10
191.262383
 20
385.001270
  0
VERTEX
  8
gg1
 10
192.278385
 20
385.001270
  0
SEQEND
  8
gg1
  0
POLYLINE
  8
gg1
 62
1
 40
0.000000
 41
0.000000
 66
  1
  0
VERTEX
  8
gg1
 10
191.770384
 20
384.493269
  0
VERTEX
  8
gg1
 10
191.770384
 20
385.509271
  0
SEQEND
  8
gg1
  0
POLYLINE
  8
gg1
 62
1
 40
0.000000
 41
0.000000
 66
  1
  0
VERTEX
  8
gg1
 10
191.262383
 20
382.461265
  0
VERTEX
  8
gg1
 10
192.278385
 20
382.461265
  0
SEQEND
  8
gg1
  0
POLYLINE
  8
gg1
 62
1
 40
0.000000
 41
0.000000
 66
  1
  0
VERTEX
  8
gg1
 10
191.770384
 20
381.953264
  0
VERTEX
  8
gg1
 10
191.770384
 20
382.969266
  0
SEQEND
  8
gg1
  0
POLYLINE
  8
gg1
 62
1
 40
0.000000
 41
0.000000
 66
  1
  0
VERTEX
  8
gg1
 10
193.980188
 20
384.048768
  0
VERTEX
  8
gg1
 10
194.488189
 20
384.048768
  0
SEQEND
  8
gg1
  0
POLYLINE
  8
gg1
 62
1
 40
0.000000
 41
0.000000
 66
  1
  0
VERTEX
  8
gg1
 10
194.234188
 20
383.794768
  0
VERTEX
  8
gg1
 10
194.234188
 20
384.302769
  0
SEQEND
  8
gg1
  0
POLYLINE
  8
gg1
 62
1
 40
0.000000
 41
0.000000
 66
  1
  0
VERTEX
  8
gg1
 10
202.489205
 20
388.771278
  0
VERTEX
  8
gg1
 10
204.673609
 20
388.771278
  0
SEQEND
  8
gg1
  0
POLYLINE
  8
gg1
 62
1
 40
0.000000
 41
0.000000
 66
  1
  0
VERTEX
  8
gg1
 10
203.581407
 20
387.679075
  0
VERTEX
  8
gg1
 10
203.581407
 20
389.863480
  0
SEQEND
  8
gg1
  0
POLYLINE
  8
gg1
 62
1
 40
0.000000
 41
0.000000
 66
  1
  0
VERTEX
  8
gg1
 10
201.422403
 20
387.541275
  0
VERTEX
  8
gg1
 10
202.438405
 20
387.541275
  0
SEQEND
  8
gg1
  0
POLYLINE
  8
gg1
 62
1
 40
0.000000
 41
0.000000
 66
  1
  0
VERTEX
  8
gg1
 10
201.930404
 20
387.033274
  0
VERTEX
  8
gg1
 10
201.930404
 20
388.049276
  0
SEQEND
  8
gg1
  0
POLYLINE
  8
gg1
 62
1
 40
0.000000
 41
0.000000
 66
  1
  0
VERTEX
  8
gg1
 10
201.422403
 20
390.081280
  0
VERTEX
  8
gg1
 10
202.438405
 20
390.081280
  0
SEQEND
  8
gg1
  0
POLYLINE
  8
gg1
 62
1
 40
0.000000
 41
0.000000
 66
  1
  0
VERTEX
  8
gg1
 10
201.930404
 20
389.573279
  0
VERTEX
  8
gg1
 10
201.930404
 20
390.589281
  0
SEQEND
  8
gg1
  0
POLYLINE
  8
gg1
 62
1
 40
0.000000
 41
0.000000
 66
  1
  0
VERTEX
  8
gg1
 10
184.862070
 20
382.690865
  0
VERTEX
  8
gg1
 10
183.338567
 20
382.690865
  0
VERTEX
  8
gg1
 10
184.100268
 20
381.929164
  0
VERTEX
  8
gg1
 10
184.100268
 20
382.944766
  0
SEQEND
  8
gg1
  0
POLYLINE
  8
gg1
 62
1
 40
0.000000
 41
0.000000
 66
  1
  0
VERTEX
  8
gg1
 10
183.592467
 20
383.452667
  0
VERTEX
  8
gg1
 10
183.338567
 20
383.706567
  0
VERTEX
  8
gg1
 10
183.338567
 20
384.214368
  0
VERTEX
  8
gg1
 10
183.592467
 20
384.468369
  0
VERTEX
  8
gg1
 10
183.846368
 20
384.468369
  0
VERTEX
  8
gg1
 10
184.100268
 20
384.214368
  0
VERTEX
  8
gg1
 10
184.100268
 20
383.960468
  0
VERTEX
  8
gg1
 10
184.100268
 20
384.214368
  0
VERTEX
  8
gg1
 10
184.354269
 20
384.468369
  0
VERTEX
  8
gg1
 10
184.608169
 20
384.468369
  0
VERTEX
  8
gg1
 10
184.862070
 20
384.214368
  0
VERTEX
  8
gg1
 10
184.862070
 20
383.706567
  0
VERTEX
  8
gg1
 10
184.608169
 20
383.452667
  0
SEQEND
  8
gg1
  0
POLYLINE
  8
gg1
 62
1
 40
0.000000
 41
0.000000
 66
  1
  0
VERTEX
  8
gg1
 10
183.338567
 20
385.991872
  0
VERTEX
  8
gg1
 10
183.338567
 20
384.976170
  0
VERTEX
  8
gg1
 10
184.100268
 20
384.976170
  0
VERTEX
  8
gg1
 10
183.846368
 20
385.483971
  0
VERTEX
  8
gg1
 10
183.846368
 20
385.737971
  0
VERTEX
  8
gg1
 10
184.100268
 20
385.991872
  0
VERTEX
  8
gg1
 10
184.608169
 20
385.991872
  0
VERTEX
  8
gg1
 10
184.862070
 20
385.737971
  0
VERTEX
  8
gg1
 10
184.862070
 20
385.230070
  0
VERTEX
  8
gg1
 10
184.608169
 20
384.976170
  0
SEQEND
  8
gg1
  0
POLYLINE
  8
gg1
 62
1
 40
0.000000
 41
0.000000
 66
  1
  0
VERTEX
  8
gg1
 10
184.862070
 20
386.499673
  0
VERTEX
  8
gg1
 10
183.846368
 20
386.499673
  0
VERTEX
  8
gg1
 10
183.846368
 20
386.753574
  0
VERTEX
  8
gg1
 10
184.100268
 20
387.007474
  0
VERTEX
  8
gg1
 10
184.862070
 20
387.007474
  0
VERTEX
  8
gg1
 10
184.100268
 20
387.007474
  0
VERTEX
  8
gg1
 10
183.846368
 20
387.261475
  0
VERTEX
  8
gg1
 10
184.100268
 20
387.515375
  0
VERTEX
  8
gg1
 10
184.862070
 20
387.515375
  0
SEQEND
  8
gg1
  0
POLYLINE
  8
gg1
 62
1
 40
0.000000
 41
0.000000
 66
  1
  0
VERTEX
  8
gg1
 10
184.862070
 20
388.023176
  0
VERTEX
  8
gg1
 10
184.862070
 20
388.530977
  0
VERTEX
  8
gg1
 10
184.862070
 20
388.277077
  0
VERTEX
  8
gg1
 10
183.846368
 20
388.277077
  0
VERTEX
  8
gg1
 10
183.846368
 20
388.023176
  0
SEQEND
  8
gg1
  0
POLYLINE
  8
gg1
 62
1
 40
0.000000
 41
0.000000
 66
  1
  0
VERTEX
  8
gg1
 10
184.862070
 20
389.292779
  0
VERTEX
  8
gg1
 10
184.862070
 20
389.800580
  0
VERTEX
  8
gg1
 10
184.862070
 20
389.546679
  0
VERTEX
  8
gg1
 10
183.338567
 20
389.546679
  0
VERTEX
  8
gg1
 10
183.338567
 20
389.292779
  0
SEQEND
  8
gg1
  0
POLYLINE
  8
gg1
 62
1
 40
0.000000
 41
0.000000
 66
  1
  0
VERTEX
  8
gg1
 10
192.508285
 20
380.086160
  0
VERTEX
  8
gg1
 10
193.523887
 20
380.086160
  0
VERTEX
  8
gg1
 10
193.523887
 20
379.832160
  0
VERTEX
  8
gg1
 10
192.508285
 20
378.816558
  0
VERTEX
  8
gg1
 10
192.508285
 20
378.562657
  0
SEQEND
  8
gg1
  0
POLYLINE
  8
gg1
 62
1
 40
0.000000
 41
0.000000
 66
  1
  0
VERTEX
  8
gg1
 10
194.031788
 20
379.832160
  0
VERTEX
  8
gg1
 10
194.285689
 20
380.086160
  0
VERTEX
  8
gg1
 10
194.793490
 20
380.086160
  0
VERTEX
  8
gg1
 10
195.047390
 20
379.832160
  0
VERTEX
  8
gg1
 10
195.047390
 20
378.816558
  0
VERTEX
  8
gg1
 10
194.793490
 20
378.562657
  0
VERTEX
  8
gg1
 10
194.285689
 20
378.562657
  0
VERTEX
  8
gg1
 10
194.031788
 20
378.816558
  0
VERTEX
  8
gg1
 10
194.031788
 20
379.832160
  0
SEQEND
  8
gg1
  0
POLYLINE
  8
gg1
 62
1
 40
0.000000
 41
0.000000
 66
  1
  0
VERTEX
  8
gg1
 10
195.555291
 20
379.832160
  0
VERTEX
  8
gg1
 10
195.809192
 20
380.086160
  0
VERTEX
  8
gg1
 10
196.316993
 20
380.086160
  0
VERTEX
  8
gg1
 10
196.570993
 20
379.832160
  0
VERTEX
  8
gg1
 10
196.570993
 20
378.816558
  0
VERTEX
  8
gg1
 10
196.316993
 20
378.562657
  0
VERTEX
  8
gg1
 10
195.809192
 20
378.562657
  0
VERTEX
  8
gg1
 10
195.555291
 20
378.816558
  0
VERTEX
  8
gg1
 10
195.555291
 20
379.832160
  0
SEQEND
  8
gg1
  0
POLYLINE
  8
gg1
 62
1
 40
0.000000
 41
0.000000
 66
  1
  0
VERTEX
  8
gg1
 10
197.078794
 20
378.562657
  0
VERTEX
  8
gg1
 10
197.078794
 20
379.578259
  0
VERTEX
  8
gg1
 10
197.332695
 20
379.578259
  0
VERTEX
  8
gg1
 10
197.586595
 20
379.324359
  0
VERTEX
  8
gg1
 10
197.586595
 20
378.562657
  0
VERTEX
  8
gg1
 10
197.586595
 20
379.324359
  0
VERTEX
  8
gg1
 10
197.840496
 20
379.578259
  0
VERTEX
  8
gg1
 10
198.094496
 20
379.324359
  0
VERTEX
  8
gg1
 10
198.094496
 20
378.562657
  0
SEQEND
  8
gg1
  0
POLYLINE
  8
gg1
 62
1
 40
0.000000
 41
0.000000
 66
  1
  0
VERTEX
  8
gg1
 10
198.602297
 20
378.562657
  0
VERTEX
  8
gg1
 10
199.110098
 20
378.562657
  0
VERTEX
  8
gg1
 10
198.856198
 20
378.562657
  0
VERTEX
  8
gg1
 10
198.856198
 20
379.578259
  0
VERTEX
  8
gg1
 10
198.602297
 20
379.578259
  0
SEQEND
  8
gg1
  0
POLYLINE
  8
gg1
 62
1
 40
0.000000
 41
0.000000
 66
  1
  0
VERTEX
  8
gg1
 10
199.871900
 20
378.562657
  0
VERTEX
  8
gg1
 10
200.379701
 20
378.562657
  0
VERTEX
  8
gg1
 10
200.125800
 20
378.562657
  0
VERTEX
  8
gg1
 10
200.125800
 20
380.086160
  0
VERTEX
  8
gg1
 10
199.871900
 20
380.086160
  0
SEQEND
  8
gg1
  0
ENDSEC
  0
EOF
