  0
SECTION
  2
HEADER
  9
$EXTMIN
 10
7.373000
 20
14.798000
  9
$EXTMAX
 10
7.905000
 20
15.755000
  9
$LIMMIN
 10
7.373000
 20
14.798000
  9
$LIMMAX
 10
7.905000
 20
15.755000
  9
$FILLMODE
 70
  1
  0
ENDSEC
  0
SECTION
  2
TABLES
  0
TABLE
  2
LTYPE
 70
  1
  0
LTYPE
  2
CONTINUOUS
 70
 64
  3
Solid line
 72
 65
 73
  0
 40
0.0
  0
ENDTAB
  0
TABLE
  2
LAYER
 70
 1
  0
LAYER
  2
0
 70
  0
 62
7
  6
CONTINUOUS
  0
LAYER
  2
gg1
 70
  0
 62
1
  6
CONTINUOUS
  0
ENDTAB
  0
TABLE
  2
STYLE
 70
  1
  0
STYLE
  2
STANDARD
 70
  0
 40
0.0
 41
1.0
 50
0.0
 71
  0
 42
0.2
  3
txt
  4

  0
ENDTAB
  0
ENDSEC
  0
SECTION
  2
BLOCKS
  0
BLOCK
  8
0
  2
D10
 70
64
 10
0.0
 20
0.0
  3
D10
  0
CIRCLE
  8
0
 10
0.000000
 20
0.000000
 40
0.002500
 0
ENDBLK
  8
0
  0
BLOCK
  8
0
  2
D11
 70
64
 10
0.0
 20
0.0
  3
D11
  0
CIRCLE
  8
0
 10
0.000000
 20
0.000000
 40
0.005000
 0
ENDBLK
  8
0
  0
BLOCK
  8
0
  2
D12
 70
64
 10
0.0
 20
0.0
  3
D12
  0
CIRCLE
  8
0
 10
0.000000
 20
0.000000
 40
0.003000
 0
ENDBLK
  8
0
  0
ENDSEC
  0
SECTION
  2
ENTITIES
  0
POLYLINE
  8
gg1
 62
1
 40
0.000000
 41
0.000000
 66
  1
  0
VERTEX
  8
gg1
 10
7.500000
 20
15.000000
  0
VERTEX
  8
gg1
 10
7.900000
 20
15.000000
  0
VERTEX
  8
gg1
 10
7.900000
 20
15.750000
  0
SEQEND
  8
gg1
  0
POLYLINE
  8
gg1
 62
1
 40
0.000000
 41
0.000000
 66
  1
  0
VERTEX
  8
gg1
 10
7.500000
 20
15.750000
  0
VERTEX
  8
gg1
 10
7.900000
 20
15.750000
  0
SEQEND
  8
gg1
  0
POLYLINE
  8
gg1
 62
1
 40
0.000000
 41
0.000000
 66
  1
  0
VERTEX
  8
gg1
 10
7.500000
 20
15.000000
  0
VERTEX
  8
gg1
 10
7.500000
 20
15.750000
  0
SEQEND
  8
gg1
  0
POLYLINE
  8
gg1
 62
1
 40
0.000000
 41
0.000000
 66
  1
  0
VERTEX
  8
gg1
 10
7.530000
 20
15.050000
  0
VERTEX
  8
gg1
 10
7.570000
 20
15.050000
  0
SEQEND
  8
gg1
  0
POLYLINE
  8
gg1
 62
1
 40
0.000000
 41
0.000000
 66
  1
  0
VERTEX
  8
gg1
 10
7.550000
 20
15.030000
  0
VERTEX
  8
gg1
 10
7.550000
 20
15.070000
  0
SEQEND
  8
gg1
  0
POLYLINE
  8
gg1
 62
1
 40
0.000000
 41
0.000000
 66
  1
  0
VERTEX
  8
gg1
 10
7.630000
 20
15.050000
  0
VERTEX
  8
gg1
 10
7.670000
 20
15.050000
  0
SEQEND
  8
gg1
  0
POLYLINE
  8
gg1
 62
1
 40
0.000000
 41
0.000000
 66
  1
  0
VERTEX
  8
gg1
 10
7.650000
 20
15.030000
  0
VERTEX
  8
gg1
 10
7.650000
 20
15.070000
  0
SEQEND
  8
gg1
  0
POLYLINE
  8
gg1
 62
1
 40
0.000000
 41
0.000000
 66
  1
  0
VERTEX
  8
gg1
 10
7.730000
 20
15.050000
  0
VERTEX
  8
gg1
 10
7.770000
 20
15.050000
  0
SEQEND
  8
gg1
  0
POLYLINE
  8
gg1
 62
1
 40
0.000000
 41
0.000000
 66
  1
  0
VERTEX
  8
gg1
 10
7.750000
 20
15.030000
  0
VERTEX
  8
gg1
 10
7.750000
 20
15.070000
  0
SEQEND
  8
gg1
  0
POLYLINE
  8
gg1
 62
1
 40
0.000000
 41
0.000000
 66
  1
  0
VERTEX
  8
gg1
 10
7.830000
 20
15.050000
  0
VERTEX
  8
gg1
 10
7.870000
 20
15.050000
  0
SEQEND
  8
gg1
  0
POLYLINE
  8
gg1
 62
1
 40
0.000000
 41
0.000000
 66
  1
  0
VERTEX
  8
gg1
 10
7.850000
 20
15.030000
  0
VERTEX
  8
gg1
 10
7.850000
 20
15.070000
  0
SEQEND
  8
gg1
  0
POLYLINE
  8
gg1
 62
1
 40
0.000000
 41
0.000000
 66
  1
  0
VERTEX
  8
gg1
 10
7.500000
 20
14.900000
  0
VERTEX
  8
gg1
 10
7.560000
 20
14.920000
  0
SEQEND
  8
gg1
  0
POLYLINE
  8
gg1
 62
1
 40
0.000000
 41
0.000000
 66
  1
  0
VERTEX
  8
gg1
 10
7.500000
 20
14.900000
  0
VERTEX
  8
gg1
 10
7.560000
 20
14.880000
  0
SEQEND
  8
gg1
  0
POLYLINE
  8
gg1
 62
1
 40
0.000000
 41
0.000000
 66
  1
  0
VERTEX
  8
gg1
 10
7.840000
 20
14.880000
  0
VERTEX
  8
gg1
 10
7.900000
 20
14.900000
  0
SEQEND
  8
gg1
  0
POLYLINE
  8
gg1
 62
1
 40
0.000000
 41
0.000000
 66
  1
  0
VERTEX
  8
gg1
 10
7.840000
 20
14.920000
  0
VERTEX
  8
gg1
 10
7.900000
 20
14.900000
  0
SEQEND
  8
gg1
  0
POLYLINE
  8
gg1
 62
1
 40
0.000000
 41
0.000000
 66
  1
  0
VERTEX
  8
gg1
 10
7.500000
 20
14.900000
  0
VERTEX
  8
gg1
 10
7.700000
 20
14.900000
  0
VERTEX
  8
gg1
 10
7.900000
 20
14.900000
  0
SEQEND
  8
gg1
  0
POLYLINE
  8
gg1
 62
1
 40
0.000000
 41
0.000000
 66
  1
  0
VERTEX
  8
gg1
 10
7.500000
 20
14.890000
  0
VERTEX
  8
gg1
 10
7.500000
 20
14.987500
  0
SEQEND
  8
gg1
  0
POLYLINE
  8
gg1
 62
1
 40
0.000000
 41
0.000000
 66
  1
  0
VERTEX
  8
gg1
 10
7.900000
 20
14.890000
  0
VERTEX
  8
gg1
 10
7.900000
 20
14.987500
  0
SEQEND
  8
gg1
  0
POLYLINE
  8
gg1
 62
1
 40
0.000000
 41
0.000000
 66
  1
  0
VERTEX
  8
gg1
 10
7.400000
 20
15.750000
  0
VERTEX
  8
gg1
 10
7.420000
 20
15.690000
  0
SEQEND
  8
gg1
  0
POLYLINE
  8
gg1
 62
1
 40
0.000000
 41
0.000000
 66
  1
  0
VERTEX
  8
gg1
 10
7.380000
 20
15.690000
  0
VERTEX
  8
gg1
 10
7.400000
 20
15.750000
  0
SEQEND
  8
gg1
  0
POLYLINE
  8
gg1
 62
1
 40
0.000000
 41
0.000000
 66
  1
  0
VERTEX
  8
gg1
 10
7.380000
 20
15.060000
  0
VERTEX
  8
gg1
 10
7.400000
 20
15.000000
  0
VERTEX
  8
gg1
 10
7.420000
 20
15.060000
  0
SEQEND
  8
gg1
  0
POLYLINE
  8
gg1
 62
1
 40
0.000000
 41
0.000000
 66
  1
  0
VERTEX
  8
gg1
 10
7.400000
 20
15.530000
  0
VERTEX
  8
gg1
 10
7.400000
 20
15.750000
  0
SEQEND
  8
gg1
  0
POLYLINE
  8
gg1
 62
1
 40
0.000000
 41
0.000000
 66
  1
  0
VERTEX
  8
gg1
 10
7.400000
 20
15.000000
  0
VERTEX
  8
gg1
 10
7.400000
 20
15.188100
  0
SEQEND
  8
gg1
  0
POLYLINE
  8
gg1
 62
1
 40
0.000000
 41
0.000000
 66
  1
  0
VERTEX
  8
gg1
 10
7.390000
 20
15.750000
  0
VERTEX
  8
gg1
 10
7.487500
 20
15.750000
  0
SEQEND
  8
gg1
  0
POLYLINE
  8
gg1
 62
1
 40
0.000000
 41
0.000000
 66
  1
  0
VERTEX
  8
gg1
 10
7.390000
 20
15.000000
  0
VERTEX
  8
gg1
 10
7.487500
 20
15.000000
  0
SEQEND
  8
gg1
  0
POLYLINE
  8
gg1
 62
1
 40
0.000000
 41
0.000000
 66
  1
  0
VERTEX
  8
gg1
 10
7.576000
 20
14.801000
  0
VERTEX
  8
gg1
 10
7.576000
 20
14.861000
  0
VERTEX
  8
gg1
 10
7.546000
 20
14.831000
  0
VERTEX
  8
gg1
 10
7.586000
 20
14.831000
  0
SEQEND
  8
gg1
  0
POLYLINE
  8
gg1
 62
1
 40
0.000000
 41
0.000000
 66
  1
  0
VERTEX
  8
gg1
 10
7.606000
 20
14.851000
  0
VERTEX
  8
gg1
 10
7.616000
 20
14.861000
  0
VERTEX
  8
gg1
 10
7.636000
 20
14.861000
  0
VERTEX
  8
gg1
 10
7.646000
 20
14.851000
  0
VERTEX
  8
gg1
 10
7.646000
 20
14.811000
  0
VERTEX
  8
gg1
 10
7.636000
 20
14.801000
  0
VERTEX
  8
gg1
 10
7.616000
 20
14.801000
  0
VERTEX
  8
gg1
 10
7.606000
 20
14.811000
  0
VERTEX
  8
gg1
 10
7.606000
 20
14.851000
  0
SEQEND
  8
gg1
  0
POLYLINE
  8
gg1
 62
1
 40
0.000000
 41
0.000000
 66
  1
  0
VERTEX
  8
gg1
 10
7.666000
 20
14.851000
  0
VERTEX
  8
gg1
 10
7.676000
 20
14.861000
  0
VERTEX
  8
gg1
 10
7.696000
 20
14.861000
  0
VERTEX
  8
gg1
 10
7.705900
 20
14.851000
  0
VERTEX
  8
gg1
 10
7.705900
 20
14.811000
  0
VERTEX
  8
gg1
 10
7.696000
 20
14.801000
  0
VERTEX
  8
gg1
 10
7.676000
 20
14.801000
  0
VERTEX
  8
gg1
 10
7.666000
 20
14.811000
  0
VERTEX
  8
gg1
 10
7.666000
 20
14.851000
  0
SEQEND
  8
gg1
  0
POLYLINE
  8
gg1
 62
1
 40
0.000000
 41
0.000000
 66
  1
  0
VERTEX
  8
gg1
 10
7.725900
 20
14.801000
  0
VERTEX
  8
gg1
 10
7.725900
 20
14.841000
  0
VERTEX
  8
gg1
 10
7.735900
 20
14.841000
  0
VERTEX
  8
gg1
 10
7.745900
 20
14.831000
  0
VERTEX
  8
gg1
 10
7.745900
 20
14.801000
  0
VERTEX
  8
gg1
 10
7.745900
 20
14.831000
  0
VERTEX
  8
gg1
 10
7.755900
 20
14.841000
  0
VERTEX
  8
gg1
 10
7.765900
 20
14.831000
  0
VERTEX
  8
gg1
 10
7.765900
 20
14.801000
  0
SEQEND
  8
gg1
  0
POLYLINE
  8
gg1
 62
1
 40
0.000000
 41
0.000000
 66
  1
  0
VERTEX
  8
gg1
 10
7.785900
 20
14.801000
  0
VERTEX
  8
gg1
 10
7.805900
 20
14.801000
  0
VERTEX
  8
gg1
 10
7.795900
 20
14.801000
  0
VERTEX
  8
gg1
 10
7.795900
 20
14.841000
  0
VERTEX
  8
gg1
 10
7.785900
 20
14.841000
  0
SEQEND
  8
gg1
  0
POLYLINE
  8
gg1
 62
1
 40
0.000000
 41
0.000000
 66
  1
  0
VERTEX
  8
gg1
 10
7.835900
 20
14.801000
  0
VERTEX
  8
gg1
 10
7.855900
 20
14.801000
  0
VERTEX
  8
gg1
 10
7.845900
 20
14.801000
  0
VERTEX
  8
gg1
 10
7.845900
 20
14.861000
  0
VERTEX
  8
gg1
 10
7.835900
 20
14.861000
  0
SEQEND
  8
gg1
  0
POLYLINE
  8
gg1
 62
1
 40
0.000000
 41
0.000000
 66
  1
  0
VERTEX
  8
gg1
 10
7.376000
 20
15.204100
  0
VERTEX
  8
gg1
 10
7.376000
 20
15.244000
  0
VERTEX
  8
gg1
 10
7.386000
 20
15.244000
  0
VERTEX
  8
gg1
 10
7.426000
 20
15.204100
  0
VERTEX
  8
gg1
 10
7.436000
 20
15.204100
  0
SEQEND
  8
gg1
  0
POLYLINE
  8
gg1
 62
1
 40
0.000000
 41
0.000000
 66
  1
  0
VERTEX
  8
gg1
 10
7.376000
 20
15.304000
  0
VERTEX
  8
gg1
 10
7.376000
 20
15.264000
  0
VERTEX
  8
gg1
 10
7.406000
 20
15.264000
  0
VERTEX
  8
gg1
 10
7.396000
 20
15.284000
  0
VERTEX
  8
gg1
 10
7.396000
 20
15.294000
  0
VERTEX
  8
gg1
 10
7.406000
 20
15.304000
  0
VERTEX
  8
gg1
 10
7.426000
 20
15.304000
  0
VERTEX
  8
gg1
 10
7.436000
 20
15.294000
  0
VERTEX
  8
gg1
 10
7.436000
 20
15.274000
  0
VERTEX
  8
gg1
 10
7.426000
 20
15.264000
  0
SEQEND
  8
gg1
  0
POLYLINE
  8
gg1
 62
1
 40
0.000000
 41
0.000000
 66
  1
  0
VERTEX
  8
gg1
 10
7.386000
 20
15.324000
  0
VERTEX
  8
gg1
 10
7.376000
 20
15.334000
  0
VERTEX
  8
gg1
 10
7.376000
 20
15.354000
  0
VERTEX
  8
gg1
 10
7.386000
 20
15.364000
  0
VERTEX
  8
gg1
 10
7.426000
 20
15.364000
  0
VERTEX
  8
gg1
 10
7.436000
 20
15.354000
  0
VERTEX
  8
gg1
 10
7.436000
 20
15.334000
  0
VERTEX
  8
gg1
 10
7.426000
 20
15.324000
  0
VERTEX
  8
gg1
 10
7.386000
 20
15.324000
  0
SEQEND
  8
gg1
  0
POLYLINE
  8
gg1
 62
1
 40
0.000000
 41
0.000000
 66
  1
  0
VERTEX
  8
gg1
 10
7.436000
 20
15.384000
  0
VERTEX
  8
gg1
 10
7.396000
 20
15.384000
  0
VERTEX
  8
gg1
 10
7.396000
 20
15.394000
  0
VERTEX
  8
gg1
 10
7.406000
 20
15.404000
  0
VERTEX
  8
gg1
 10
7.436000
 20
15.404000
  0
VERTEX
  8
gg1
 10
7.406000
 20
15.404000
  0
VERTEX
  8
gg1
 10
7.396000
 20
15.414000
  0
VERTEX
  8
gg1
 10
7.406000
 20
15.424000
  0
VERTEX
  8
gg1
 10
7.436000
 20
15.424000
  0
SEQEND
  8
gg1
  0
POLYLINE
  8
gg1
 62
1
 40
0.000000
 41
0.000000
 66
  1
  0
VERTEX
  8
gg1
 10
7.436000
 20
15.444000
  0
VERTEX
  8
gg1
 10
7.436000
 20
15.464000
  0
VERTEX
  8
gg1
 10
7.436000
 20
15.454000
  0
VERTEX
  8
gg1
 10
7.396000
 20
15.454000
  0
VERTEX
  8
gg1
 10
7.396000
 20
15.444000
  0
SEQEND
  8
gg1
  0
POLYLINE
  8
gg1
 62
1
 40
0.000000
 41
0.000000
 66
  1
  0
VERTEX
  8
gg1
 10
7.436000
 20
15.494000
  0
VERTEX
  8
gg1
 10
7.436000
 20
15.514000
  0
VERTEX
  8
gg1
 10
7.436000
 20
15.504000
  0
VERTEX
  8
gg1
 10
7.376000
 20
15.504000
  0
VERTEX
  8
gg1
 10
7.376000
 20
15.494000
  0
SEQEND
  8
gg1
  0
ENDSEC
  0
EOF
