  0
SECTION
  2
HEADER
  9
$EXTMIN
 10
187.274200
 20
377.469400
  9
$EXTMAX
 10
210.947000
 20
414.147000
  9
$LIMMIN
 10
187.274200
 20
377.469400
  9
$LIMMAX
 10
210.947000
 20
414.147000
  9
$FILLMODE
 70
  1
  0
ENDSEC
  0
SECTION
  2
TABLES
  0
TABLE
  2
LTYPE
 70
  1
  0
LTYPE
  2
CONTINUOUS
 70
 64
  3
Solid line
 72
 65
 73
  0
 40
0.0
  0
ENDTAB
  0
TABLE
  2
LAYER
 70
 1
  0
LAYER
  2
0
 70
  0
 62
7
  6
CONTINUOUS
  0
LAYER
  2
gg1
 70
  0
 62
1
  6
CONTINUOUS
  0
ENDTAB
  0
TABLE
  2
STYLE
 70
  1
  0
STYLE
  2
STANDARD
 70
  0
 40
0.0
 41
1.0
 50
0.0
 71
  0
 42
0.2
  3
txt
  4

  0
ENDTAB
  0
ENDSEC
  0
SECTION
  2
BLOCKS
  0
BLOCK
  8
0
  2
D10
 70
64
 10
0.0
 20
0.0
  3
D10
  0
CIRCLE
  8
0
 10
0.000000
 20
0.000000
 40
0.127000
 0
ENDBLK
  8
0
  0
BLOCK
  8
0
  2
D11
 70
64
 10
0.0
 20
0.0
  3
D11
  0
CIRCLE
  8
0
 10
0.000000
 20
0.000000
 40
0.063500
 0
ENDBLK
  8
0
  0
BLOCK
  8
0
  2
D12
 70
64
 10
0.0
 20
0.0
  3
D12
  0
CIRCLE
  8
0
 10
0.000000
 20
0.000000
 40
0.076200
 0
ENDBLK
  8
0
  0
ENDSEC
  0
SECTION
  2
ENTITIES
  0
POLYLINE
  8
gg1
 62
1
 40
0.000000
 41
0.000000
 66
  1
  0
VERTEX
  8
gg1
 10
187.706375
 20
414.020828
  0
VERTEX
  8
gg1
 10
190.182880
 20
414.020828
  0
SEQEND
  8
gg1
  0
POLYLINE
  8
gg1
 62
1
 40
0.000000
 41
0.000000
 66
  1
  0
VERTEX
  8
gg1
 10
187.706375
 20
381.000762
  0
VERTEX
  8
gg1
 10
190.182880
 20
381.000762
  0
SEQEND
  8
gg1
  0
POLYLINE
  8
gg1
 62
1
 40
0.000000
 41
0.000000
 66
  1
  0
VERTEX
  8
gg1
 10
187.960376
 20
402.081304
  0
VERTEX
  8
gg1
 10
187.960376
 20
414.020828
  0
SEQEND
  8
gg1
  0
POLYLINE
  8
gg1
 62
1
 40
0.000000
 41
0.000000
 66
  1
  0
VERTEX
  8
gg1
 10
187.960376
 20
381.000762
  0
VERTEX
  8
gg1
 10
187.960376
 20
392.127484
  0
SEQEND
  8
gg1
  0
POLYLINE
  8
gg1
 62
1
 40
0.000000
 41
0.000000
 66
  1
  0
VERTEX
  8
gg1
 10
187.452375
 20
412.496825
  0
VERTEX
  8
gg1
 10
187.960376
 20
414.020828
  0
VERTEX
  8
gg1
 10
188.468377
 20
412.496825
  0
SEQEND
  8
gg1
  0
POLYLINE
  8
gg1
 62
1
 40
0.000000
 41
0.000000
 66
  1
  0
VERTEX
  8
gg1
 10
187.960376
 20
381.000762
  0
VERTEX
  8
gg1
 10
188.468377
 20
382.524765
  0
SEQEND
  8
gg1
  0
POLYLINE
  8
gg1
 62
1
 40
0.000000
 41
0.000000
 66
  1
  0
VERTEX
  8
gg1
 10
187.452375
 20
382.524765
  0
VERTEX
  8
gg1
 10
187.960376
 20
381.000762
  0
SEQEND
  8
gg1
  0
POLYLINE
  8
gg1
 62
1
 40
0.000000
 41
0.000000
 66
  1
  0
VERTEX
  8
gg1
 10
210.820422
 20
378.206756
  0
VERTEX
  8
gg1
 10
210.820422
 20
380.683261
  0
SEQEND
  8
gg1
  0
POLYLINE
  8
gg1
 62
1
 40
0.000000
 41
0.000000
 66
  1
  0
VERTEX
  8
gg1
 10
190.500381
 20
378.206756
  0
VERTEX
  8
gg1
 10
190.500381
 20
380.683261
  0
SEQEND
  8
gg1
  0
POLYLINE
  8
gg1
 62
1
 40
0.000000
 41
0.000000
 66
  1
  0
VERTEX
  8
gg1
 10
204.596109
 20
378.460757
  0
VERTEX
  8
gg1
 10
210.820422
 20
378.460757
  0
SEQEND
  8
gg1
  0
POLYLINE
  8
gg1
 62
1
 40
0.000000
 41
0.000000
 66
  1
  0
VERTEX
  8
gg1
 10
190.500381
 20
378.460757
  0
VERTEX
  8
gg1
 10
195.911892
 20
378.460757
  0
SEQEND
  8
gg1
  0
POLYLINE
  8
gg1
 62
1
 40
0.000000
 41
0.000000
 66
  1
  0
VERTEX
  8
gg1
 10
209.296419
 20
378.968758
  0
VERTEX
  8
gg1
 10
210.820422
 20
378.460757
  0
SEQEND
  8
gg1
  0
POLYLINE
  8
gg1
 62
1
 40
0.000000
 41
0.000000
 66
  1
  0
VERTEX
  8
gg1
 10
209.296419
 20
377.952756
  0
VERTEX
  8
gg1
 10
210.820422
 20
378.460757
  0
SEQEND
  8
gg1
  0
POLYLINE
  8
gg1
 62
1
 40
0.000000
 41
0.000000
 66
  1
  0
VERTEX
  8
gg1
 10
190.500381
 20
378.460757
  0
VERTEX
  8
gg1
 10
192.024384
 20
377.952756
  0
SEQEND
  8
gg1
  0
POLYLINE
  8
gg1
 62
1
 40
0.000000
 41
0.000000
 66
  1
  0
VERTEX
  8
gg1
 10
190.500381
 20
378.460757
  0
VERTEX
  8
gg1
 10
192.024384
 20
378.968758
  0
SEQEND
  8
gg1
  0
POLYLINE
  8
gg1
 62
1
 40
0.000000
 41
0.000000
 66
  1
  0
VERTEX
  8
gg1
 10
210.820422
 20
381.000762
  0
VERTEX
  8
gg1
 10
210.820422
 20
414.020828
  0
SEQEND
  8
gg1
  0
POLYLINE
  8
gg1
 62
1
 40
0.000000
 41
0.000000
 66
  1
  0
VERTEX
  8
gg1
 10
190.500381
 20
414.020828
  0
VERTEX
  8
gg1
 10
210.820422
 20
414.020828
  0
SEQEND
  8
gg1
  0
POLYLINE
  8
gg1
 62
1
 40
0.000000
 41
0.000000
 66
  1
  0
VERTEX
  8
gg1
 10
190.500381
 20
381.000762
  0
VERTEX
  8
gg1
 10
190.500381
 20
414.020828
  0
SEQEND
  8
gg1
  0
POLYLINE
  8
gg1
 62
1
 40
0.000000
 41
0.000000
 66
  1
  0
VERTEX
  8
gg1
 10
190.500381
 20
381.000762
  0
VERTEX
  8
gg1
 10
210.820422
 20
381.000762
  0
SEQEND
  8
gg1
  0
POLYLINE
  8
gg1
 62
1
 40
0.000000
 41
0.000000
 66
  1
  0
VERTEX
  8
gg1
 10
191.262383
 20
410.210820
  0
VERTEX
  8
gg1
 10
192.278385
 20
410.210820
  0
SEQEND
  8
gg1
  0
POLYLINE
  8
gg1
 62
1
 40
0.000000
 41
0.000000
 66
  1
  0
VERTEX
  8
gg1
 10
191.770384
 20
409.702819
  0
VERTEX
  8
gg1
 10
191.770384
 20
410.718821
  0
SEQEND
  8
gg1
  0
POLYLINE
  8
gg1
 62
1
 40
0.000000
 41
0.000000
 66
  1
  0
VERTEX
  8
gg1
 10
198.882398
 20
412.750826
  0
VERTEX
  8
gg1
 10
199.898400
 20
412.750826
  0
SEQEND
  8
gg1
  0
POLYLINE
  8
gg1
 62
1
 40
0.000000
 41
0.000000
 66
  1
  0
VERTEX
  8
gg1
 10
199.390399
 20
412.242824
  0
VERTEX
  8
gg1
 10
199.390399
 20
413.258827
  0
SEQEND
  8
gg1
  0
POLYLINE
  8
gg1
 62
1
 40
0.000000
 41
0.000000
 66
  1
  0
VERTEX
  8
gg1
 10
209.042418
 20
387.350775
  0
VERTEX
  8
gg1
 10
210.058420
 20
387.350775
  0
SEQEND
  8
gg1
  0
POLYLINE
  8
gg1
 62
1
 40
0.000000
 41
0.000000
 66
  1
  0
VERTEX
  8
gg1
 10
209.550419
 20
386.842774
  0
VERTEX
  8
gg1
 10
209.550419
 20
387.858776
  0
SEQEND
  8
gg1
  0
POLYLINE
  8
gg1
 62
1
 40
0.000000
 41
0.000000
 66
  1
  0
VERTEX
  8
gg1
 10
206.807214
 20
388.740777
  0
VERTEX
  8
gg1
 10
208.991618
 20
388.740777
  0
SEQEND
  8
gg1
  0
POLYLINE
  8
gg1
 62
1
 40
0.000000
 41
0.000000
 66
  1
  0
VERTEX
  8
gg1
 10
207.899416
 20
387.648575
  0
VERTEX
  8
gg1
 10
207.899416
 20
389.832980
  0
SEQEND
  8
gg1
  0
POLYLINE
  8
gg1
 62
1
 40
0.000000
 41
0.000000
 66
  1
  0
VERTEX
  8
gg1
 10
209.042418
 20
389.890780
  0
VERTEX
  8
gg1
 10
210.058420
 20
389.890780
  0
SEQEND
  8
gg1
  0
POLYLINE
  8
gg1
 62
1
 40
0.000000
 41
0.000000
 66
  1
  0
VERTEX
  8
gg1
 10
209.550419
 20
389.382779
  0
VERTEX
  8
gg1
 10
209.550419
 20
390.398781
  0
SEQEND
  8
gg1
  0
POLYLINE
  8
gg1
 62
1
 40
0.000000
 41
0.000000
 66
  1
  0
VERTEX
  8
gg1
 10
193.802388
 20
402.590805
  0
VERTEX
  8
gg1
 10
194.818390
 20
402.590805
  0
SEQEND
  8
gg1
  0
POLYLINE
  8
gg1
 62
1
 40
0.000000
 41
0.000000
 66
  1
  0
VERTEX
  8
gg1
 10
194.310389
 20
402.082804
  0
VERTEX
  8
gg1
 10
194.310389
 20
403.098806
  0
SEQEND
  8
gg1
  0
POLYLINE
  8
gg1
 62
1
 40
0.000000
 41
0.000000
 66
  1
  0
VERTEX
  8
gg1
 10
191.262383
 20
412.750826
  0
VERTEX
  8
gg1
 10
192.278385
 20
412.750826
  0
SEQEND
  8
gg1
  0
POLYLINE
  8
gg1
 62
1
 40
0.000000
 41
0.000000
 66
  1
  0
VERTEX
  8
gg1
 10
191.770384
 20
412.242824
  0
VERTEX
  8
gg1
 10
191.770384
 20
413.258827
  0
SEQEND
  8
gg1
  0
POLYLINE
  8
gg1
 62
1
 40
0.000000
 41
0.000000
 66
  1
  0
VERTEX
  8
gg1
 10
193.882388
 20
412.750826
  0
VERTEX
  8
gg1
 10
194.898390
 20
412.750826
  0
SEQEND
  8
gg1
  0
POLYLINE
  8
gg1
 62
1
 40
0.000000
 41
0.000000
 66
  1
  0
VERTEX
  8
gg1
 10
194.390389
 20
412.242824
  0
VERTEX
  8
gg1
 10
194.390389
 20
413.258827
  0
SEQEND
  8
gg1
  0
POLYLINE
  8
gg1
 62
1
 40
0.000000
 41
0.000000
 66
  1
  0
VERTEX
  8
gg1
 10
195.382391
 20
412.750826
  0
VERTEX
  8
gg1
 10
196.398393
 20
412.750826
  0
SEQEND
  8
gg1
  0
POLYLINE
  8
gg1
 62
1
 40
0.000000
 41
0.000000
 66
  1
  0
VERTEX
  8
gg1
 10
195.890392
 20
412.242824
  0
VERTEX
  8
gg1
 10
195.890392
 20
413.258827
  0
SEQEND
  8
gg1
  0
POLYLINE
  8
gg1
 62
1
 40
0.000000
 41
0.000000
 66
  1
  0
VERTEX
  8
gg1
 10
201.168402
 20
409.702819
  0
VERTEX
  8
gg1
 10
201.676403
 20
409.702819
  0
SEQEND
  8
gg1
  0
POLYLINE
  8
gg1
 62
1
 40
0.000000
 41
0.000000
 66
  1
  0
VERTEX
  8
gg1
 10
201.422403
 20
409.448819
  0
VERTEX
  8
gg1
 10
201.422403
 20
409.956820
  0
SEQEND
  8
gg1
  0
POLYLINE
  8
gg1
 62
1
 40
0.000000
 41
0.000000
 66
  1
  0
VERTEX
  8
gg1
 10
191.262383
 20
405.130810
  0
VERTEX
  8
gg1
 10
192.278385
 20
405.130810
  0
SEQEND
  8
gg1
  0
POLYLINE
  8
gg1
 62
1
 40
0.000000
 41
0.000000
 66
  1
  0
VERTEX
  8
gg1
 10
191.770384
 20
404.622809
  0
VERTEX
  8
gg1
 10
191.770384
 20
405.638811
  0
SEQEND
  8
gg1
  0
POLYLINE
  8
gg1
 62
1
 40
0.000000
 41
0.000000
 66
  1
  0
VERTEX
  8
gg1
 10
193.802388
 20
405.130810
  0
VERTEX
  8
gg1
 10
194.818390
 20
405.130810
  0
SEQEND
  8
gg1
  0
POLYLINE
  8
gg1
 62
1
 40
0.000000
 41
0.000000
 66
  1
  0
VERTEX
  8
gg1
 10
194.310389
 20
404.622809
  0
VERTEX
  8
gg1
 10
194.310389
 20
405.638811
  0
SEQEND
  8
gg1
  0
POLYLINE
  8
gg1
 62
1
 40
0.000000
 41
0.000000
 66
  1
  0
VERTEX
  8
gg1
 10
191.262383
 20
407.670815
  0
VERTEX
  8
gg1
 10
192.278385
 20
407.670815
  0
SEQEND
  8
gg1
  0
POLYLINE
  8
gg1
 62
1
 40
0.000000
 41
0.000000
 66
  1
  0
VERTEX
  8
gg1
 10
191.770384
 20
407.162814
  0
VERTEX
  8
gg1
 10
191.770384
 20
408.178816
  0
SEQEND
  8
gg1
  0
POLYLINE
  8
gg1
 62
1
 40
0.000000
 41
0.000000
 66
  1
  0
VERTEX
  8
gg1
 10
209.042418
 20
400.050800
  0
VERTEX
  8
gg1
 10
210.058420
 20
400.050800
  0
SEQEND
  8
gg1
  0
POLYLINE
  8
gg1
 62
1
 40
0.000000
 41
0.000000
 66
  1
  0
VERTEX
  8
gg1
 10
209.550419
 20
399.542799
  0
VERTEX
  8
gg1
 10
209.550419
 20
400.558801
  0
SEQEND
  8
gg1
  0
POLYLINE
  8
gg1
 62
1
 40
0.000000
 41
0.000000
 66
  1
  0
VERTEX
  8
gg1
 10
209.042418
 20
397.510795
  0
VERTEX
  8
gg1
 10
210.058420
 20
397.510795
  0
SEQEND
  8
gg1
  0
POLYLINE
  8
gg1
 62
1
 40
0.000000
 41
0.000000
 66
  1
  0
VERTEX
  8
gg1
 10
209.550419
 20
397.002794
  0
VERTEX
  8
gg1
 10
209.550419
 20
398.018796
  0
SEQEND
  8
gg1
  0
POLYLINE
  8
gg1
 62
1
 40
0.000000
 41
0.000000
 66
  1
  0
VERTEX
  8
gg1
 10
206.807214
 20
398.740797
  0
VERTEX
  8
gg1
 10
208.991618
 20
398.740797
  0
SEQEND
  8
gg1
  0
POLYLINE
  8
gg1
 62
1
 40
0.000000
 41
0.000000
 66
  1
  0
VERTEX
  8
gg1
 10
207.899416
 20
397.648595
  0
VERTEX
  8
gg1
 10
207.899416
 20
399.833000
  0
SEQEND
  8
gg1
  0
POLYLINE
  8
gg1
 62
1
 40
0.000000
 41
0.000000
 66
  1
  0
VERTEX
  8
gg1
 10
209.042418
 20
392.430785
  0
VERTEX
  8
gg1
 10
210.058420
 20
392.430785
  0
SEQEND
  8
gg1
  0
POLYLINE
  8
gg1
 62
1
 40
0.000000
 41
0.000000
 66
  1
  0
VERTEX
  8
gg1
 10
209.550419
 20
391.922784
  0
VERTEX
  8
gg1
 10
209.550419
 20
392.938786
  0
SEQEND
  8
gg1
  0
POLYLINE
  8
gg1
 62
1
 40
0.000000
 41
0.000000
 66
  1
  0
VERTEX
  8
gg1
 10
209.042418
 20
394.970790
  0
VERTEX
  8
gg1
 10
210.058420
 20
394.970790
  0
SEQEND
  8
gg1
  0
POLYLINE
  8
gg1
 62
1
 40
0.000000
 41
0.000000
 66
  1
  0
VERTEX
  8
gg1
 10
209.550419
 20
394.462789
  0
VERTEX
  8
gg1
 10
209.550419
 20
395.478791
  0
SEQEND
  8
gg1
  0
POLYLINE
  8
gg1
 62
1
 40
0.000000
 41
0.000000
 66
  1
  0
VERTEX
  8
gg1
 10
206.807214
 20
393.740787
  0
VERTEX
  8
gg1
 10
208.991618
 20
393.740787
  0
SEQEND
  8
gg1
  0
POLYLINE
  8
gg1
 62
1
 40
0.000000
 41
0.000000
 66
  1
  0
VERTEX
  8
gg1
 10
207.899416
 20
392.648585
  0
VERTEX
  8
gg1
 10
207.899416
 20
394.832990
  0
SEQEND
  8
gg1
  0
POLYLINE
  8
gg1
 62
1
 40
0.000000
 41
0.000000
 66
  1
  0
VERTEX
  8
gg1
 10
209.042418
 20
405.130810
  0
VERTEX
  8
gg1
 10
210.058420
 20
405.130810
  0
SEQEND
  8
gg1
  0
POLYLINE
  8
gg1
 62
1
 40
0.000000
 41
0.000000
 66
  1
  0
VERTEX
  8
gg1
 10
209.550419
 20
404.622809
  0
VERTEX
  8
gg1
 10
209.550419
 20
405.638811
  0
SEQEND
  8
gg1
  0
POLYLINE
  8
gg1
 62
1
 40
0.000000
 41
0.000000
 66
  1
  0
VERTEX
  8
gg1
 10
209.042418
 20
402.590805
  0
VERTEX
  8
gg1
 10
210.058420
 20
402.590805
  0
SEQEND
  8
gg1
  0
POLYLINE
  8
gg1
 62
1
 40
0.000000
 41
0.000000
 66
  1
  0
VERTEX
  8
gg1
 10
209.550419
 20
402.082804
  0
VERTEX
  8
gg1
 10
209.550419
 20
403.098806
  0
SEQEND
  8
gg1
  0
POLYLINE
  8
gg1
 62
1
 40
0.000000
 41
0.000000
 66
  1
  0
VERTEX
  8
gg1
 10
206.807214
 20
403.740807
  0
VERTEX
  8
gg1
 10
208.991618
 20
403.740807
  0
SEQEND
  8
gg1
  0
POLYLINE
  8
gg1
 62
1
 40
0.000000
 41
0.000000
 66
  1
  0
VERTEX
  8
gg1
 10
207.899416
 20
402.648605
  0
VERTEX
  8
gg1
 10
207.899416
 20
404.833010
  0
SEQEND
  8
gg1
  0
POLYLINE
  8
gg1
 62
1
 40
0.000000
 41
0.000000
 66
  1
  0
VERTEX
  8
gg1
 10
191.262383
 20
387.350775
  0
VERTEX
  8
gg1
 10
192.278385
 20
387.350775
  0
SEQEND
  8
gg1
  0
POLYLINE
  8
gg1
 62
1
 40
0.000000
 41
0.000000
 66
  1
  0
VERTEX
  8
gg1
 10
191.770384
 20
386.842774
  0
VERTEX
  8
gg1
 10
191.770384
 20
387.858776
  0
SEQEND
  8
gg1
  0
POLYLINE
  8
gg1
 62
1
 40
0.000000
 41
0.000000
 66
  1
  0
VERTEX
  8
gg1
 10
191.262383
 20
384.810770
  0
VERTEX
  8
gg1
 10
192.278385
 20
384.810770
  0
SEQEND
  8
gg1
  0
POLYLINE
  8
gg1
 62
1
 40
0.000000
 41
0.000000
 66
  1
  0
VERTEX
  8
gg1
 10
191.770384
 20
384.302769
  0
VERTEX
  8
gg1
 10
191.770384
 20
385.318771
  0
SEQEND
  8
gg1
  0
POLYLINE
  8
gg1
 62
1
 40
0.000000
 41
0.000000
 66
  1
  0
VERTEX
  8
gg1
 10
191.262383
 20
392.430785
  0
VERTEX
  8
gg1
 10
192.278385
 20
392.430785
  0
SEQEND
  8
gg1
  0
POLYLINE
  8
gg1
 62
1
 40
0.000000
 41
0.000000
 66
  1
  0
VERTEX
  8
gg1
 10
191.770384
 20
391.922784
  0
VERTEX
  8
gg1
 10
191.770384
 20
392.938786
  0
SEQEND
  8
gg1
  0
POLYLINE
  8
gg1
 62
1
 40
0.000000
 41
0.000000
 66
  1
  0
VERTEX
  8
gg1
 10
191.262383
 20
402.590805
  0
VERTEX
  8
gg1
 10
192.278385
 20
402.590805
  0
SEQEND
  8
gg1
  0
POLYLINE
  8
gg1
 62
1
 40
0.000000
 41
0.000000
 66
  1
  0
VERTEX
  8
gg1
 10
191.770384
 20
402.082804
  0
VERTEX
  8
gg1
 10
191.770384
 20
403.098806
  0
SEQEND
  8
gg1
  0
POLYLINE
  8
gg1
 62
1
 40
0.000000
 41
0.000000
 66
  1
  0
VERTEX
  8
gg1
 10
191.262383
 20
394.970790
  0
VERTEX
  8
gg1
 10
192.278385
 20
394.970790
  0
SEQEND
  8
gg1
  0
POLYLINE
  8
gg1
 62
1
 40
0.000000
 41
0.000000
 66
  1
  0
VERTEX
  8
gg1
 10
191.770384
 20
394.462789
  0
VERTEX
  8
gg1
 10
191.770384
 20
395.478791
  0
SEQEND
  8
gg1
  0
POLYLINE
  8
gg1
 62
1
 40
0.000000
 41
0.000000
 66
  1
  0
VERTEX
  8
gg1
 10
191.262383
 20
389.890780
  0
VERTEX
  8
gg1
 10
192.278385
 20
389.890780
  0
SEQEND
  8
gg1
  0
POLYLINE
  8
gg1
 62
1
 40
0.000000
 41
0.000000
 66
  1
  0
VERTEX
  8
gg1
 10
191.770384
 20
389.382779
  0
VERTEX
  8
gg1
 10
191.770384
 20
390.398781
  0
SEQEND
  8
gg1
  0
POLYLINE
  8
gg1
 62
1
 40
0.000000
 41
0.000000
 66
  1
  0
VERTEX
  8
gg1
 10
191.262383
 20
400.050800
  0
VERTEX
  8
gg1
 10
192.278385
 20
400.050800
  0
SEQEND
  8
gg1
  0
POLYLINE
  8
gg1
 62
1
 40
0.000000
 41
0.000000
 66
  1
  0
VERTEX
  8
gg1
 10
191.770384
 20
399.542799
  0
VERTEX
  8
gg1
 10
191.770384
 20
400.558801
  0
SEQEND
  8
gg1
  0
POLYLINE
  8
gg1
 62
1
 40
0.000000
 41
0.000000
 66
  1
  0
VERTEX
  8
gg1
 10
191.262383
 20
382.270765
  0
VERTEX
  8
gg1
 10
192.278385
 20
382.270765
  0
SEQEND
  8
gg1
  0
POLYLINE
  8
gg1
 62
1
 40
0.000000
 41
0.000000
 66
  1
  0
VERTEX
  8
gg1
 10
191.770384
 20
381.762764
  0
VERTEX
  8
gg1
 10
191.770384
 20
382.778766
  0
SEQEND
  8
gg1
  0
POLYLINE
  8
gg1
 62
1
 40
0.000000
 41
0.000000
 66
  1
  0
VERTEX
  8
gg1
 10
191.262383
 20
397.510795
  0
VERTEX
  8
gg1
 10
192.278385
 20
397.510795
  0
SEQEND
  8
gg1
  0
POLYLINE
  8
gg1
 62
1
 40
0.000000
 41
0.000000
 66
  1
  0
VERTEX
  8
gg1
 10
191.770384
 20
397.002794
  0
VERTEX
  8
gg1
 10
191.770384
 20
398.018796
  0
SEQEND
  8
gg1
  0
POLYLINE
  8
gg1
 62
1
 40
0.000000
 41
0.000000
 66
  1
  0
VERTEX
  8
gg1
 10
207.188214
 20
383.540767
  0
VERTEX
  8
gg1
 10
209.372619
 20
383.540767
  0
SEQEND
  8
gg1
  0
POLYLINE
  8
gg1
 62
1
 40
0.000000
 41
0.000000
 66
  1
  0
VERTEX
  8
gg1
 10
208.280417
 20
382.448565
  0
VERTEX
  8
gg1
 10
208.280417
 20
384.632969
  0
SEQEND
  8
gg1
  0
POLYLINE
  8
gg1
 62
1
 40
0.000000
 41
0.000000
 66
  1
  0
VERTEX
  8
gg1
 10
207.188214
 20
411.480823
  0
VERTEX
  8
gg1
 10
209.372619
 20
411.480823
  0
SEQEND
  8
gg1
  0
POLYLINE
  8
gg1
 62
1
 40
0.000000
 41
0.000000
 66
  1
  0
VERTEX
  8
gg1
 10
208.280417
 20
410.388621
  0
VERTEX
  8
gg1
 10
208.280417
 20
412.573025
  0
SEQEND
  8
gg1
  0
POLYLINE
  8
gg1
 62
1
 40
0.000000
 41
0.000000
 66
  1
  0
VERTEX
  8
gg1
 10
188.874478
 20
392.533885
  0
VERTEX
  8
gg1
 10
188.874478
 20
393.041686
  0
VERTEX
  8
gg1
 10
188.874478
 20
392.787786
  0
VERTEX
  8
gg1
 10
187.350975
 20
392.787786
  0
VERTEX
  8
gg1
 10
187.604975
 20
392.533885
  0
SEQEND
  8
gg1
  0
POLYLINE
  8
gg1
 62
1
 40
0.000000
 41
0.000000
 66
  1
  0
VERTEX
  8
gg1
 10
187.604975
 20
393.803488
  0
VERTEX
  8
gg1
 10
187.350975
 20
394.057388
  0
VERTEX
  8
gg1
 10
187.350975
 20
394.565189
  0
VERTEX
  8
gg1
 10
187.604975
 20
394.819090
  0
VERTEX
  8
gg1
 10
187.858876
 20
394.819090
  0
VERTEX
  8
gg1
 10
188.112776
 20
394.565189
  0
VERTEX
  8
gg1
 10
188.112776
 20
394.311289
  0
VERTEX
  8
gg1
 10
188.112776
 20
394.565189
  0
VERTEX
  8
gg1
 10
188.366677
 20
394.819090
  0
VERTEX
  8
gg1
 10
188.620577
 20
394.819090
  0
VERTEX
  8
gg1
 10
188.874478
 20
394.565189
  0
VERTEX
  8
gg1
 10
188.874478
 20
394.057388
  0
VERTEX
  8
gg1
 10
188.620577
 20
393.803488
  0
SEQEND
  8
gg1
  0
POLYLINE
  8
gg1
 62
1
 40
0.000000
 41
0.000000
 66
  1
  0
VERTEX
  8
gg1
 10
187.604975
 20
395.326991
  0
VERTEX
  8
gg1
 10
187.350975
 20
395.580891
  0
VERTEX
  8
gg1
 10
187.350975
 20
396.088692
  0
VERTEX
  8
gg1
 10
187.604975
 20
396.342693
  0
VERTEX
  8
gg1
 10
188.620577
 20
396.342693
  0
VERTEX
  8
gg1
 10
188.874478
 20
396.088692
  0
VERTEX
  8
gg1
 10
188.874478
 20
395.580891
  0
VERTEX
  8
gg1
 10
188.620577
 20
395.326991
  0
VERTEX
  8
gg1
 10
187.604975
 20
395.326991
  0
SEQEND
  8
gg1
  0
POLYLINE
  8
gg1
 62
1
 40
0.000000
 41
0.000000
 66
  1
  0
VERTEX
  8
gg1
 10
187.604975
 20
396.850494
  0
VERTEX
  8
gg1
 10
187.350975
 20
397.104394
  0
VERTEX
  8
gg1
 10
187.350975
 20
397.612195
  0
VERTEX
  8
gg1
 10
187.604975
 20
397.866196
  0
VERTEX
  8
gg1
 10
188.620577
 20
397.866196
  0
VERTEX
  8
gg1
 10
188.874478
 20
397.612195
  0
VERTEX
  8
gg1
 10
188.874478
 20
397.104394
  0
VERTEX
  8
gg1
 10
188.620577
 20
396.850494
  0
VERTEX
  8
gg1
 10
187.604975
 20
396.850494
  0
SEQEND
  8
gg1
  0
POLYLINE
  8
gg1
 62
1
 40
0.000000
 41
0.000000
 66
  1
  0
VERTEX
  8
gg1
 10
188.874478
 20
398.373997
  0
VERTEX
  8
gg1
 10
187.858876
 20
398.373997
  0
VERTEX
  8
gg1
 10
187.858876
 20
398.627897
  0
VERTEX
  8
gg1
 10
188.112776
 20
398.881798
  0
VERTEX
  8
gg1
 10
188.874478
 20
398.881798
  0
VERTEX
  8
gg1
 10
188.112776
 20
398.881798
  0
VERTEX
  8
gg1
 10
187.858876
 20
399.135698
  0
VERTEX
  8
gg1
 10
188.112776
 20
399.389699
  0
VERTEX
  8
gg1
 10
188.874478
 20
399.389699
  0
SEQEND
  8
gg1
  0
POLYLINE
  8
gg1
 62
1
 40
0.000000
 41
0.000000
 66
  1
  0
VERTEX
  8
gg1
 10
188.874478
 20
399.897500
  0
VERTEX
  8
gg1
 10
188.874478
 20
400.405301
  0
VERTEX
  8
gg1
 10
188.874478
 20
400.151400
  0
VERTEX
  8
gg1
 10
187.858876
 20
400.151400
  0
VERTEX
  8
gg1
 10
187.858876
 20
399.897500
  0
SEQEND
  8
gg1
  0
POLYLINE
  8
gg1
 62
1
 40
0.000000
 41
0.000000
 66
  1
  0
VERTEX
  8
gg1
 10
188.874478
 20
401.167102
  0
VERTEX
  8
gg1
 10
188.874478
 20
401.674903
  0
VERTEX
  8
gg1
 10
188.874478
 20
401.421003
  0
VERTEX
  8
gg1
 10
187.350975
 20
401.421003
  0
VERTEX
  8
gg1
 10
187.350975
 20
401.167102
  0
SEQEND
  8
gg1
  0
POLYLINE
  8
gg1
 62
1
 40
0.000000
 41
0.000000
 66
  1
  0
VERTEX
  8
gg1
 10
196.318293
 20
378.816158
  0
VERTEX
  8
gg1
 10
196.572193
 20
379.070058
  0
VERTEX
  8
gg1
 10
197.079994
 20
379.070058
  0
VERTEX
  8
gg1
 10
197.333895
 20
378.816158
  0
VERTEX
  8
gg1
 10
197.333895
 20
378.562257
  0
VERTEX
  8
gg1
 10
197.079994
 20
378.308357
  0
VERTEX
  8
gg1
 10
197.333895
 20
378.054456
  0
VERTEX
  8
gg1
 10
197.333895
 20
377.800556
  0
VERTEX
  8
gg1
 10
197.079994
 20
377.546555
  0
VERTEX
  8
gg1
 10
196.572193
 20
377.546555
  0
VERTEX
  8
gg1
 10
196.318293
 20
377.800556
  0
VERTEX
  8
gg1
 10
196.318293
 20
378.054456
  0
VERTEX
  8
gg1
 10
196.572193
 20
378.308357
  0
VERTEX
  8
gg1
 10
196.318293
 20
378.562257
  0
VERTEX
  8
gg1
 10
196.318293
 20
378.816158
  0
SEQEND
  8
gg1
  0
POLYLINE
  8
gg1
 62
1
 40
0.000000
 41
0.000000
 66
  1
  0
VERTEX
  8
gg1
 10
196.572193
 20
378.308357
  0
VERTEX
  8
gg1
 10
197.079994
 20
378.308357
  0
SEQEND
  8
gg1
  0
POLYLINE
  8
gg1
 62
1
 40
0.000000
 41
0.000000
 66
  1
  0
VERTEX
  8
gg1
 10
197.841796
 20
378.816158
  0
VERTEX
  8
gg1
 10
198.095696
 20
379.070058
  0
VERTEX
  8
gg1
 10
198.603497
 20
379.070058
  0
VERTEX
  8
gg1
 10
198.857498
 20
378.816158
  0
VERTEX
  8
gg1
 10
198.857498
 20
377.800556
  0
VERTEX
  8
gg1
 10
198.603497
 20
377.546555
  0
VERTEX
  8
gg1
 10
198.095696
 20
377.546555
  0
VERTEX
  8
gg1
 10
197.841796
 20
377.800556
  0
VERTEX
  8
gg1
 10
197.841796
 20
378.816158
  0
SEQEND
  8
gg1
  0
POLYLINE
  8
gg1
 62
1
 40
0.000000
 41
0.000000
 66
  1
  0
VERTEX
  8
gg1
 10
199.365299
 20
378.816158
  0
VERTEX
  8
gg1
 10
199.619199
 20
379.070058
  0
VERTEX
  8
gg1
 10
200.127000
 20
379.070058
  0
VERTEX
  8
gg1
 10
200.381001
 20
378.816158
  0
VERTEX
  8
gg1
 10
200.381001
 20
377.800556
  0
VERTEX
  8
gg1
 10
200.127000
 20
377.546555
  0
VERTEX
  8
gg1
 10
199.619199
 20
377.546555
  0
VERTEX
  8
gg1
 10
199.365299
 20
377.800556
  0
VERTEX
  8
gg1
 10
199.365299
 20
378.816158
  0
SEQEND
  8
gg1
  0
POLYLINE
  8
gg1
 62
1
 40
0.000000
 41
0.000000
 66
  1
  0
VERTEX
  8
gg1
 10
200.888802
 20
377.546555
  0
VERTEX
  8
gg1
 10
200.888802
 20
378.562257
  0
VERTEX
  8
gg1
 10
201.142702
 20
378.562257
  0
VERTEX
  8
gg1
 10
201.396603
 20
378.308357
  0
VERTEX
  8
gg1
 10
201.396603
 20
377.546555
  0
VERTEX
  8
gg1
 10
201.396603
 20
378.308357
  0
VERTEX
  8
gg1
 10
201.650503
 20
378.562257
  0
VERTEX
  8
gg1
 10
201.904504
 20
378.308357
  0
VERTEX
  8
gg1
 10
201.904504
 20
377.546555
  0
SEQEND
  8
gg1
  0
POLYLINE
  8
gg1
 62
1
 40
0.000000
 41
0.000000
 66
  1
  0
VERTEX
  8
gg1
 10
202.412305
 20
377.546555
  0
VERTEX
  8
gg1
 10
202.920106
 20
377.546555
  0
VERTEX
  8
gg1
 10
202.666205
 20
377.546555
  0
VERTEX
  8
gg1
 10
202.666205
 20
378.562257
  0
VERTEX
  8
gg1
 10
202.412305
 20
378.562257
  0
SEQEND
  8
gg1
  0
POLYLINE
  8
gg1
 62
1
 40
0.000000
 41
0.000000
 66
  1
  0
VERTEX
  8
gg1
 10
203.681907
 20
377.546555
  0
VERTEX
  8
gg1
 10
204.189708
 20
377.546555
  0
VERTEX
  8
gg1
 10
203.935808
 20
377.546555
  0
VERTEX
  8
gg1
 10
203.935808
 20
379.070058
  0
VERTEX
  8
gg1
 10
203.681907
 20
379.070058
  0
SEQEND
  8
gg1
  0
ENDSEC
  0
EOF
