  0
SECTION
  2
HEADER
  9
$EXTMIN
 10
7.373000
 20
14.861000
  9
$EXTMAX
 10
9.205000
 20
16.255000
  9
$LIMMIN
 10
7.373000
 20
14.861000
  9
$LIMMAX
 10
9.205000
 20
16.255000
  9
$FILLMODE
 70
  1
  0
ENDSEC
  0
SECTION
  2
TABLES
  0
TABLE
  2
LTYPE
 70
  1
  0
LTYPE
  2
CONTINUOUS
 70
 64
  3
Solid line
 72
 65
 73
  0
 40
0.0
  0
ENDTAB
  0
TABLE
  2
LAYER
 70
 1
  0
LAYER
  2
0
 70
  0
 62
7
  6
CONTINUOUS
  0
LAYER
  2
gg1
 70
  0
 62
1
  6
CONTINUOUS
  0
ENDTAB
  0
TABLE
  2
STYLE
 70
  1
  0
STYLE
  2
STANDARD
 70
  0
 40
0.0
 41
1.0
 50
0.0
 71
  0
 42
0.2
  3
txt
  4

  0
ENDTAB
  0
ENDSEC
  0
SECTION
  2
BLOCKS
  0
BLOCK
  8
0
  2
D10
 70
64
 10
0.0
 20
0.0
  3
D10
  0
CIRCLE
  8
0
 10
0.000000
 20
0.000000
 40
0.005000
 0
ENDBLK
  8
0
  0
BLOCK
  8
0
  2
D11
 70
64
 10
0.0
 20
0.0
  3
D11
  0
CIRCLE
  8
0
 10
0.000000
 20
0.000000
 40
0.003000
 0
ENDBLK
  8
0
  0
BLOCK
  8
0
  2
D12
 70
64
 10
0.0
 20
0.0
  3
D12
  0
CIRCLE
  8
0
 10
0.000000
 20
0.000000
 40
0.002500
 0
ENDBLK
  8
0
  0
ENDSEC
  0
SECTION
  2
ENTITIES
  0
POLYLINE
  8
gg1
 62
1
 40
0.000000
 41
0.000000
 66
  1
  0
VERTEX
  8
gg1
 10
7.500000
 20
16.250000
  0
VERTEX
  8
gg1
 10
9.200000
 20
16.250000
  0
SEQEND
  8
gg1
  0
POLYLINE
  8
gg1
 62
1
 40
0.000000
 41
0.000000
 66
  1
  0
VERTEX
  8
gg1
 10
9.200000
 20
15.000000
  0
VERTEX
  8
gg1
 10
9.200000
 20
16.250000
  0
SEQEND
  8
gg1
  0
POLYLINE
  8
gg1
 62
1
 40
0.000000
 41
0.000000
 66
  1
  0
VERTEX
  8
gg1
 10
7.500000
 20
15.000000
  0
VERTEX
  8
gg1
 10
9.200000
 20
15.000000
  0
SEQEND
  8
gg1
  0
POLYLINE
  8
gg1
 62
1
 40
0.000000
 41
0.000000
 66
  1
  0
VERTEX
  8
gg1
 10
7.500000
 20
15.000000
  0
VERTEX
  8
gg1
 10
7.500000
 20
16.250000
  0
SEQEND
  8
gg1
  0
POLYLINE
  8
gg1
 62
1
 40
0.000000
 41
0.000000
 66
  1
  0
VERTEX
  8
gg1
 10
9.200000
 20
14.890000
  0
VERTEX
  8
gg1
 10
9.200000
 20
14.990000
  0
SEQEND
  8
gg1
  0
POLYLINE
  8
gg1
 62
1
 40
0.000000
 41
0.000000
 66
  1
  0
VERTEX
  8
gg1
 10
7.500000
 20
14.890000
  0
VERTEX
  8
gg1
 10
7.500000
 20
14.990000
  0
SEQEND
  8
gg1
  0
POLYLINE
  8
gg1
 62
1
 40
0.000000
 41
0.000000
 66
  1
  0
VERTEX
  8
gg1
 10
8.529900
 20
14.900000
  0
VERTEX
  8
gg1
 10
9.200000
 20
14.900000
  0
SEQEND
  8
gg1
  0
POLYLINE
  8
gg1
 62
1
 40
0.000000
 41
0.000000
 66
  1
  0
VERTEX
  8
gg1
 10
7.500000
 20
14.900000
  0
VERTEX
  8
gg1
 10
8.138100
 20
14.900000
  0
SEQEND
  8
gg1
  0
POLYLINE
  8
gg1
 62
1
 40
0.000000
 41
0.000000
 66
  1
  0
VERTEX
  8
gg1
 10
9.140000
 20
14.920000
  0
VERTEX
  8
gg1
 10
9.200000
 20
14.900000
  0
SEQEND
  8
gg1
  0
POLYLINE
  8
gg1
 62
1
 40
0.000000
 41
0.000000
 66
  1
  0
VERTEX
  8
gg1
 10
9.140000
 20
14.880000
  0
VERTEX
  8
gg1
 10
9.200000
 20
14.900000
  0
SEQEND
  8
gg1
  0
POLYLINE
  8
gg1
 62
1
 40
0.000000
 41
0.000000
 66
  1
  0
VERTEX
  8
gg1
 10
7.500000
 20
14.900000
  0
VERTEX
  8
gg1
 10
7.560000
 20
14.880000
  0
SEQEND
  8
gg1
  0
POLYLINE
  8
gg1
 62
1
 40
0.000000
 41
0.000000
 66
  1
  0
VERTEX
  8
gg1
 10
7.500000
 20
14.900000
  0
VERTEX
  8
gg1
 10
7.560000
 20
14.920000
  0
SEQEND
  8
gg1
  0
POLYLINE
  8
gg1
 62
1
 40
0.000000
 41
0.000000
 66
  1
  0
VERTEX
  8
gg1
 10
7.390000
 20
16.250000
  0
VERTEX
  8
gg1
 10
7.490000
 20
16.250000
  0
SEQEND
  8
gg1
  0
POLYLINE
  8
gg1
 62
1
 40
0.000000
 41
0.000000
 66
  1
  0
VERTEX
  8
gg1
 10
7.390000
 20
15.000000
  0
VERTEX
  8
gg1
 10
7.490000
 20
15.000000
  0
SEQEND
  8
gg1
  0
POLYLINE
  8
gg1
 62
1
 40
0.000000
 41
0.000000
 66
  1
  0
VERTEX
  8
gg1
 10
7.400000
 20
15.804900
  0
VERTEX
  8
gg1
 10
7.400000
 20
16.250000
  0
SEQEND
  8
gg1
  0
POLYLINE
  8
gg1
 62
1
 40
0.000000
 41
0.000000
 66
  1
  0
VERTEX
  8
gg1
 10
7.400000
 20
15.000000
  0
VERTEX
  8
gg1
 10
7.400000
 20
15.413100
  0
SEQEND
  8
gg1
  0
POLYLINE
  8
gg1
 62
1
 40
0.000000
 41
0.000000
 66
  1
  0
VERTEX
  8
gg1
 10
7.380000
 20
16.190000
  0
VERTEX
  8
gg1
 10
7.400000
 20
16.250000
  0
VERTEX
  8
gg1
 10
7.420000
 20
16.190000
  0
SEQEND
  8
gg1
  0
POLYLINE
  8
gg1
 62
1
 40
0.000000
 41
0.000000
 66
  1
  0
VERTEX
  8
gg1
 10
7.400000
 20
15.000000
  0
VERTEX
  8
gg1
 10
7.420000
 20
15.060000
  0
SEQEND
  8
gg1
  0
POLYLINE
  8
gg1
 62
1
 40
0.000000
 41
0.000000
 66
  1
  0
VERTEX
  8
gg1
 10
7.380000
 20
15.060000
  0
VERTEX
  8
gg1
 10
7.400000
 20
15.000000
  0
SEQEND
  8
gg1
  0
POLYLINE
  8
gg1
 62
1
 40
0.000000
 41
0.000000
 66
  1
  0
VERTEX
  8
gg1
 10
8.154100
 20
14.864000
  0
VERTEX
  8
gg1
 10
8.174100
 20
14.864000
  0
VERTEX
  8
gg1
 10
8.164100
 20
14.864000
  0
VERTEX
  8
gg1
 10
8.164100
 20
14.924000
  0
VERTEX
  8
gg1
 10
8.154100
 20
14.914000
  0
SEQEND
  8
gg1
  0
POLYLINE
  8
gg1
 62
1
 40
0.000000
 41
0.000000
 66
  1
  0
VERTEX
  8
gg1
 10
8.204000
 20
14.924000
  0
VERTEX
  8
gg1
 10
8.244000
 20
14.924000
  0
VERTEX
  8
gg1
 10
8.244000
 20
14.914000
  0
VERTEX
  8
gg1
 10
8.204000
 20
14.874000
  0
VERTEX
  8
gg1
 10
8.204000
 20
14.864000
  0
SEQEND
  8
gg1
  0
POLYLINE
  8
gg1
 62
1
 40
0.000000
 41
0.000000
 66
  1
  0
VERTEX
  8
gg1
 10
8.264000
 20
14.914000
  0
VERTEX
  8
gg1
 10
8.274000
 20
14.924000
  0
VERTEX
  8
gg1
 10
8.294000
 20
14.924000
  0
VERTEX
  8
gg1
 10
8.304000
 20
14.914000
  0
VERTEX
  8
gg1
 10
8.304000
 20
14.874000
  0
VERTEX
  8
gg1
 10
8.294000
 20
14.864000
  0
VERTEX
  8
gg1
 10
8.274000
 20
14.864000
  0
VERTEX
  8
gg1
 10
8.264000
 20
14.874000
  0
VERTEX
  8
gg1
 10
8.264000
 20
14.914000
  0
SEQEND
  8
gg1
  0
POLYLINE
  8
gg1
 62
1
 40
0.000000
 41
0.000000
 66
  1
  0
VERTEX
  8
gg1
 10
8.324000
 20
14.914000
  0
VERTEX
  8
gg1
 10
8.334000
 20
14.924000
  0
VERTEX
  8
gg1
 10
8.354000
 20
14.924000
  0
VERTEX
  8
gg1
 10
8.364000
 20
14.914000
  0
VERTEX
  8
gg1
 10
8.364000
 20
14.874000
  0
VERTEX
  8
gg1
 10
8.354000
 20
14.864000
  0
VERTEX
  8
gg1
 10
8.334000
 20
14.864000
  0
VERTEX
  8
gg1
 10
8.324000
 20
14.874000
  0
VERTEX
  8
gg1
 10
8.324000
 20
14.914000
  0
SEQEND
  8
gg1
  0
POLYLINE
  8
gg1
 62
1
 40
0.000000
 41
0.000000
 66
  1
  0
VERTEX
  8
gg1
 10
8.384000
 20
14.864000
  0
VERTEX
  8
gg1
 10
8.384000
 20
14.904000
  0
VERTEX
  8
gg1
 10
8.394000
 20
14.904000
  0
VERTEX
  8
gg1
 10
8.404000
 20
14.894000
  0
VERTEX
  8
gg1
 10
8.404000
 20
14.864000
  0
VERTEX
  8
gg1
 10
8.404000
 20
14.894000
  0
VERTEX
  8
gg1
 10
8.414000
 20
14.904000
  0
VERTEX
  8
gg1
 10
8.424000
 20
14.894000
  0
VERTEX
  8
gg1
 10
8.424000
 20
14.864000
  0
SEQEND
  8
gg1
  0
POLYLINE
  8
gg1
 62
1
 40
0.000000
 41
0.000000
 66
  1
  0
VERTEX
  8
gg1
 10
8.444000
 20
14.864000
  0
VERTEX
  8
gg1
 10
8.464000
 20
14.864000
  0
VERTEX
  8
gg1
 10
8.454000
 20
14.864000
  0
VERTEX
  8
gg1
 10
8.454000
 20
14.904000
  0
VERTEX
  8
gg1
 10
8.444000
 20
14.904000
  0
SEQEND
  8
gg1
  0
POLYLINE
  8
gg1
 62
1
 40
0.000000
 41
0.000000
 66
  1
  0
VERTEX
  8
gg1
 10
8.493900
 20
14.864000
  0
VERTEX
  8
gg1
 10
8.513900
 20
14.864000
  0
VERTEX
  8
gg1
 10
8.503900
 20
14.864000
  0
VERTEX
  8
gg1
 10
8.503900
 20
14.924000
  0
VERTEX
  8
gg1
 10
8.493900
 20
14.924000
  0
SEQEND
  8
gg1
  0
POLYLINE
  8
gg1
 62
1
 40
0.000000
 41
0.000000
 66
  1
  0
VERTEX
  8
gg1
 10
7.436000
 20
15.429100
  0
VERTEX
  8
gg1
 10
7.436000
 20
15.449100
  0
VERTEX
  8
gg1
 10
7.436000
 20
15.439100
  0
VERTEX
  8
gg1
 10
7.376000
 20
15.439100
  0
VERTEX
  8
gg1
 10
7.386000
 20
15.429100
  0
SEQEND
  8
gg1
  0
POLYLINE
  8
gg1
 62
1
 40
0.000000
 41
0.000000
 66
  1
  0
VERTEX
  8
gg1
 10
7.436000
 20
15.519000
  0
VERTEX
  8
gg1
 10
7.436000
 20
15.479000
  0
VERTEX
  8
gg1
 10
7.396000
 20
15.519000
  0
VERTEX
  8
gg1
 10
7.386000
 20
15.519000
  0
VERTEX
  8
gg1
 10
7.376000
 20
15.509000
  0
VERTEX
  8
gg1
 10
7.376000
 20
15.489000
  0
VERTEX
  8
gg1
 10
7.386000
 20
15.479000
  0
SEQEND
  8
gg1
  0
POLYLINE
  8
gg1
 62
1
 40
0.000000
 41
0.000000
 66
  1
  0
VERTEX
  8
gg1
 10
7.376000
 20
15.579000
  0
VERTEX
  8
gg1
 10
7.376000
 20
15.539000
  0
VERTEX
  8
gg1
 10
7.406000
 20
15.539000
  0
VERTEX
  8
gg1
 10
7.396000
 20
15.559000
  0
VERTEX
  8
gg1
 10
7.396000
 20
15.569000
  0
VERTEX
  8
gg1
 10
7.406000
 20
15.579000
  0
VERTEX
  8
gg1
 10
7.426000
 20
15.579000
  0
VERTEX
  8
gg1
 10
7.436000
 20
15.569000
  0
VERTEX
  8
gg1
 10
7.436000
 20
15.549000
  0
VERTEX
  8
gg1
 10
7.426000
 20
15.539000
  0
SEQEND
  8
gg1
  0
POLYLINE
  8
gg1
 62
1
 40
0.000000
 41
0.000000
 66
  1
  0
VERTEX
  8
gg1
 10
7.386000
 20
15.599000
  0
VERTEX
  8
gg1
 10
7.376000
 20
15.609000
  0
VERTEX
  8
gg1
 10
7.376000
 20
15.629000
  0
VERTEX
  8
gg1
 10
7.386000
 20
15.639000
  0
VERTEX
  8
gg1
 10
7.426000
 20
15.639000
  0
VERTEX
  8
gg1
 10
7.436000
 20
15.629000
  0
VERTEX
  8
gg1
 10
7.436000
 20
15.609000
  0
VERTEX
  8
gg1
 10
7.426000
 20
15.599000
  0
VERTEX
  8
gg1
 10
7.386000
 20
15.599000
  0
SEQEND
  8
gg1
  0
POLYLINE
  8
gg1
 62
1
 40
0.000000
 41
0.000000
 66
  1
  0
VERTEX
  8
gg1
 10
7.436000
 20
15.659000
  0
VERTEX
  8
gg1
 10
7.396000
 20
15.659000
  0
VERTEX
  8
gg1
 10
7.396000
 20
15.669000
  0
VERTEX
  8
gg1
 10
7.406000
 20
15.679000
  0
VERTEX
  8
gg1
 10
7.436000
 20
15.679000
  0
VERTEX
  8
gg1
 10
7.406000
 20
15.679000
  0
VERTEX
  8
gg1
 10
7.396000
 20
15.689000
  0
VERTEX
  8
gg1
 10
7.406000
 20
15.699000
  0
VERTEX
  8
gg1
 10
7.436000
 20
15.699000
  0
SEQEND
  8
gg1
  0
POLYLINE
  8
gg1
 62
1
 40
0.000000
 41
0.000000
 66
  1
  0
VERTEX
  8
gg1
 10
7.436000
 20
15.719000
  0
VERTEX
  8
gg1
 10
7.436000
 20
15.739000
  0
VERTEX
  8
gg1
 10
7.436000
 20
15.729000
  0
VERTEX
  8
gg1
 10
7.396000
 20
15.729000
  0
VERTEX
  8
gg1
 10
7.396000
 20
15.719000
  0
SEQEND
  8
gg1
  0
POLYLINE
  8
gg1
 62
1
 40
0.000000
 41
0.000000
 66
  1
  0
VERTEX
  8
gg1
 10
7.436000
 20
15.768900
  0
VERTEX
  8
gg1
 10
7.436000
 20
15.788900
  0
VERTEX
  8
gg1
 10
7.436000
 20
15.778900
  0
VERTEX
  8
gg1
 10
7.376000
 20
15.778900
  0
VERTEX
  8
gg1
 10
7.376000
 20
15.768900
  0
SEQEND
  8
gg1
  0
POLYLINE
  8
gg1
 62
1
 40
0.000000
 41
0.000000
 66
  1
  0
VERTEX
  8
gg1
 10
8.930000
 20
15.200000
  0
VERTEX
  8
gg1
 10
8.970000
 20
15.200000
  0
SEQEND
  8
gg1
  0
POLYLINE
  8
gg1
 62
1
 40
0.000000
 41
0.000000
 66
  1
  0
VERTEX
  8
gg1
 10
8.950000
 20
15.180000
  0
VERTEX
  8
gg1
 10
8.950000
 20
15.220000
  0
SEQEND
  8
gg1
  0
POLYLINE
  8
gg1
 62
1
 40
0.000000
 41
0.000000
 66
  1
  0
VERTEX
  8
gg1
 10
8.830000
 20
15.200000
  0
VERTEX
  8
gg1
 10
8.870000
 20
15.200000
  0
SEQEND
  8
gg1
  0
POLYLINE
  8
gg1
 62
1
 40
0.000000
 41
0.000000
 66
  1
  0
VERTEX
  8
gg1
 10
8.850000
 20
15.180000
  0
VERTEX
  8
gg1
 10
8.850000
 20
15.220000
  0
SEQEND
  8
gg1
  0
POLYLINE
  8
gg1
 62
1
 40
0.000000
 41
0.000000
 66
  1
  0
VERTEX
  8
gg1
 10
8.730000
 20
15.200000
  0
VERTEX
  8
gg1
 10
8.770000
 20
15.200000
  0
SEQEND
  8
gg1
  0
POLYLINE
  8
gg1
 62
1
 40
0.000000
 41
0.000000
 66
  1
  0
VERTEX
  8
gg1
 10
8.750000
 20
15.180000
  0
VERTEX
  8
gg1
 10
8.750000
 20
15.220000
  0
SEQEND
  8
gg1
  0
POLYLINE
  8
gg1
 62
1
 40
0.000000
 41
0.000000
 66
  1
  0
VERTEX
  8
gg1
 10
8.630000
 20
15.200000
  0
VERTEX
  8
gg1
 10
8.670000
 20
15.200000
  0
SEQEND
  8
gg1
  0
POLYLINE
  8
gg1
 62
1
 40
0.000000
 41
0.000000
 66
  1
  0
VERTEX
  8
gg1
 10
8.650000
 20
15.180000
  0
VERTEX
  8
gg1
 10
8.650000
 20
15.220000
  0
SEQEND
  8
gg1
  0
POLYLINE
  8
gg1
 62
1
 40
0.000000
 41
0.000000
 66
  1
  0
VERTEX
  8
gg1
 10
7.730000
 20
15.200000
  0
VERTEX
  8
gg1
 10
7.770000
 20
15.200000
  0
SEQEND
  8
gg1
  0
POLYLINE
  8
gg1
 62
1
 40
0.000000
 41
0.000000
 66
  1
  0
VERTEX
  8
gg1
 10
7.750000
 20
15.180000
  0
VERTEX
  8
gg1
 10
7.750000
 20
15.220000
  0
SEQEND
  8
gg1
  0
POLYLINE
  8
gg1
 62
1
 40
0.000000
 41
0.000000
 66
  1
  0
VERTEX
  8
gg1
 10
7.830000
 20
15.200000
  0
VERTEX
  8
gg1
 10
7.870000
 20
15.200000
  0
SEQEND
  8
gg1
  0
POLYLINE
  8
gg1
 62
1
 40
0.000000
 41
0.000000
 66
  1
  0
VERTEX
  8
gg1
 10
7.850000
 20
15.180000
  0
VERTEX
  8
gg1
 10
7.850000
 20
15.220000
  0
SEQEND
  8
gg1
  0
POLYLINE
  8
gg1
 62
1
 40
0.000000
 41
0.000000
 66
  1
  0
VERTEX
  8
gg1
 10
7.930000
 20
15.200000
  0
VERTEX
  8
gg1
 10
7.970000
 20
15.200000
  0
SEQEND
  8
gg1
  0
POLYLINE
  8
gg1
 62
1
 40
0.000000
 41
0.000000
 66
  1
  0
VERTEX
  8
gg1
 10
7.950000
 20
15.180000
  0
VERTEX
  8
gg1
 10
7.950000
 20
15.220000
  0
SEQEND
  8
gg1
  0
POLYLINE
  8
gg1
 62
1
 40
0.000000
 41
0.000000
 66
  1
  0
VERTEX
  8
gg1
 10
8.030000
 20
15.200000
  0
VERTEX
  8
gg1
 10
8.070000
 20
15.200000
  0
SEQEND
  8
gg1
  0
POLYLINE
  8
gg1
 62
1
 40
0.000000
 41
0.000000
 66
  1
  0
VERTEX
  8
gg1
 10
8.050000
 20
15.180000
  0
VERTEX
  8
gg1
 10
8.050000
 20
15.220000
  0
SEQEND
  8
gg1
  0
POLYLINE
  8
gg1
 62
1
 40
0.000000
 41
0.000000
 66
  1
  0
VERTEX
  8
gg1
 10
8.330000
 20
15.100000
  0
VERTEX
  8
gg1
 10
8.370000
 20
15.100000
  0
SEQEND
  8
gg1
  0
POLYLINE
  8
gg1
 62
1
 40
0.000000
 41
0.000000
 66
  1
  0
VERTEX
  8
gg1
 10
8.350000
 20
15.080000
  0
VERTEX
  8
gg1
 10
8.350000
 20
15.120000
  0
SEQEND
  8
gg1
  0
POLYLINE
  8
gg1
 62
1
 40
0.000000
 41
0.000000
 66
  1
  0
VERTEX
  8
gg1
 10
7.535000
 20
15.300000
  0
VERTEX
  8
gg1
 10
7.555000
 20
15.300000
  0
SEQEND
  8
gg1
  0
POLYLINE
  8
gg1
 62
1
 40
0.000000
 41
0.000000
 66
  1
  0
VERTEX
  8
gg1
 10
7.545000
 20
15.290000
  0
VERTEX
  8
gg1
 10
7.545000
 20
15.310000
  0
SEQEND
  8
gg1
  0
POLYLINE
  8
gg1
 62
1
 40
0.000000
 41
0.000000
 66
  1
  0
VERTEX
  8
gg1
 10
9.072000
 20
16.165000
  0
VERTEX
  8
gg1
 10
9.158000
 20
16.165000
  0
SEQEND
  8
gg1
  0
POLYLINE
  8
gg1
 62
1
 40
0.000000
 41
0.000000
 66
  1
  0
VERTEX
  8
gg1
 10
9.115000
 20
16.122000
  0
VERTEX
  8
gg1
 10
9.115000
 20
16.208000
  0
SEQEND
  8
gg1
  0
POLYLINE
  8
gg1
 62
1
 40
0.000000
 41
0.000000
 66
  1
  0
VERTEX
  8
gg1
 10
7.542000
 20
16.165000
  0
VERTEX
  8
gg1
 10
7.628000
 20
16.165000
  0
SEQEND
  8
gg1
  0
POLYLINE
  8
gg1
 62
1
 40
0.000000
 41
0.000000
 66
  1
  0
VERTEX
  8
gg1
 10
7.585000
 20
16.122000
  0
VERTEX
  8
gg1
 10
7.585000
 20
16.208000
  0
SEQEND
  8
gg1
  0
POLYLINE
  8
gg1
 62
1
 40
0.000000
 41
0.000000
 66
  1
  0
VERTEX
  8
gg1
 10
9.072000
 20
15.165000
  0
VERTEX
  8
gg1
 10
9.158000
 20
15.165000
  0
SEQEND
  8
gg1
  0
POLYLINE
  8
gg1
 62
1
 40
0.000000
 41
0.000000
 66
  1
  0
VERTEX
  8
gg1
 10
9.115000
 20
15.122000
  0
VERTEX
  8
gg1
 10
9.115000
 20
15.208000
  0
SEQEND
  8
gg1
  0
POLYLINE
  8
gg1
 62
1
 40
0.000000
 41
0.000000
 66
  1
  0
VERTEX
  8
gg1
 10
7.542000
 20
15.165000
  0
VERTEX
  8
gg1
 10
7.628000
 20
15.165000
  0
SEQEND
  8
gg1
  0
POLYLINE
  8
gg1
 62
1
 40
0.000000
 41
0.000000
 66
  1
  0
VERTEX
  8
gg1
 10
7.585000
 20
15.122000
  0
VERTEX
  8
gg1
 10
7.585000
 20
15.208000
  0
SEQEND
  8
gg1
  0
POLYLINE
  8
gg1
 62
1
 40
0.000000
 41
0.000000
 66
  1
  0
VERTEX
  8
gg1
 10
8.530000
 20
15.100000
  0
VERTEX
  8
gg1
 10
8.570000
 20
15.100000
  0
SEQEND
  8
gg1
  0
POLYLINE
  8
gg1
 62
1
 40
0.000000
 41
0.000000
 66
  1
  0
VERTEX
  8
gg1
 10
8.550000
 20
15.080000
  0
VERTEX
  8
gg1
 10
8.550000
 20
15.120000
  0
SEQEND
  8
gg1
  0
POLYLINE
  8
gg1
 62
1
 40
0.000000
 41
0.000000
 66
  1
  0
VERTEX
  8
gg1
 10
8.230000
 20
15.100000
  0
VERTEX
  8
gg1
 10
8.270000
 20
15.100000
  0
SEQEND
  8
gg1
  0
POLYLINE
  8
gg1
 62
1
 40
0.000000
 41
0.000000
 66
  1
  0
VERTEX
  8
gg1
 10
8.250000
 20
15.080000
  0
VERTEX
  8
gg1
 10
8.250000
 20
15.120000
  0
SEQEND
  8
gg1
  0
POLYLINE
  8
gg1
 62
1
 40
0.000000
 41
0.000000
 66
  1
  0
VERTEX
  8
gg1
 10
8.430000
 20
15.100000
  0
VERTEX
  8
gg1
 10
8.470000
 20
15.100000
  0
SEQEND
  8
gg1
  0
POLYLINE
  8
gg1
 62
1
 40
0.000000
 41
0.000000
 66
  1
  0
VERTEX
  8
gg1
 10
8.450000
 20
15.080000
  0
VERTEX
  8
gg1
 10
8.450000
 20
15.120000
  0
SEQEND
  8
gg1
  0
POLYLINE
  8
gg1
 62
1
 40
0.000000
 41
0.000000
 66
  1
  0
VERTEX
  8
gg1
 10
8.130000
 20
15.100000
  0
VERTEX
  8
gg1
 10
8.170000
 20
15.100000
  0
SEQEND
  8
gg1
  0
POLYLINE
  8
gg1
 62
1
 40
0.000000
 41
0.000000
 66
  1
  0
VERTEX
  8
gg1
 10
8.150000
 20
15.080000
  0
VERTEX
  8
gg1
 10
8.150000
 20
15.120000
  0
SEQEND
  8
gg1
  0
POLYLINE
  8
gg1
 62
1
 40
0.000000
 41
0.000000
 66
  1
  0
VERTEX
  8
gg1
 10
8.530000
 20
15.200000
  0
VERTEX
  8
gg1
 10
8.570000
 20
15.200000
  0
SEQEND
  8
gg1
  0
POLYLINE
  8
gg1
 62
1
 40
0.000000
 41
0.000000
 66
  1
  0
VERTEX
  8
gg1
 10
8.550000
 20
15.180000
  0
VERTEX
  8
gg1
 10
8.550000
 20
15.220000
  0
SEQEND
  8
gg1
  0
POLYLINE
  8
gg1
 62
1
 40
0.000000
 41
0.000000
 66
  1
  0
VERTEX
  8
gg1
 10
7.953800
 20
15.100000
  0
VERTEX
  8
gg1
 10
8.039900
 20
15.100000
  0
SEQEND
  8
gg1
  0
POLYLINE
  8
gg1
 62
1
 40
0.000000
 41
0.000000
 66
  1
  0
VERTEX
  8
gg1
 10
7.996900
 20
15.057000
  0
VERTEX
  8
gg1
 10
7.996900
 20
15.143000
  0
SEQEND
  8
gg1
  0
POLYLINE
  8
gg1
 62
1
 40
0.000000
 41
0.000000
 66
  1
  0
VERTEX
  8
gg1
 10
7.757000
 20
15.100000
  0
VERTEX
  8
gg1
 10
7.843000
 20
15.100000
  0
SEQEND
  8
gg1
  0
POLYLINE
  8
gg1
 62
1
 40
0.000000
 41
0.000000
 66
  1
  0
VERTEX
  8
gg1
 10
7.800000
 20
15.057000
  0
VERTEX
  8
gg1
 10
7.800000
 20
15.143000
  0
SEQEND
  8
gg1
  0
POLYLINE
  8
gg1
 62
1
 40
0.000000
 41
0.000000
 66
  1
  0
VERTEX
  8
gg1
 10
8.660100
 20
15.100000
  0
VERTEX
  8
gg1
 10
8.746200
 20
15.100000
  0
SEQEND
  8
gg1
  0
POLYLINE
  8
gg1
 62
1
 40
0.000000
 41
0.000000
 66
  1
  0
VERTEX
  8
gg1
 10
8.703100
 20
15.057000
  0
VERTEX
  8
gg1
 10
8.703100
 20
15.143000
  0
SEQEND
  8
gg1
  0
POLYLINE
  8
gg1
 62
1
 40
0.000000
 41
0.000000
 66
  1
  0
VERTEX
  8
gg1
 10
8.857000
 20
15.100000
  0
VERTEX
  8
gg1
 10
8.943000
 20
15.100000
  0
SEQEND
  8
gg1
  0
POLYLINE
  8
gg1
 62
1
 40
0.000000
 41
0.000000
 66
  1
  0
VERTEX
  8
gg1
 10
8.900000
 20
15.057000
  0
VERTEX
  8
gg1
 10
8.900000
 20
15.143000
  0
SEQEND
  8
gg1
  0
ENDSEC
  0
EOF
