  0
SECTION
  2
HEADER
  9
$EXTMIN
 10
7.373000
 20
14.861000
  9
$EXTMAX
 10
8.655000
 20
16.005000
  9
$LIMMIN
 10
7.373000
 20
14.861000
  9
$LIMMAX
 10
8.655000
 20
16.005000
  9
$FILLMODE
 70
  1
  0
ENDSEC
  0
SECTION
  2
TABLES
  0
TABLE
  2
LTYPE
 70
  1
  0
LTYPE
  2
CONTINUOUS
 70
 64
  3
Solid line
 72
 65
 73
  0
 40
0.0
  0
ENDTAB
  0
TABLE
  2
LAYER
 70
 1
  0
LAYER
  2
0
 70
  0
 62
7
  6
CONTINUOUS
  0
LAYER
  2
gg1
 70
  0
 62
1
  6
CONTINUOUS
  0
ENDTAB
  0
TABLE
  2
STYLE
 70
  1
  0
STYLE
  2
STANDARD
 70
  0
 40
0.0
 41
1.0
 50
0.0
 71
  0
 42
0.2
  3
txt
  4

  0
ENDTAB
  0
ENDSEC
  0
SECTION
  2
BLOCKS
  0
BLOCK
  8
0
  2
D10
 70
64
 10
0.0
 20
0.0
  3
D10
  0
CIRCLE
  8
0
 10
0.000000
 20
0.000000
 40
0.002500
 0
ENDBLK
  8
0
  0
BLOCK
  8
0
  2
D11
 70
64
 10
0.0
 20
0.0
  3
D11
  0
CIRCLE
  8
0
 10
0.000000
 20
0.000000
 40
0.005000
 0
ENDBLK
  8
0
  0
BLOCK
  8
0
  2
D12
 70
64
 10
0.0
 20
0.0
  3
D12
  0
CIRCLE
  8
0
 10
0.000000
 20
0.000000
 40
0.003000
 0
ENDBLK
  8
0
  0
ENDSEC
  0
SECTION
  2
ENTITIES
  0
POLYLINE
  8
gg1
 62
1
 40
0.000000
 41
0.000000
 66
  1
  0
VERTEX
  8
gg1
 10
7.500000
 20
15.000000
  0
VERTEX
  8
gg1
 10
7.500000
 20
16.000000
  0
VERTEX
  8
gg1
 10
8.650000
 20
16.000000
  0
SEQEND
  8
gg1
  0
POLYLINE
  8
gg1
 62
1
 40
0.000000
 41
0.000000
 66
  1
  0
VERTEX
  8
gg1
 10
8.650000
 20
15.000000
  0
VERTEX
  8
gg1
 10
8.650000
 20
16.000000
  0
SEQEND
  8
gg1
  0
POLYLINE
  8
gg1
 62
1
 40
0.000000
 41
0.000000
 66
  1
  0
VERTEX
  8
gg1
 10
7.500000
 20
15.000000
  0
VERTEX
  8
gg1
 10
8.650000
 20
15.000000
  0
SEQEND
  8
gg1
  0
POLYLINE
  8
gg1
 62
1
 40
0.000000
 41
0.000000
 66
  1
  0
VERTEX
  8
gg1
 10
7.595000
 20
15.264800
  0
VERTEX
  8
gg1
 10
7.615000
 20
15.264800
  0
SEQEND
  8
gg1
  0
POLYLINE
  8
gg1
 62
1
 40
0.000000
 41
0.000000
 66
  1
  0
VERTEX
  8
gg1
 10
7.605000
 20
15.254800
  0
VERTEX
  8
gg1
 10
7.605000
 20
15.274800
  0
SEQEND
  8
gg1
  0
POLYLINE
  8
gg1
 62
1
 40
0.000000
 41
0.000000
 66
  1
  0
VERTEX
  8
gg1
 10
7.736700
 20
15.432500
  0
VERTEX
  8
gg1
 10
7.756700
 20
15.432500
  0
SEQEND
  8
gg1
  0
POLYLINE
  8
gg1
 62
1
 40
0.000000
 41
0.000000
 66
  1
  0
VERTEX
  8
gg1
 10
7.746700
 20
15.422500
  0
VERTEX
  8
gg1
 10
7.746700
 20
15.442500
  0
SEQEND
  8
gg1
  0
POLYLINE
  8
gg1
 62
1
 40
0.000000
 41
0.000000
 66
  1
  0
VERTEX
  8
gg1
 10
7.635000
 20
15.395000
  0
VERTEX
  8
gg1
 10
7.655000
 20
15.395000
  0
SEQEND
  8
gg1
  0
POLYLINE
  8
gg1
 62
1
 40
0.000000
 41
0.000000
 66
  1
  0
VERTEX
  8
gg1
 10
7.645000
 20
15.385000
  0
VERTEX
  8
gg1
 10
7.645000
 20
15.405000
  0
SEQEND
  8
gg1
  0
POLYLINE
  8
gg1
 62
1
 40
0.000000
 41
0.000000
 66
  1
  0
VERTEX
  8
gg1
 10
8.515000
 20
15.500000
  0
VERTEX
  8
gg1
 10
8.585000
 20
15.500000
  0
SEQEND
  8
gg1
  0
POLYLINE
  8
gg1
 62
1
 40
0.000000
 41
0.000000
 66
  1
  0
VERTEX
  8
gg1
 10
8.550000
 20
15.465000
  0
VERTEX
  8
gg1
 10
8.550000
 20
15.535000
  0
SEQEND
  8
gg1
  0
POLYLINE
  8
gg1
 62
1
 40
0.000000
 41
0.000000
 66
  1
  0
VERTEX
  8
gg1
 10
8.515000
 20
15.696800
  0
VERTEX
  8
gg1
 10
8.585000
 20
15.696800
  0
SEQEND
  8
gg1
  0
POLYLINE
  8
gg1
 62
1
 40
0.000000
 41
0.000000
 66
  1
  0
VERTEX
  8
gg1
 10
8.550000
 20
15.661800
  0
VERTEX
  8
gg1
 10
8.550000
 20
15.731800
  0
SEQEND
  8
gg1
  0
POLYLINE
  8
gg1
 62
1
 40
0.000000
 41
0.000000
 66
  1
  0
VERTEX
  8
gg1
 10
8.515000
 20
15.303100
  0
VERTEX
  8
gg1
 10
8.585000
 20
15.303100
  0
SEQEND
  8
gg1
  0
POLYLINE
  8
gg1
 62
1
 40
0.000000
 41
0.000000
 66
  1
  0
VERTEX
  8
gg1
 10
8.550000
 20
15.268100
  0
VERTEX
  8
gg1
 10
8.550000
 20
15.338100
  0
SEQEND
  8
gg1
  0
POLYLINE
  8
gg1
 62
1
 40
0.000000
 41
0.000000
 66
  1
  0
VERTEX
  8
gg1
 10
8.440000
 20
15.300000
  0
VERTEX
  8
gg1
 10
8.480000
 20
15.300000
  0
SEQEND
  8
gg1
  0
POLYLINE
  8
gg1
 62
1
 40
0.000000
 41
0.000000
 66
  1
  0
VERTEX
  8
gg1
 10
8.460000
 20
15.280000
  0
VERTEX
  8
gg1
 10
8.460000
 20
15.320000
  0
SEQEND
  8
gg1
  0
POLYLINE
  8
gg1
 62
1
 40
0.000000
 41
0.000000
 66
  1
  0
VERTEX
  8
gg1
 10
8.440000
 20
15.500000
  0
VERTEX
  8
gg1
 10
8.480000
 20
15.500000
  0
SEQEND
  8
gg1
  0
POLYLINE
  8
gg1
 62
1
 40
0.000000
 41
0.000000
 66
  1
  0
VERTEX
  8
gg1
 10
8.460000
 20
15.480000
  0
VERTEX
  8
gg1
 10
8.460000
 20
15.520000
  0
SEQEND
  8
gg1
  0
POLYLINE
  8
gg1
 62
1
 40
0.000000
 41
0.000000
 66
  1
  0
VERTEX
  8
gg1
 10
8.440000
 20
15.700000
  0
VERTEX
  8
gg1
 10
8.480000
 20
15.700000
  0
SEQEND
  8
gg1
  0
POLYLINE
  8
gg1
 62
1
 40
0.000000
 41
0.000000
 66
  1
  0
VERTEX
  8
gg1
 10
8.460000
 20
15.680000
  0
VERTEX
  8
gg1
 10
8.460000
 20
15.720000
  0
SEQEND
  8
gg1
  0
POLYLINE
  8
gg1
 62
1
 40
0.000000
 41
0.000000
 66
  1
  0
VERTEX
  8
gg1
 10
8.015000
 20
15.190000
  0
VERTEX
  8
gg1
 10
8.075000
 20
15.190000
  0
SEQEND
  8
gg1
  0
POLYLINE
  8
gg1
 62
1
 40
0.000000
 41
0.000000
 66
  1
  0
VERTEX
  8
gg1
 10
8.045000
 20
15.160000
  0
VERTEX
  8
gg1
 10
8.045000
 20
15.220000
  0
SEQEND
  8
gg1
  0
POLYLINE
  8
gg1
 62
1
 40
0.000000
 41
0.000000
 66
  1
  0
VERTEX
  8
gg1
 10
8.251200
 20
15.268700
  0
VERTEX
  8
gg1
 10
8.311200
 20
15.268700
  0
SEQEND
  8
gg1
  0
POLYLINE
  8
gg1
 62
1
 40
0.000000
 41
0.000000
 66
  1
  0
VERTEX
  8
gg1
 10
8.281200
 20
15.238700
  0
VERTEX
  8
gg1
 10
8.281200
 20
15.298700
  0
SEQEND
  8
gg1
  0
POLYLINE
  8
gg1
 62
1
 40
0.000000
 41
0.000000
 66
  1
  0
VERTEX
  8
gg1
 10
8.251200
 20
15.749100
  0
VERTEX
  8
gg1
 10
8.311200
 20
15.749100
  0
SEQEND
  8
gg1
  0
POLYLINE
  8
gg1
 62
1
 40
0.000000
 41
0.000000
 66
  1
  0
VERTEX
  8
gg1
 10
8.281200
 20
15.719100
  0
VERTEX
  8
gg1
 10
8.281200
 20
15.779100
  0
SEQEND
  8
gg1
  0
POLYLINE
  8
gg1
 62
1
 40
0.000000
 41
0.000000
 66
  1
  0
VERTEX
  8
gg1
 10
7.778800
 20
15.749100
  0
VERTEX
  8
gg1
 10
7.838800
 20
15.749100
  0
SEQEND
  8
gg1
  0
POLYLINE
  8
gg1
 62
1
 40
0.000000
 41
0.000000
 66
  1
  0
VERTEX
  8
gg1
 10
7.808800
 20
15.719100
  0
VERTEX
  8
gg1
 10
7.808800
 20
15.779100
  0
SEQEND
  8
gg1
  0
POLYLINE
  8
gg1
 62
1
 40
0.000000
 41
0.000000
 66
  1
  0
VERTEX
  8
gg1
 10
7.778800
 20
15.268700
  0
VERTEX
  8
gg1
 10
7.838800
 20
15.268700
  0
SEQEND
  8
gg1
  0
POLYLINE
  8
gg1
 62
1
 40
0.000000
 41
0.000000
 66
  1
  0
VERTEX
  8
gg1
 10
7.808800
 20
15.238700
  0
VERTEX
  8
gg1
 10
7.808800
 20
15.298700
  0
SEQEND
  8
gg1
  0
POLYLINE
  8
gg1
 62
1
 40
0.000000
 41
0.000000
 66
  1
  0
VERTEX
  8
gg1
 10
8.507000
 20
15.900000
  0
VERTEX
  8
gg1
 10
8.593000
 20
15.900000
  0
SEQEND
  8
gg1
  0
POLYLINE
  8
gg1
 62
1
 40
0.000000
 41
0.000000
 66
  1
  0
VERTEX
  8
gg1
 10
8.550000
 20
15.857000
  0
VERTEX
  8
gg1
 10
8.550000
 20
15.943000
  0
SEQEND
  8
gg1
  0
POLYLINE
  8
gg1
 62
1
 40
0.000000
 41
0.000000
 66
  1
  0
VERTEX
  8
gg1
 10
8.507000
 20
15.100000
  0
VERTEX
  8
gg1
 10
8.593000
 20
15.100000
  0
SEQEND
  8
gg1
  0
POLYLINE
  8
gg1
 62
1
 40
0.000000
 41
0.000000
 66
  1
  0
VERTEX
  8
gg1
 10
8.550000
 20
15.057000
  0
VERTEX
  8
gg1
 10
8.550000
 20
15.143000
  0
SEQEND
  8
gg1
  0
POLYLINE
  8
gg1
 62
1
 40
0.000000
 41
0.000000
 66
  1
  0
VERTEX
  8
gg1
 10
7.557000
 20
15.900000
  0
VERTEX
  8
gg1
 10
7.643000
 20
15.900000
  0
SEQEND
  8
gg1
  0
POLYLINE
  8
gg1
 62
1
 40
0.000000
 41
0.000000
 66
  1
  0
VERTEX
  8
gg1
 10
7.600000
 20
15.857000
  0
VERTEX
  8
gg1
 10
7.600000
 20
15.943000
  0
SEQEND
  8
gg1
  0
POLYLINE
  8
gg1
 62
1
 40
0.000000
 41
0.000000
 66
  1
  0
VERTEX
  8
gg1
 10
7.557000
 20
15.100000
  0
VERTEX
  8
gg1
 10
7.643000
 20
15.100000
  0
SEQEND
  8
gg1
  0
POLYLINE
  8
gg1
 62
1
 40
0.000000
 41
0.000000
 66
  1
  0
VERTEX
  8
gg1
 10
7.600000
 20
15.057000
  0
VERTEX
  8
gg1
 10
7.600000
 20
15.143000
  0
SEQEND
  8
gg1
  0
POLYLINE
  8
gg1
 62
1
 40
0.000000
 41
0.000000
 66
  1
  0
VERTEX
  8
gg1
 10
7.380000
 20
15.060000
  0
VERTEX
  8
gg1
 10
7.400000
 20
15.000000
  0
VERTEX
  8
gg1
 10
7.420000
 20
15.060000
  0
SEQEND
  8
gg1
  0
POLYLINE
  8
gg1
 62
1
 40
0.000000
 41
0.000000
 66
  1
  0
VERTEX
  8
gg1
 10
7.400000
 20
16.000000
  0
VERTEX
  8
gg1
 10
7.420000
 20
15.940000
  0
SEQEND
  8
gg1
  0
POLYLINE
  8
gg1
 62
1
 40
0.000000
 41
0.000000
 66
  1
  0
VERTEX
  8
gg1
 10
7.380000
 20
15.940000
  0
VERTEX
  8
gg1
 10
7.400000
 20
16.000000
  0
SEQEND
  8
gg1
  0
POLYLINE
  8
gg1
 62
1
 40
0.000000
 41
0.000000
 66
  1
  0
VERTEX
  8
gg1
 10
7.400000
 20
15.000000
  0
VERTEX
  8
gg1
 10
7.400000
 20
15.288100
  0
SEQEND
  8
gg1
  0
POLYLINE
  8
gg1
 62
1
 40
0.000000
 41
0.000000
 66
  1
  0
VERTEX
  8
gg1
 10
7.400000
 20
15.679900
  0
VERTEX
  8
gg1
 10
7.400000
 20
16.000000
  0
SEQEND
  8
gg1
  0
POLYLINE
  8
gg1
 62
1
 40
0.000000
 41
0.000000
 66
  1
  0
VERTEX
  8
gg1
 10
7.390000
 20
15.000000
  0
VERTEX
  8
gg1
 10
7.490000
 20
15.000000
  0
SEQEND
  8
gg1
  0
POLYLINE
  8
gg1
 62
1
 40
0.000000
 41
0.000000
 66
  1
  0
VERTEX
  8
gg1
 10
7.390000
 20
16.000000
  0
VERTEX
  8
gg1
 10
7.490000
 20
16.000000
  0
SEQEND
  8
gg1
  0
POLYLINE
  8
gg1
 62
1
 40
0.000000
 41
0.000000
 66
  1
  0
VERTEX
  8
gg1
 10
7.500000
 20
14.900000
  0
VERTEX
  8
gg1
 10
7.560000
 20
14.920000
  0
SEQEND
  8
gg1
  0
POLYLINE
  8
gg1
 62
1
 40
0.000000
 41
0.000000
 66
  1
  0
VERTEX
  8
gg1
 10
7.500000
 20
14.900000
  0
VERTEX
  8
gg1
 10
7.560000
 20
14.880000
  0
SEQEND
  8
gg1
  0
POLYLINE
  8
gg1
 62
1
 40
0.000000
 41
0.000000
 66
  1
  0
VERTEX
  8
gg1
 10
8.590000
 20
14.880000
  0
VERTEX
  8
gg1
 10
8.650000
 20
14.900000
  0
SEQEND
  8
gg1
  0
POLYLINE
  8
gg1
 62
1
 40
0.000000
 41
0.000000
 66
  1
  0
VERTEX
  8
gg1
 10
8.590000
 20
14.920000
  0
VERTEX
  8
gg1
 10
8.650000
 20
14.900000
  0
SEQEND
  8
gg1
  0
POLYLINE
  8
gg1
 62
1
 40
0.000000
 41
0.000000
 66
  1
  0
VERTEX
  8
gg1
 10
7.500000
 20
14.900000
  0
VERTEX
  8
gg1
 10
7.868100
 20
14.900000
  0
SEQEND
  8
gg1
  0
POLYLINE
  8
gg1
 62
1
 40
0.000000
 41
0.000000
 66
  1
  0
VERTEX
  8
gg1
 10
8.249900
 20
14.900000
  0
VERTEX
  8
gg1
 10
8.650000
 20
14.900000
  0
SEQEND
  8
gg1
  0
POLYLINE
  8
gg1
 62
1
 40
0.000000
 41
0.000000
 66
  1
  0
VERTEX
  8
gg1
 10
7.500000
 20
14.890000
  0
VERTEX
  8
gg1
 10
7.500000
 20
14.990000
  0
SEQEND
  8
gg1
  0
POLYLINE
  8
gg1
 62
1
 40
0.000000
 41
0.000000
 66
  1
  0
VERTEX
  8
gg1
 10
8.650000
 20
14.890000
  0
VERTEX
  8
gg1
 10
8.650000
 20
14.990000
  0
SEQEND
  8
gg1
  0
POLYLINE
  8
gg1
 62
1
 40
0.000000
 41
0.000000
 66
  1
  0
VERTEX
  8
gg1
 10
7.436000
 20
15.304100
  0
VERTEX
  8
gg1
 10
7.436000
 20
15.324100
  0
VERTEX
  8
gg1
 10
7.436000
 20
15.314100
  0
VERTEX
  8
gg1
 10
7.376000
 20
15.314100
  0
VERTEX
  8
gg1
 10
7.386000
 20
15.304100
  0
SEQEND
  8
gg1
  0
POLYLINE
  8
gg1
 62
1
 40
0.000000
 41
0.000000
 66
  1
  0
VERTEX
  8
gg1
 10
7.386000
 20
15.354000
  0
VERTEX
  8
gg1
 10
7.376000
 20
15.364000
  0
VERTEX
  8
gg1
 10
7.376000
 20
15.384000
  0
VERTEX
  8
gg1
 10
7.386000
 20
15.394000
  0
VERTEX
  8
gg1
 10
7.426000
 20
15.394000
  0
VERTEX
  8
gg1
 10
7.436000
 20
15.384000
  0
VERTEX
  8
gg1
 10
7.436000
 20
15.364000
  0
VERTEX
  8
gg1
 10
7.426000
 20
15.354000
  0
VERTEX
  8
gg1
 10
7.386000
 20
15.354000
  0
SEQEND
  8
gg1
  0
POLYLINE
  8
gg1
 62
1
 40
0.000000
 41
0.000000
 66
  1
  0
VERTEX
  8
gg1
 10
7.386000
 20
15.414000
  0
VERTEX
  8
gg1
 10
7.376000
 20
15.424000
  0
VERTEX
  8
gg1
 10
7.376000
 20
15.444000
  0
VERTEX
  8
gg1
 10
7.386000
 20
15.454000
  0
VERTEX
  8
gg1
 10
7.426000
 20
15.454000
  0
VERTEX
  8
gg1
 10
7.436000
 20
15.444000
  0
VERTEX
  8
gg1
 10
7.436000
 20
15.424000
  0
VERTEX
  8
gg1
 10
7.426000
 20
15.414000
  0
VERTEX
  8
gg1
 10
7.386000
 20
15.414000
  0
SEQEND
  8
gg1
  0
POLYLINE
  8
gg1
 62
1
 40
0.000000
 41
0.000000
 66
  1
  0
VERTEX
  8
gg1
 10
7.386000
 20
15.474000
  0
VERTEX
  8
gg1
 10
7.376000
 20
15.484000
  0
VERTEX
  8
gg1
 10
7.376000
 20
15.504000
  0
VERTEX
  8
gg1
 10
7.386000
 20
15.514000
  0
VERTEX
  8
gg1
 10
7.426000
 20
15.514000
  0
VERTEX
  8
gg1
 10
7.436000
 20
15.504000
  0
VERTEX
  8
gg1
 10
7.436000
 20
15.484000
  0
VERTEX
  8
gg1
 10
7.426000
 20
15.474000
  0
VERTEX
  8
gg1
 10
7.386000
 20
15.474000
  0
SEQEND
  8
gg1
  0
POLYLINE
  8
gg1
 62
1
 40
0.000000
 41
0.000000
 66
  1
  0
VERTEX
  8
gg1
 10
7.436000
 20
15.534000
  0
VERTEX
  8
gg1
 10
7.396000
 20
15.534000
  0
VERTEX
  8
gg1
 10
7.396000
 20
15.544000
  0
VERTEX
  8
gg1
 10
7.406000
 20
15.554000
  0
VERTEX
  8
gg1
 10
7.436000
 20
15.554000
  0
VERTEX
  8
gg1
 10
7.406000
 20
15.554000
  0
VERTEX
  8
gg1
 10
7.396000
 20
15.564000
  0
VERTEX
  8
gg1
 10
7.406000
 20
15.574000
  0
VERTEX
  8
gg1
 10
7.436000
 20
15.574000
  0
SEQEND
  8
gg1
  0
POLYLINE
  8
gg1
 62
1
 40
0.000000
 41
0.000000
 66
  1
  0
VERTEX
  8
gg1
 10
7.436000
 20
15.594000
  0
VERTEX
  8
gg1
 10
7.436000
 20
15.614000
  0
VERTEX
  8
gg1
 10
7.436000
 20
15.604000
  0
VERTEX
  8
gg1
 10
7.396000
 20
15.604000
  0
VERTEX
  8
gg1
 10
7.396000
 20
15.594000
  0
SEQEND
  8
gg1
  0
POLYLINE
  8
gg1
 62
1
 40
0.000000
 41
0.000000
 66
  1
  0
VERTEX
  8
gg1
 10
7.436000
 20
15.643900
  0
VERTEX
  8
gg1
 10
7.436000
 20
15.663900
  0
VERTEX
  8
gg1
 10
7.436000
 20
15.653900
  0
VERTEX
  8
gg1
 10
7.376000
 20
15.653900
  0
VERTEX
  8
gg1
 10
7.376000
 20
15.643900
  0
SEQEND
  8
gg1
  0
POLYLINE
  8
gg1
 62
1
 40
0.000000
 41
0.000000
 66
  1
  0
VERTEX
  8
gg1
 10
7.884100
 20
14.864000
  0
VERTEX
  8
gg1
 10
7.904000
 20
14.864000
  0
VERTEX
  8
gg1
 10
7.894100
 20
14.864000
  0
VERTEX
  8
gg1
 10
7.894100
 20
14.924000
  0
VERTEX
  8
gg1
 10
7.884100
 20
14.914000
  0
SEQEND
  8
gg1
  0
POLYLINE
  8
gg1
 62
1
 40
0.000000
 41
0.000000
 66
  1
  0
VERTEX
  8
gg1
 10
7.934000
 20
14.864000
  0
VERTEX
  8
gg1
 10
7.954000
 20
14.864000
  0
VERTEX
  8
gg1
 10
7.944000
 20
14.864000
  0
VERTEX
  8
gg1
 10
7.944000
 20
14.924000
  0
VERTEX
  8
gg1
 10
7.934000
 20
14.914000
  0
SEQEND
  8
gg1
  0
POLYLINE
  8
gg1
 62
1
 40
0.000000
 41
0.000000
 66
  1
  0
VERTEX
  8
gg1
 10
8.024000
 20
14.924000
  0
VERTEX
  8
gg1
 10
7.984000
 20
14.924000
  0
VERTEX
  8
gg1
 10
7.984000
 20
14.894000
  0
VERTEX
  8
gg1
 10
8.004000
 20
14.904000
  0
VERTEX
  8
gg1
 10
8.014000
 20
14.904000
  0
VERTEX
  8
gg1
 10
8.024000
 20
14.894000
  0
VERTEX
  8
gg1
 10
8.024000
 20
14.874000
  0
VERTEX
  8
gg1
 10
8.014000
 20
14.864000
  0
VERTEX
  8
gg1
 10
7.994000
 20
14.864000
  0
VERTEX
  8
gg1
 10
7.984000
 20
14.874000
  0
SEQEND
  8
gg1
  0
POLYLINE
  8
gg1
 62
1
 40
0.000000
 41
0.000000
 66
  1
  0
VERTEX
  8
gg1
 10
8.044000
 20
14.914000
  0
VERTEX
  8
gg1
 10
8.054000
 20
14.924000
  0
VERTEX
  8
gg1
 10
8.074000
 20
14.924000
  0
VERTEX
  8
gg1
 10
8.084000
 20
14.914000
  0
VERTEX
  8
gg1
 10
8.084000
 20
14.874000
  0
VERTEX
  8
gg1
 10
8.074000
 20
14.864000
  0
VERTEX
  8
gg1
 10
8.054000
 20
14.864000
  0
VERTEX
  8
gg1
 10
8.044000
 20
14.874000
  0
VERTEX
  8
gg1
 10
8.044000
 20
14.914000
  0
SEQEND
  8
gg1
  0
POLYLINE
  8
gg1
 62
1
 40
0.000000
 41
0.000000
 66
  1
  0
VERTEX
  8
gg1
 10
8.104000
 20
14.864000
  0
VERTEX
  8
gg1
 10
8.104000
 20
14.904000
  0
VERTEX
  8
gg1
 10
8.114000
 20
14.904000
  0
VERTEX
  8
gg1
 10
8.124000
 20
14.894000
  0
VERTEX
  8
gg1
 10
8.124000
 20
14.864000
  0
VERTEX
  8
gg1
 10
8.124000
 20
14.894000
  0
VERTEX
  8
gg1
 10
8.134000
 20
14.904000
  0
VERTEX
  8
gg1
 10
8.144000
 20
14.894000
  0
VERTEX
  8
gg1
 10
8.144000
 20
14.864000
  0
SEQEND
  8
gg1
  0
POLYLINE
  8
gg1
 62
1
 40
0.000000
 41
0.000000
 66
  1
  0
VERTEX
  8
gg1
 10
8.164000
 20
14.864000
  0
VERTEX
  8
gg1
 10
8.184000
 20
14.864000
  0
VERTEX
  8
gg1
 10
8.174000
 20
14.864000
  0
VERTEX
  8
gg1
 10
8.174000
 20
14.904000
  0
VERTEX
  8
gg1
 10
8.164000
 20
14.904000
  0
SEQEND
  8
gg1
  0
POLYLINE
  8
gg1
 62
1
 40
0.000000
 41
0.000000
 66
  1
  0
VERTEX
  8
gg1
 10
8.214000
 20
14.864000
  0
VERTEX
  8
gg1
 10
8.233900
 20
14.864000
  0
VERTEX
  8
gg1
 10
8.223900
 20
14.864000
  0
VERTEX
  8
gg1
 10
8.223900
 20
14.924000
  0
VERTEX
  8
gg1
 10
8.214000
 20
14.924000
  0
SEQEND
  8
gg1
  0
ENDSEC
  0
EOF
