  0
SECTION
  2
HEADER
  9
$EXTMIN
 10
-0.169000
 20
-0.189000
  9
$EXTMAX
 10
0.345000
 20
0.545000
  9
$LIMMIN
 10
-0.169000
 20
-0.189000
  9
$LIMMAX
 10
0.345000
 20
0.545000
  9
$FILLMODE
 70
  1
  0
ENDSEC
  0
SECTION
  2
TABLES
  0
TABLE
  2
LTYPE
 70
  1
  0
LTYPE
  2
CONTINUOUS
 70
 64
  3
Solid line
 72
 65
 73
  0
 40
0.0
  0
ENDTAB
  0
TABLE
  2
LAYER
 70
 1
  0
LAYER
  2
0
 70
  0
 62
7
  6
CONTINUOUS
  0
LAYER
  2
gg1
 70
  0
 62
1
  6
CONTINUOUS
  0
ENDTAB
  0
TABLE
  2
STYLE
 70
  1
  0
STYLE
  2
STANDARD
 70
  0
 40
0.0
 41
1.0
 50
0.0
 71
  0
 42
0.2
  3
txt
  4

  0
ENDTAB
  0
ENDSEC
  0
SECTION
  2
BLOCKS
  0
BLOCK
  8
0
  2
D10
 70
64
 10
0.0
 20
0.0
  3
D10
  0
CIRCLE
  8
0
 10
0.000000
 20
0.000000
 40
0.005000
 0
ENDBLK
  8
0
  0
BLOCK
  8
0
  2
D11
 70
64
 10
0.0
 20
0.0
  3
D11
  0
CIRCLE
  8
0
 10
0.000000
 20
0.000000
 40
0.003000
 0
ENDBLK
  8
0
  0
BLOCK
  8
0
  2
D12
 70
64
 10
0.0
 20
0.0
  3
D12
  0
CIRCLE
  8
0
 10
0.000000
 20
0.000000
 40
0.002500
 0
ENDBLK
  8
0
  0
ENDSEC
  0
SECTION
  2
ENTITIES
  0
POLYLINE
  8
gg1
 62
1
 40
0.000000
 41
0.000000
 66
  1
  0
VERTEX
  8
gg1
 10
0.000000
 20
0.000000
  0
VERTEX
  8
gg1
 10
0.340000
 20
0.000000
  0
SEQEND
  8
gg1
  0
POLYLINE
  8
gg1
 62
1
 40
0.000000
 41
0.000000
 66
  1
  0
VERTEX
  8
gg1
 10
0.000000
 20
0.000000
  0
VERTEX
  8
gg1
 10
0.000000
 20
0.540000
  0
SEQEND
  8
gg1
  0
POLYLINE
  8
gg1
 62
1
 40
0.000000
 41
0.000000
 66
  1
  0
VERTEX
  8
gg1
 10
0.340000
 20
0.000000
  0
VERTEX
  8
gg1
 10
0.340000
 20
0.540000
  0
SEQEND
  8
gg1
  0
POLYLINE
  8
gg1
 62
1
 40
0.000000
 41
0.000000
 66
  1
  0
VERTEX
  8
gg1
 10
0.000000
 20
0.540000
  0
VERTEX
  8
gg1
 10
0.340000
 20
0.540000
  0
SEQEND
  8
gg1
  0
POLYLINE
  8
gg1
 62
1
 40
0.000000
 41
0.000000
 66
  1
  0
VERTEX
  8
gg1
 10
0.000000
 20
-0.075000
  0
VERTEX
  8
gg1
 10
0.060000
 20
-0.055000
  0
SEQEND
  8
gg1
  0
POLYLINE
  8
gg1
 62
1
 40
0.000000
 41
0.000000
 66
  1
  0
VERTEX
  8
gg1
 10
0.000000
 20
-0.075000
  0
VERTEX
  8
gg1
 10
0.060000
 20
-0.095000
  0
SEQEND
  8
gg1
  0
POLYLINE
  8
gg1
 62
1
 40
0.000000
 41
0.000000
 66
  1
  0
VERTEX
  8
gg1
 10
0.280000
 20
-0.095000
  0
VERTEX
  8
gg1
 10
0.340000
 20
-0.075000
  0
SEQEND
  8
gg1
  0
POLYLINE
  8
gg1
 62
1
 40
0.000000
 41
0.000000
 66
  1
  0
VERTEX
  8
gg1
 10
0.280000
 20
-0.055000
  0
VERTEX
  8
gg1
 10
0.340000
 20
-0.075000
  0
SEQEND
  8
gg1
  0
POLYLINE
  8
gg1
 62
1
 40
0.000000
 41
0.000000
 66
  1
  0
VERTEX
  8
gg1
 10
0.000000
 20
-0.075000
  0
VERTEX
  8
gg1
 10
0.170000
 20
-0.075000
  0
VERTEX
  8
gg1
 10
0.340000
 20
-0.075000
  0
SEQEND
  8
gg1
  0
POLYLINE
  8
gg1
 62
1
 40
0.000000
 41
0.000000
 66
  1
  0
VERTEX
  8
gg1
 10
0.000000
 20
-0.085000
  0
VERTEX
  8
gg1
 10
0.000000
 20
-0.015000
  0
SEQEND
  8
gg1
  0
POLYLINE
  8
gg1
 62
1
 40
0.000000
 41
0.000000
 66
  1
  0
VERTEX
  8
gg1
 10
0.340000
 20
-0.085000
  0
VERTEX
  8
gg1
 10
0.340000
 20
-0.015000
  0
SEQEND
  8
gg1
  0
POLYLINE
  8
gg1
 62
1
 40
0.000000
 41
0.000000
 66
  1
  0
VERTEX
  8
gg1
 10
-0.075000
 20
0.540000
  0
VERTEX
  8
gg1
 10
-0.055000
 20
0.480000
  0
SEQEND
  8
gg1
  0
POLYLINE
  8
gg1
 62
1
 40
0.000000
 41
0.000000
 66
  1
  0
VERTEX
  8
gg1
 10
-0.095000
 20
0.480000
  0
VERTEX
  8
gg1
 10
-0.075000
 20
0.540000
  0
SEQEND
  8
gg1
  0
POLYLINE
  8
gg1
 62
1
 40
0.000000
 41
0.000000
 66
  1
  0
VERTEX
  8
gg1
 10
-0.095000
 20
0.060000
  0
VERTEX
  8
gg1
 10
-0.075000
 20
0.000000
  0
VERTEX
  8
gg1
 10
-0.055000
 20
0.060000
  0
SEQEND
  8
gg1
  0
POLYLINE
  8
gg1
 62
1
 40
0.000000
 41
0.000000
 66
  1
  0
VERTEX
  8
gg1
 10
-0.075000
 20
0.270000
  0
VERTEX
  8
gg1
 10
-0.075000
 20
0.540000
  0
SEQEND
  8
gg1
  0
POLYLINE
  8
gg1
 62
1
 40
0.000000
 41
0.000000
 66
  1
  0
VERTEX
  8
gg1
 10
-0.075000
 20
0.000000
  0
VERTEX
  8
gg1
 10
-0.075000
 20
0.270000
  0
SEQEND
  8
gg1
  0
POLYLINE
  8
gg1
 62
1
 40
0.000000
 41
0.000000
 66
  1
  0
VERTEX
  8
gg1
 10
-0.085000
 20
0.540000
  0
VERTEX
  8
gg1
 10
-0.015000
 20
0.540000
  0
SEQEND
  8
gg1
  0
POLYLINE
  8
gg1
 62
1
 40
0.000000
 41
0.000000
 66
  1
  0
VERTEX
  8
gg1
 10
-0.085000
 20
0.000000
  0
VERTEX
  8
gg1
 10
-0.015000
 20
0.000000
  0
SEQEND
  8
gg1
  0
POLYLINE
  8
gg1
 62
1
 40
0.000000
 41
0.000000
 66
  1
  0
VERTEX
  8
gg1
 10
0.014100
 20
-0.136000
  0
VERTEX
  8
gg1
 10
0.024000
 20
-0.126000
  0
VERTEX
  8
gg1
 10
0.044000
 20
-0.126000
  0
VERTEX
  8
gg1
 10
0.054000
 20
-0.136000
  0
VERTEX
  8
gg1
 10
0.054000
 20
-0.146000
  0
VERTEX
  8
gg1
 10
0.044000
 20
-0.156000
  0
VERTEX
  8
gg1
 10
0.034000
 20
-0.156000
  0
VERTEX
  8
gg1
 10
0.044000
 20
-0.156000
  0
VERTEX
  8
gg1
 10
0.054000
 20
-0.166000
  0
VERTEX
  8
gg1
 10
0.054000
 20
-0.176000
  0
VERTEX
  8
gg1
 10
0.044000
 20
-0.186000
  0
VERTEX
  8
gg1
 10
0.024000
 20
-0.186000
  0
VERTEX
  8
gg1
 10
0.014100
 20
-0.176000
  0
SEQEND
  8
gg1
  0
POLYLINE
  8
gg1
 62
1
 40
0.000000
 41
0.000000
 66
  1
  0
VERTEX
  8
gg1
 10
0.104000
 20
-0.186000
  0
VERTEX
  8
gg1
 10
0.104000
 20
-0.126000
  0
VERTEX
  8
gg1
 10
0.074000
 20
-0.156000
  0
VERTEX
  8
gg1
 10
0.114000
 20
-0.156000
  0
SEQEND
  8
gg1
  0
POLYLINE
  8
gg1
 62
1
 40
0.000000
 41
0.000000
 66
  1
  0
VERTEX
  8
gg1
 10
0.134000
 20
-0.136000
  0
VERTEX
  8
gg1
 10
0.144000
 20
-0.126000
  0
VERTEX
  8
gg1
 10
0.164000
 20
-0.126000
  0
VERTEX
  8
gg1
 10
0.174000
 20
-0.136000
  0
VERTEX
  8
gg1
 10
0.174000
 20
-0.176000
  0
VERTEX
  8
gg1
 10
0.164000
 20
-0.186000
  0
VERTEX
  8
gg1
 10
0.144000
 20
-0.186000
  0
VERTEX
  8
gg1
 10
0.134000
 20
-0.176000
  0
VERTEX
  8
gg1
 10
0.134000
 20
-0.136000
  0
SEQEND
  8
gg1
  0
POLYLINE
  8
gg1
 62
1
 40
0.000000
 41
0.000000
 66
  1
  0
VERTEX
  8
gg1
 10
0.194000
 20
-0.186000
  0
VERTEX
  8
gg1
 10
0.194000
 20
-0.146000
  0
VERTEX
  8
gg1
 10
0.204000
 20
-0.146000
  0
VERTEX
  8
gg1
 10
0.214000
 20
-0.156000
  0
VERTEX
  8
gg1
 10
0.214000
 20
-0.186000
  0
VERTEX
  8
gg1
 10
0.214000
 20
-0.156000
  0
VERTEX
  8
gg1
 10
0.224000
 20
-0.146000
  0
VERTEX
  8
gg1
 10
0.234000
 20
-0.156000
  0
VERTEX
  8
gg1
 10
0.234000
 20
-0.186000
  0
SEQEND
  8
gg1
  0
POLYLINE
  8
gg1
 62
1
 40
0.000000
 41
0.000000
 66
  1
  0
VERTEX
  8
gg1
 10
0.254000
 20
-0.186000
  0
VERTEX
  8
gg1
 10
0.274000
 20
-0.186000
  0
VERTEX
  8
gg1
 10
0.264000
 20
-0.186000
  0
VERTEX
  8
gg1
 10
0.264000
 20
-0.146000
  0
VERTEX
  8
gg1
 10
0.254000
 20
-0.146000
  0
SEQEND
  8
gg1
  0
POLYLINE
  8
gg1
 62
1
 40
0.000000
 41
0.000000
 66
  1
  0
VERTEX
  8
gg1
 10
0.304000
 20
-0.186000
  0
VERTEX
  8
gg1
 10
0.323900
 20
-0.186000
  0
VERTEX
  8
gg1
 10
0.314000
 20
-0.186000
  0
VERTEX
  8
gg1
 10
0.314000
 20
-0.126000
  0
VERTEX
  8
gg1
 10
0.304000
 20
-0.126000
  0
SEQEND
  8
gg1
  0
POLYLINE
  8
gg1
 62
1
 40
0.000000
 41
0.000000
 66
  1
  0
VERTEX
  8
gg1
 10
-0.166000
 20
0.146000
  0
VERTEX
  8
gg1
 10
-0.166000
 20
0.106000
  0
VERTEX
  8
gg1
 10
-0.136000
 20
0.106000
  0
VERTEX
  8
gg1
 10
-0.146000
 20
0.126000
  0
VERTEX
  8
gg1
 10
-0.146000
 20
0.136000
  0
VERTEX
  8
gg1
 10
-0.136000
 20
0.146000
  0
VERTEX
  8
gg1
 10
-0.116000
 20
0.146000
  0
VERTEX
  8
gg1
 10
-0.106000
 20
0.136000
  0
VERTEX
  8
gg1
 10
-0.106000
 20
0.116000
  0
VERTEX
  8
gg1
 10
-0.116000
 20
0.106000
  0
SEQEND
  8
gg1
  0
POLYLINE
  8
gg1
 62
1
 40
0.000000
 41
0.000000
 66
  1
  0
VERTEX
  8
gg1
 10
-0.106000
 20
0.196000
  0
VERTEX
  8
gg1
 10
-0.166000
 20
0.196000
  0
VERTEX
  8
gg1
 10
-0.136000
 20
0.166000
  0
VERTEX
  8
gg1
 10
-0.136000
 20
0.206000
  0
SEQEND
  8
gg1
  0
POLYLINE
  8
gg1
 62
1
 40
0.000000
 41
0.000000
 66
  1
  0
VERTEX
  8
gg1
 10
-0.156000
 20
0.226000
  0
VERTEX
  8
gg1
 10
-0.166000
 20
0.236000
  0
VERTEX
  8
gg1
 10
-0.166000
 20
0.256000
  0
VERTEX
  8
gg1
 10
-0.156000
 20
0.265900
  0
VERTEX
  8
gg1
 10
-0.116000
 20
0.265900
  0
VERTEX
  8
gg1
 10
-0.106000
 20
0.256000
  0
VERTEX
  8
gg1
 10
-0.106000
 20
0.236000
  0
VERTEX
  8
gg1
 10
-0.116000
 20
0.226000
  0
VERTEX
  8
gg1
 10
-0.156000
 20
0.226000
  0
SEQEND
  8
gg1
  0
POLYLINE
  8
gg1
 62
1
 40
0.000000
 41
0.000000
 66
  1
  0
VERTEX
  8
gg1
 10
-0.106000
 20
0.285900
  0
VERTEX
  8
gg1
 10
-0.146000
 20
0.285900
  0
VERTEX
  8
gg1
 10
-0.146000
 20
0.295900
  0
VERTEX
  8
gg1
 10
-0.136000
 20
0.305900
  0
VERTEX
  8
gg1
 10
-0.106000
 20
0.305900
  0
VERTEX
  8
gg1
 10
-0.136000
 20
0.305900
  0
VERTEX
  8
gg1
 10
-0.146000
 20
0.315900
  0
VERTEX
  8
gg1
 10
-0.136000
 20
0.325900
  0
VERTEX
  8
gg1
 10
-0.106000
 20
0.325900
  0
SEQEND
  8
gg1
  0
POLYLINE
  8
gg1
 62
1
 40
0.000000
 41
0.000000
 66
  1
  0
VERTEX
  8
gg1
 10
-0.106000
 20
0.345900
  0
VERTEX
  8
gg1
 10
-0.106000
 20
0.365900
  0
VERTEX
  8
gg1
 10
-0.106000
 20
0.355900
  0
VERTEX
  8
gg1
 10
-0.146000
 20
0.355900
  0
VERTEX
  8
gg1
 10
-0.146000
 20
0.345900
  0
SEQEND
  8
gg1
  0
POLYLINE
  8
gg1
 62
1
 40
0.000000
 41
0.000000
 66
  1
  0
VERTEX
  8
gg1
 10
-0.106000
 20
0.395900
  0
VERTEX
  8
gg1
 10
-0.106000
 20
0.415900
  0
VERTEX
  8
gg1
 10
-0.106000
 20
0.405900
  0
VERTEX
  8
gg1
 10
-0.166000
 20
0.405900
  0
VERTEX
  8
gg1
 10
-0.166000
 20
0.395900
  0
SEQEND
  8
gg1
  0
POLYLINE
  8
gg1
 62
1
 40
0.000000
 41
0.000000
 66
  1
  0
VERTEX
  8
gg1
 10
0.250000
 20
0.050000
  0
VERTEX
  8
gg1
 10
0.290000
 20
0.050000
  0
SEQEND
  8
gg1
  0
POLYLINE
  8
gg1
 62
1
 40
0.000000
 41
0.000000
 66
  1
  0
VERTEX
  8
gg1
 10
0.270000
 20
0.030000
  0
VERTEX
  8
gg1
 10
0.270000
 20
0.070000
  0
SEQEND
  8
gg1
  0
POLYLINE
  8
gg1
 62
1
 40
0.000000
 41
0.000000
 66
  1
  0
VERTEX
  8
gg1
 10
0.150000
 20
0.050000
  0
VERTEX
  8
gg1
 10
0.190000
 20
0.050000
  0
SEQEND
  8
gg1
  0
POLYLINE
  8
gg1
 62
1
 40
0.000000
 41
0.000000
 66
  1
  0
VERTEX
  8
gg1
 10
0.170000
 20
0.030000
  0
VERTEX
  8
gg1
 10
0.170000
 20
0.070000
  0
SEQEND
  8
gg1
  0
POLYLINE
  8
gg1
 62
1
 40
0.000000
 41
0.000000
 66
  1
  0
VERTEX
  8
gg1
 10
0.050000
 20
0.050000
  0
VERTEX
  8
gg1
 10
0.090000
 20
0.050000
  0
SEQEND
  8
gg1
  0
POLYLINE
  8
gg1
 62
1
 40
0.000000
 41
0.000000
 66
  1
  0
VERTEX
  8
gg1
 10
0.070000
 20
0.030000
  0
VERTEX
  8
gg1
 10
0.070000
 20
0.070000
  0
SEQEND
  8
gg1
  0
ENDSEC
  0
EOF
