  0
SECTION
  2
HEADER
  9
$EXTMIN
 10
-0.177000
 20
-0.189000
  9
$EXTMAX
 10
1.505000
 20
1.005000
  9
$LIMMIN
 10
-0.177000
 20
-0.189000
  9
$LIMMAX
 10
1.505000
 20
1.005000
  9
$FILLMODE
 70
  1
  0
ENDSEC
  0
SECTION
  2
TABLES
  0
TABLE
  2
LTYPE
 70
  1
  0
LTYPE
  2
CONTINUOUS
 70
 64
  3
Solid line
 72
 65
 73
  0
 40
0.0
  0
ENDTAB
  0
TABLE
  2
LAYER
 70
 1
  0
LAYER
  2
0
 70
  0
 62
7
  6
CONTINUOUS
  0
LAYER
  2
gg1
 70
  0
 62
1
  6
CONTINUOUS
  0
ENDTAB
  0
TABLE
  2
STYLE
 70
  1
  0
STYLE
  2
STANDARD
 70
  0
 40
0.0
 41
1.0
 50
0.0
 71
  0
 42
0.2
  3
txt
  4

  0
ENDTAB
  0
ENDSEC
  0
SECTION
  2
BLOCKS
  0
BLOCK
  8
0
  2
D10
 70
64
 10
0.0
 20
0.0
  3
D10
  0
CIRCLE
  8
0
 10
0.000000
 20
0.000000
 40
0.002500
 0
ENDBLK
  8
0
  0
BLOCK
  8
0
  2
D11
 70
64
 10
0.0
 20
0.0
  3
D11
  0
CIRCLE
  8
0
 10
0.000000
 20
0.000000
 40
0.005000
 0
ENDBLK
  8
0
  0
BLOCK
  8
0
  2
D12
 70
64
 10
0.0
 20
0.0
  3
D12
  0
CIRCLE
  8
0
 10
0.000000
 20
0.000000
 40
0.003000
 0
ENDBLK
  8
0
  0
ENDSEC
  0
SECTION
  2
ENTITIES
  0
POLYLINE
  8
gg1
 62
1
 40
0.000000
 41
0.000000
 66
  1
  0
VERTEX
  8
gg1
 10
0.000000
 20
0.000000
  0
VERTEX
  8
gg1
 10
1.500000
 20
0.000000
  0
SEQEND
  8
gg1
  0
POLYLINE
  8
gg1
 62
1
 40
0.000000
 41
0.000000
 66
  1
  0
VERTEX
  8
gg1
 10
0.000000
 20
0.000000
  0
VERTEX
  8
gg1
 10
0.000000
 20
1.000000
  0
SEQEND
  8
gg1
  0
POLYLINE
  8
gg1
 62
1
 40
0.000000
 41
0.000000
 66
  1
  0
VERTEX
  8
gg1
 10
0.000000
 20
1.000000
  0
VERTEX
  8
gg1
 10
1.500000
 20
1.000000
  0
SEQEND
  8
gg1
  0
POLYLINE
  8
gg1
 62
1
 40
0.000000
 41
0.000000
 66
  1
  0
VERTEX
  8
gg1
 10
1.500000
 20
0.000000
  0
VERTEX
  8
gg1
 10
1.500000
 20
1.000000
  0
SEQEND
  8
gg1
  0
POLYLINE
  8
gg1
 62
1
 40
0.000000
 41
0.000000
 66
  1
  0
VERTEX
  8
gg1
 10
0.030000
 20
0.750000
  0
VERTEX
  8
gg1
 10
0.070000
 20
0.750000
  0
SEQEND
  8
gg1
  0
POLYLINE
  8
gg1
 62
1
 40
0.000000
 41
0.000000
 66
  1
  0
VERTEX
  8
gg1
 10
0.050000
 20
0.730000
  0
VERTEX
  8
gg1
 10
0.050000
 20
0.770000
  0
SEQEND
  8
gg1
  0
POLYLINE
  8
gg1
 62
1
 40
0.000000
 41
0.000000
 66
  1
  0
VERTEX
  8
gg1
 10
0.030000
 20
0.250000
  0
VERTEX
  8
gg1
 10
0.070000
 20
0.250000
  0
SEQEND
  8
gg1
  0
POLYLINE
  8
gg1
 62
1
 40
0.000000
 41
0.000000
 66
  1
  0
VERTEX
  8
gg1
 10
0.050000
 20
0.230000
  0
VERTEX
  8
gg1
 10
0.050000
 20
0.270000
  0
SEQEND
  8
gg1
  0
POLYLINE
  8
gg1
 62
1
 40
0.000000
 41
0.000000
 66
  1
  0
VERTEX
  8
gg1
 10
0.030000
 20
0.150000
  0
VERTEX
  8
gg1
 10
0.070000
 20
0.150000
  0
SEQEND
  8
gg1
  0
POLYLINE
  8
gg1
 62
1
 40
0.000000
 41
0.000000
 66
  1
  0
VERTEX
  8
gg1
 10
0.050000
 20
0.130000
  0
VERTEX
  8
gg1
 10
0.050000
 20
0.170000
  0
SEQEND
  8
gg1
  0
POLYLINE
  8
gg1
 62
1
 40
0.000000
 41
0.000000
 66
  1
  0
VERTEX
  8
gg1
 10
0.030000
 20
0.450000
  0
VERTEX
  8
gg1
 10
0.070000
 20
0.450000
  0
SEQEND
  8
gg1
  0
POLYLINE
  8
gg1
 62
1
 40
0.000000
 41
0.000000
 66
  1
  0
VERTEX
  8
gg1
 10
0.050000
 20
0.430000
  0
VERTEX
  8
gg1
 10
0.050000
 20
0.470000
  0
SEQEND
  8
gg1
  0
POLYLINE
  8
gg1
 62
1
 40
0.000000
 41
0.000000
 66
  1
  0
VERTEX
  8
gg1
 10
0.457000
 20
0.100000
  0
VERTEX
  8
gg1
 10
0.543000
 20
0.100000
  0
SEQEND
  8
gg1
  0
POLYLINE
  8
gg1
 62
1
 40
0.000000
 41
0.000000
 66
  1
  0
VERTEX
  8
gg1
 10
0.500000
 20
0.057000
  0
VERTEX
  8
gg1
 10
0.500000
 20
0.143000
  0
SEQEND
  8
gg1
  0
POLYLINE
  8
gg1
 62
1
 40
0.000000
 41
0.000000
 66
  1
  0
VERTEX
  8
gg1
 10
0.157000
 20
0.900000
  0
VERTEX
  8
gg1
 10
0.243000
 20
0.900000
  0
SEQEND
  8
gg1
  0
POLYLINE
  8
gg1
 62
1
 40
0.000000
 41
0.000000
 66
  1
  0
VERTEX
  8
gg1
 10
0.200000
 20
0.857000
  0
VERTEX
  8
gg1
 10
0.200000
 20
0.943000
  0
SEQEND
  8
gg1
  0
POLYLINE
  8
gg1
 62
1
 40
0.000000
 41
0.000000
 66
  1
  0
VERTEX
  8
gg1
 10
1.367000
 20
0.106300
  0
VERTEX
  8
gg1
 10
1.453000
 20
0.106300
  0
SEQEND
  8
gg1
  0
POLYLINE
  8
gg1
 62
1
 40
0.000000
 41
0.000000
 66
  1
  0
VERTEX
  8
gg1
 10
1.410000
 20
0.063300
  0
VERTEX
  8
gg1
 10
1.410000
 20
0.149300
  0
SEQEND
  8
gg1
  0
POLYLINE
  8
gg1
 62
1
 40
0.000000
 41
0.000000
 66
  1
  0
VERTEX
  8
gg1
 10
1.367000
 20
0.303100
  0
VERTEX
  8
gg1
 10
1.453000
 20
0.303100
  0
SEQEND
  8
gg1
  0
POLYLINE
  8
gg1
 62
1
 40
0.000000
 41
0.000000
 66
  1
  0
VERTEX
  8
gg1
 10
1.410000
 20
0.260100
  0
VERTEX
  8
gg1
 10
1.410000
 20
0.346200
  0
SEQEND
  8
gg1
  0
POLYLINE
  8
gg1
 62
1
 40
0.000000
 41
0.000000
 66
  1
  0
VERTEX
  8
gg1
 10
0.800000
 20
0.900000
  0
VERTEX
  8
gg1
 10
0.840000
 20
0.900000
  0
SEQEND
  8
gg1
  0
POLYLINE
  8
gg1
 62
1
 40
0.000000
 41
0.000000
 66
  1
  0
VERTEX
  8
gg1
 10
0.820000
 20
0.880000
  0
VERTEX
  8
gg1
 10
0.820000
 20
0.920000
  0
SEQEND
  8
gg1
  0
POLYLINE
  8
gg1
 62
1
 40
0.000000
 41
0.000000
 66
  1
  0
VERTEX
  8
gg1
 10
0.603200
 20
0.900000
  0
VERTEX
  8
gg1
 10
0.643100
 20
0.900000
  0
SEQEND
  8
gg1
  0
POLYLINE
  8
gg1
 62
1
 40
0.000000
 41
0.000000
 66
  1
  0
VERTEX
  8
gg1
 10
0.623100
 20
0.880000
  0
VERTEX
  8
gg1
 10
0.623100
 20
0.920000
  0
SEQEND
  8
gg1
  0
POLYLINE
  8
gg1
 62
1
 40
0.000000
 41
0.000000
 66
  1
  0
VERTEX
  8
gg1
 10
0.715000
 20
0.865000
  0
VERTEX
  8
gg1
 10
0.735000
 20
0.865000
  0
SEQEND
  8
gg1
  0
POLYLINE
  8
gg1
 62
1
 40
0.000000
 41
0.000000
 66
  1
  0
VERTEX
  8
gg1
 10
0.725000
 20
0.855000
  0
VERTEX
  8
gg1
 10
0.725000
 20
0.875000
  0
SEQEND
  8
gg1
  0
POLYLINE
  8
gg1
 62
1
 40
0.000000
 41
0.000000
 66
  1
  0
VERTEX
  8
gg1
 10
1.367000
 20
0.893700
  0
VERTEX
  8
gg1
 10
1.453000
 20
0.893700
  0
SEQEND
  8
gg1
  0
POLYLINE
  8
gg1
 62
1
 40
0.000000
 41
0.000000
 66
  1
  0
VERTEX
  8
gg1
 10
1.410000
 20
0.850700
  0
VERTEX
  8
gg1
 10
1.410000
 20
0.936700
  0
SEQEND
  8
gg1
  0
POLYLINE
  8
gg1
 62
1
 40
0.000000
 41
0.000000
 66
  1
  0
VERTEX
  8
gg1
 10
1.330000
 20
0.350000
  0
VERTEX
  8
gg1
 10
1.370000
 20
0.350000
  0
SEQEND
  8
gg1
  0
POLYLINE
  8
gg1
 62
1
 40
0.000000
 41
0.000000
 66
  1
  0
VERTEX
  8
gg1
 10
1.350000
 20
0.330000
  0
VERTEX
  8
gg1
 10
1.350000
 20
0.370000
  0
SEQEND
  8
gg1
  0
POLYLINE
  8
gg1
 62
1
 40
0.000000
 41
0.000000
 66
  1
  0
VERTEX
  8
gg1
 10
1.330000
 20
0.250000
  0
VERTEX
  8
gg1
 10
1.370000
 20
0.250000
  0
SEQEND
  8
gg1
  0
POLYLINE
  8
gg1
 62
1
 40
0.000000
 41
0.000000
 66
  1
  0
VERTEX
  8
gg1
 10
1.350000
 20
0.230000
  0
VERTEX
  8
gg1
 10
1.350000
 20
0.270000
  0
SEQEND
  8
gg1
  0
POLYLINE
  8
gg1
 62
1
 40
0.000000
 41
0.000000
 66
  1
  0
VERTEX
  8
gg1
 10
1.330000
 20
0.950000
  0
VERTEX
  8
gg1
 10
1.370000
 20
0.950000
  0
SEQEND
  8
gg1
  0
POLYLINE
  8
gg1
 62
1
 40
0.000000
 41
0.000000
 66
  1
  0
VERTEX
  8
gg1
 10
1.350000
 20
0.930000
  0
VERTEX
  8
gg1
 10
1.350000
 20
0.970000
  0
SEQEND
  8
gg1
  0
POLYLINE
  8
gg1
 62
1
 40
0.000000
 41
0.000000
 66
  1
  0
VERTEX
  8
gg1
 10
1.330000
 20
0.850000
  0
VERTEX
  8
gg1
 10
1.370000
 20
0.850000
  0
SEQEND
  8
gg1
  0
POLYLINE
  8
gg1
 62
1
 40
0.000000
 41
0.000000
 66
  1
  0
VERTEX
  8
gg1
 10
1.350000
 20
0.830000
  0
VERTEX
  8
gg1
 10
1.350000
 20
0.870000
  0
SEQEND
  8
gg1
  0
POLYLINE
  8
gg1
 62
1
 40
0.000000
 41
0.000000
 66
  1
  0
VERTEX
  8
gg1
 10
1.367000
 20
0.696900
  0
VERTEX
  8
gg1
 10
1.453000
 20
0.696900
  0
SEQEND
  8
gg1
  0
POLYLINE
  8
gg1
 62
1
 40
0.000000
 41
0.000000
 66
  1
  0
VERTEX
  8
gg1
 10
1.410000
 20
0.653900
  0
VERTEX
  8
gg1
 10
1.410000
 20
0.739800
  0
SEQEND
  8
gg1
  0
POLYLINE
  8
gg1
 62
1
 40
0.000000
 41
0.000000
 66
  1
  0
VERTEX
  8
gg1
 10
1.367000
 20
0.500000
  0
VERTEX
  8
gg1
 10
1.453000
 20
0.500000
  0
SEQEND
  8
gg1
  0
POLYLINE
  8
gg1
 62
1
 40
0.000000
 41
0.000000
 66
  1
  0
VERTEX
  8
gg1
 10
1.410000
 20
0.457000
  0
VERTEX
  8
gg1
 10
1.410000
 20
0.543000
  0
SEQEND
  8
gg1
  0
POLYLINE
  8
gg1
 62
1
 40
0.000000
 41
0.000000
 66
  1
  0
VERTEX
  8
gg1
 10
0.030000
 20
0.050000
  0
VERTEX
  8
gg1
 10
0.070000
 20
0.050000
  0
SEQEND
  8
gg1
  0
POLYLINE
  8
gg1
 62
1
 40
0.000000
 41
0.000000
 66
  1
  0
VERTEX
  8
gg1
 10
0.050000
 20
0.030000
  0
VERTEX
  8
gg1
 10
0.050000
 20
0.070000
  0
SEQEND
  8
gg1
  0
POLYLINE
  8
gg1
 62
1
 40
0.000000
 41
0.000000
 66
  1
  0
VERTEX
  8
gg1
 10
0.030000
 20
0.550000
  0
VERTEX
  8
gg1
 10
0.070000
 20
0.550000
  0
SEQEND
  8
gg1
  0
POLYLINE
  8
gg1
 62
1
 40
0.000000
 41
0.000000
 66
  1
  0
VERTEX
  8
gg1
 10
0.050000
 20
0.530000
  0
VERTEX
  8
gg1
 10
0.050000
 20
0.570000
  0
SEQEND
  8
gg1
  0
POLYLINE
  8
gg1
 62
1
 40
0.000000
 41
0.000000
 66
  1
  0
VERTEX
  8
gg1
 10
0.030000
 20
0.650000
  0
VERTEX
  8
gg1
 10
0.070000
 20
0.650000
  0
SEQEND
  8
gg1
  0
POLYLINE
  8
gg1
 62
1
 40
0.000000
 41
0.000000
 66
  1
  0
VERTEX
  8
gg1
 10
0.050000
 20
0.630000
  0
VERTEX
  8
gg1
 10
0.050000
 20
0.670000
  0
SEQEND
  8
gg1
  0
POLYLINE
  8
gg1
 62
1
 40
0.000000
 41
0.000000
 66
  1
  0
VERTEX
  8
gg1
 10
0.030000
 20
0.850000
  0
VERTEX
  8
gg1
 10
0.070000
 20
0.850000
  0
SEQEND
  8
gg1
  0
POLYLINE
  8
gg1
 62
1
 40
0.000000
 41
0.000000
 66
  1
  0
VERTEX
  8
gg1
 10
0.050000
 20
0.830000
  0
VERTEX
  8
gg1
 10
0.050000
 20
0.870000
  0
SEQEND
  8
gg1
  0
POLYLINE
  8
gg1
 62
1
 40
0.000000
 41
0.000000
 66
  1
  0
VERTEX
  8
gg1
 10
0.030000
 20
0.950000
  0
VERTEX
  8
gg1
 10
0.070000
 20
0.950000
  0
SEQEND
  8
gg1
  0
POLYLINE
  8
gg1
 62
1
 40
0.000000
 41
0.000000
 66
  1
  0
VERTEX
  8
gg1
 10
0.050000
 20
0.930000
  0
VERTEX
  8
gg1
 10
0.050000
 20
0.970000
  0
SEQEND
  8
gg1
  0
POLYLINE
  8
gg1
 62
1
 40
0.000000
 41
0.000000
 66
  1
  0
VERTEX
  8
gg1
 10
0.030000
 20
0.350000
  0
VERTEX
  8
gg1
 10
0.070000
 20
0.350000
  0
SEQEND
  8
gg1
  0
POLYLINE
  8
gg1
 62
1
 40
0.000000
 41
0.000000
 66
  1
  0
VERTEX
  8
gg1
 10
0.050000
 20
0.330000
  0
VERTEX
  8
gg1
 10
0.050000
 20
0.370000
  0
SEQEND
  8
gg1
  0
POLYLINE
  8
gg1
 62
1
 40
0.000000
 41
0.000000
 66
  1
  0
VERTEX
  8
gg1
 10
1.330000
 20
0.450000
  0
VERTEX
  8
gg1
 10
1.370000
 20
0.450000
  0
SEQEND
  8
gg1
  0
POLYLINE
  8
gg1
 62
1
 40
0.000000
 41
0.000000
 66
  1
  0
VERTEX
  8
gg1
 10
1.350000
 20
0.430000
  0
VERTEX
  8
gg1
 10
1.350000
 20
0.470000
  0
SEQEND
  8
gg1
  0
POLYLINE
  8
gg1
 62
1
 40
0.000000
 41
0.000000
 66
  1
  0
VERTEX
  8
gg1
 10
1.330000
 20
0.150000
  0
VERTEX
  8
gg1
 10
1.370000
 20
0.150000
  0
SEQEND
  8
gg1
  0
POLYLINE
  8
gg1
 62
1
 40
0.000000
 41
0.000000
 66
  1
  0
VERTEX
  8
gg1
 10
1.350000
 20
0.130000
  0
VERTEX
  8
gg1
 10
1.350000
 20
0.170000
  0
SEQEND
  8
gg1
  0
POLYLINE
  8
gg1
 62
1
 40
0.000000
 41
0.000000
 66
  1
  0
VERTEX
  8
gg1
 10
1.330000
 20
0.050000
  0
VERTEX
  8
gg1
 10
1.370000
 20
0.050000
  0
SEQEND
  8
gg1
  0
POLYLINE
  8
gg1
 62
1
 40
0.000000
 41
0.000000
 66
  1
  0
VERTEX
  8
gg1
 10
1.350000
 20
0.030000
  0
VERTEX
  8
gg1
 10
1.350000
 20
0.070000
  0
SEQEND
  8
gg1
  0
POLYLINE
  8
gg1
 62
1
 40
0.000000
 41
0.000000
 66
  1
  0
VERTEX
  8
gg1
 10
1.330000
 20
0.550000
  0
VERTEX
  8
gg1
 10
1.370000
 20
0.550000
  0
SEQEND
  8
gg1
  0
POLYLINE
  8
gg1
 62
1
 40
0.000000
 41
0.000000
 66
  1
  0
VERTEX
  8
gg1
 10
1.350000
 20
0.530000
  0
VERTEX
  8
gg1
 10
1.350000
 20
0.570000
  0
SEQEND
  8
gg1
  0
POLYLINE
  8
gg1
 62
1
 40
0.000000
 41
0.000000
 66
  1
  0
VERTEX
  8
gg1
 10
1.330000
 20
0.650000
  0
VERTEX
  8
gg1
 10
1.370000
 20
0.650000
  0
SEQEND
  8
gg1
  0
POLYLINE
  8
gg1
 62
1
 40
0.000000
 41
0.000000
 66
  1
  0
VERTEX
  8
gg1
 10
1.350000
 20
0.630000
  0
VERTEX
  8
gg1
 10
1.350000
 20
0.670000
  0
SEQEND
  8
gg1
  0
POLYLINE
  8
gg1
 62
1
 40
0.000000
 41
0.000000
 66
  1
  0
VERTEX
  8
gg1
 10
1.330000
 20
0.750000
  0
VERTEX
  8
gg1
 10
1.370000
 20
0.750000
  0
SEQEND
  8
gg1
  0
POLYLINE
  8
gg1
 62
1
 40
0.000000
 41
0.000000
 66
  1
  0
VERTEX
  8
gg1
 10
1.350000
 20
0.730000
  0
VERTEX
  8
gg1
 10
1.350000
 20
0.770000
  0
SEQEND
  8
gg1
  0
POLYLINE
  8
gg1
 62
1
 40
0.000000
 41
0.000000
 66
  1
  0
VERTEX
  8
gg1
 10
0.000000
 20
-0.150000
  0
VERTEX
  8
gg1
 10
0.060000
 20
-0.130000
  0
SEQEND
  8
gg1
  0
POLYLINE
  8
gg1
 62
1
 40
0.000000
 41
0.000000
 66
  1
  0
VERTEX
  8
gg1
 10
0.000000
 20
-0.150000
  0
VERTEX
  8
gg1
 10
0.060000
 20
-0.170000
  0
SEQEND
  8
gg1
  0
POLYLINE
  8
gg1
 62
1
 40
0.000000
 41
0.000000
 66
  1
  0
VERTEX
  8
gg1
 10
1.440000
 20
-0.170000
  0
VERTEX
  8
gg1
 10
1.500000
 20
-0.150000
  0
SEQEND
  8
gg1
  0
POLYLINE
  8
gg1
 62
1
 40
0.000000
 41
0.000000
 66
  1
  0
VERTEX
  8
gg1
 10
1.440000
 20
-0.130000
  0
VERTEX
  8
gg1
 10
1.500000
 20
-0.150000
  0
SEQEND
  8
gg1
  0
POLYLINE
  8
gg1
 62
1
 40
0.000000
 41
0.000000
 66
  1
  0
VERTEX
  8
gg1
 10
0.000000
 20
-0.150000
  0
VERTEX
  8
gg1
 10
0.538100
 20
-0.150000
  0
SEQEND
  8
gg1
  0
POLYLINE
  8
gg1
 62
1
 40
0.000000
 41
0.000000
 66
  1
  0
VERTEX
  8
gg1
 10
0.929900
 20
-0.150000
  0
VERTEX
  8
gg1
 10
1.500000
 20
-0.150000
  0
SEQEND
  8
gg1
  0
POLYLINE
  8
gg1
 62
1
 40
0.000000
 41
0.000000
 66
  1
  0
VERTEX
  8
gg1
 10
0.000000
 20
-0.160000
  0
VERTEX
  8
gg1
 10
0.000000
 20
-0.027500
  0
SEQEND
  8
gg1
  0
POLYLINE
  8
gg1
 62
1
 40
0.000000
 41
0.000000
 66
  1
  0
VERTEX
  8
gg1
 10
1.500000
 20
-0.160000
  0
VERTEX
  8
gg1
 10
1.500000
 20
-0.027500
  0
SEQEND
  8
gg1
  0
POLYLINE
  8
gg1
 62
1
 40
0.000000
 41
0.000000
 66
  1
  0
VERTEX
  8
gg1
 10
-0.170000
 20
0.060000
  0
VERTEX
  8
gg1
 10
-0.150000
 20
0.000000
  0
VERTEX
  8
gg1
 10
-0.130000
 20
0.060000
  0
SEQEND
  8
gg1
  0
POLYLINE
  8
gg1
 62
1
 40
0.000000
 41
0.000000
 66
  1
  0
VERTEX
  8
gg1
 10
-0.150000
 20
1.000000
  0
VERTEX
  8
gg1
 10
-0.130000
 20
0.940000
  0
SEQEND
  8
gg1
  0
POLYLINE
  8
gg1
 62
1
 40
0.000000
 41
0.000000
 66
  1
  0
VERTEX
  8
gg1
 10
-0.170000
 20
0.940000
  0
VERTEX
  8
gg1
 10
-0.150000
 20
1.000000
  0
SEQEND
  8
gg1
  0
POLYLINE
  8
gg1
 62
1
 40
0.000000
 41
0.000000
 66
  1
  0
VERTEX
  8
gg1
 10
-0.150000
 20
0.000000
  0
VERTEX
  8
gg1
 10
-0.150000
 20
0.288100
  0
SEQEND
  8
gg1
  0
POLYLINE
  8
gg1
 62
1
 40
0.000000
 41
0.000000
 66
  1
  0
VERTEX
  8
gg1
 10
-0.150000
 20
0.679900
  0
VERTEX
  8
gg1
 10
-0.150000
 20
1.000000
  0
SEQEND
  8
gg1
  0
POLYLINE
  8
gg1
 62
1
 40
0.000000
 41
0.000000
 66
  1
  0
VERTEX
  8
gg1
 10
-0.160000
 20
0.000000
  0
VERTEX
  8
gg1
 10
-0.027500
 20
0.000000
  0
SEQEND
  8
gg1
  0
POLYLINE
  8
gg1
 62
1
 40
0.000000
 41
0.000000
 66
  1
  0
VERTEX
  8
gg1
 10
-0.160000
 20
1.000000
  0
VERTEX
  8
gg1
 10
-0.027500
 20
1.000000
  0
SEQEND
  8
gg1
  0
POLYLINE
  8
gg1
 62
1
 40
0.000000
 41
0.000000
 66
  1
  0
VERTEX
  8
gg1
 10
0.554100
 20
-0.186000
  0
VERTEX
  8
gg1
 10
0.574100
 20
-0.186000
  0
VERTEX
  8
gg1
 10
0.564100
 20
-0.186000
  0
VERTEX
  8
gg1
 10
0.564100
 20
-0.126000
  0
VERTEX
  8
gg1
 10
0.554100
 20
-0.136000
  0
SEQEND
  8
gg1
  0
POLYLINE
  8
gg1
 62
1
 40
0.000000
 41
0.000000
 66
  1
  0
VERTEX
  8
gg1
 10
0.644000
 20
-0.126000
  0
VERTEX
  8
gg1
 10
0.604000
 20
-0.126000
  0
VERTEX
  8
gg1
 10
0.604000
 20
-0.156000
  0
VERTEX
  8
gg1
 10
0.624000
 20
-0.146000
  0
VERTEX
  8
gg1
 10
0.634000
 20
-0.146000
  0
VERTEX
  8
gg1
 10
0.644000
 20
-0.156000
  0
VERTEX
  8
gg1
 10
0.644000
 20
-0.176000
  0
VERTEX
  8
gg1
 10
0.634000
 20
-0.186000
  0
VERTEX
  8
gg1
 10
0.614000
 20
-0.186000
  0
VERTEX
  8
gg1
 10
0.604000
 20
-0.176000
  0
SEQEND
  8
gg1
  0
POLYLINE
  8
gg1
 62
1
 40
0.000000
 41
0.000000
 66
  1
  0
VERTEX
  8
gg1
 10
0.664000
 20
-0.136000
  0
VERTEX
  8
gg1
 10
0.674000
 20
-0.126000
  0
VERTEX
  8
gg1
 10
0.694000
 20
-0.126000
  0
VERTEX
  8
gg1
 10
0.704000
 20
-0.136000
  0
VERTEX
  8
gg1
 10
0.704000
 20
-0.176000
  0
VERTEX
  8
gg1
 10
0.694000
 20
-0.186000
  0
VERTEX
  8
gg1
 10
0.674000
 20
-0.186000
  0
VERTEX
  8
gg1
 10
0.664000
 20
-0.176000
  0
VERTEX
  8
gg1
 10
0.664000
 20
-0.136000
  0
SEQEND
  8
gg1
  0
POLYLINE
  8
gg1
 62
1
 40
0.000000
 41
0.000000
 66
  1
  0
VERTEX
  8
gg1
 10
0.724000
 20
-0.136000
  0
VERTEX
  8
gg1
 10
0.734000
 20
-0.126000
  0
VERTEX
  8
gg1
 10
0.754000
 20
-0.126000
  0
VERTEX
  8
gg1
 10
0.764000
 20
-0.136000
  0
VERTEX
  8
gg1
 10
0.764000
 20
-0.176000
  0
VERTEX
  8
gg1
 10
0.754000
 20
-0.186000
  0
VERTEX
  8
gg1
 10
0.734000
 20
-0.186000
  0
VERTEX
  8
gg1
 10
0.724000
 20
-0.176000
  0
VERTEX
  8
gg1
 10
0.724000
 20
-0.136000
  0
SEQEND
  8
gg1
  0
POLYLINE
  8
gg1
 62
1
 40
0.000000
 41
0.000000
 66
  1
  0
VERTEX
  8
gg1
 10
0.784000
 20
-0.186000
  0
VERTEX
  8
gg1
 10
0.784000
 20
-0.146000
  0
VERTEX
  8
gg1
 10
0.794000
 20
-0.146000
  0
VERTEX
  8
gg1
 10
0.804000
 20
-0.156000
  0
VERTEX
  8
gg1
 10
0.804000
 20
-0.186000
  0
VERTEX
  8
gg1
 10
0.804000
 20
-0.156000
  0
VERTEX
  8
gg1
 10
0.814000
 20
-0.146000
  0
VERTEX
  8
gg1
 10
0.824000
 20
-0.156000
  0
VERTEX
  8
gg1
 10
0.824000
 20
-0.186000
  0
SEQEND
  8
gg1
  0
POLYLINE
  8
gg1
 62
1
 40
0.000000
 41
0.000000
 66
  1
  0
VERTEX
  8
gg1
 10
0.844000
 20
-0.186000
  0
VERTEX
  8
gg1
 10
0.864000
 20
-0.186000
  0
VERTEX
  8
gg1
 10
0.854000
 20
-0.186000
  0
VERTEX
  8
gg1
 10
0.854000
 20
-0.146000
  0
VERTEX
  8
gg1
 10
0.844000
 20
-0.146000
  0
SEQEND
  8
gg1
  0
POLYLINE
  8
gg1
 62
1
 40
0.000000
 41
0.000000
 66
  1
  0
VERTEX
  8
gg1
 10
0.893900
 20
-0.186000
  0
VERTEX
  8
gg1
 10
0.913900
 20
-0.186000
  0
VERTEX
  8
gg1
 10
0.903900
 20
-0.186000
  0
VERTEX
  8
gg1
 10
0.903900
 20
-0.126000
  0
VERTEX
  8
gg1
 10
0.893900
 20
-0.126000
  0
SEQEND
  8
gg1
  0
POLYLINE
  8
gg1
 62
1
 40
0.000000
 41
0.000000
 66
  1
  0
VERTEX
  8
gg1
 10
-0.114000
 20
0.304100
  0
VERTEX
  8
gg1
 10
-0.114000
 20
0.324100
  0
VERTEX
  8
gg1
 10
-0.114000
 20
0.314100
  0
VERTEX
  8
gg1
 10
-0.174000
 20
0.314100
  0
VERTEX
  8
gg1
 10
-0.164000
 20
0.304100
  0
SEQEND
  8
gg1
  0
POLYLINE
  8
gg1
 62
1
 40
0.000000
 41
0.000000
 66
  1
  0
VERTEX
  8
gg1
 10
-0.164000
 20
0.354000
  0
VERTEX
  8
gg1
 10
-0.174000
 20
0.364000
  0
VERTEX
  8
gg1
 10
-0.174000
 20
0.384000
  0
VERTEX
  8
gg1
 10
-0.164000
 20
0.394000
  0
VERTEX
  8
gg1
 10
-0.124000
 20
0.394000
  0
VERTEX
  8
gg1
 10
-0.114000
 20
0.384000
  0
VERTEX
  8
gg1
 10
-0.114000
 20
0.364000
  0
VERTEX
  8
gg1
 10
-0.124000
 20
0.354000
  0
VERTEX
  8
gg1
 10
-0.164000
 20
0.354000
  0
SEQEND
  8
gg1
  0
POLYLINE
  8
gg1
 62
1
 40
0.000000
 41
0.000000
 66
  1
  0
VERTEX
  8
gg1
 10
-0.164000
 20
0.414000
  0
VERTEX
  8
gg1
 10
-0.174000
 20
0.424000
  0
VERTEX
  8
gg1
 10
-0.174000
 20
0.444000
  0
VERTEX
  8
gg1
 10
-0.164000
 20
0.454000
  0
VERTEX
  8
gg1
 10
-0.124000
 20
0.454000
  0
VERTEX
  8
gg1
 10
-0.114000
 20
0.444000
  0
VERTEX
  8
gg1
 10
-0.114000
 20
0.424000
  0
VERTEX
  8
gg1
 10
-0.124000
 20
0.414000
  0
VERTEX
  8
gg1
 10
-0.164000
 20
0.414000
  0
SEQEND
  8
gg1
  0
POLYLINE
  8
gg1
 62
1
 40
0.000000
 41
0.000000
 66
  1
  0
VERTEX
  8
gg1
 10
-0.164000
 20
0.474000
  0
VERTEX
  8
gg1
 10
-0.174000
 20
0.484000
  0
VERTEX
  8
gg1
 10
-0.174000
 20
0.504000
  0
VERTEX
  8
gg1
 10
-0.164000
 20
0.514000
  0
VERTEX
  8
gg1
 10
-0.124000
 20
0.514000
  0
VERTEX
  8
gg1
 10
-0.114000
 20
0.504000
  0
VERTEX
  8
gg1
 10
-0.114000
 20
0.484000
  0
VERTEX
  8
gg1
 10
-0.124000
 20
0.474000
  0
VERTEX
  8
gg1
 10
-0.164000
 20
0.474000
  0
SEQEND
  8
gg1
  0
POLYLINE
  8
gg1
 62
1
 40
0.000000
 41
0.000000
 66
  1
  0
VERTEX
  8
gg1
 10
-0.114000
 20
0.534000
  0
VERTEX
  8
gg1
 10
-0.154000
 20
0.534000
  0
VERTEX
  8
gg1
 10
-0.154000
 20
0.544000
  0
VERTEX
  8
gg1
 10
-0.144000
 20
0.554000
  0
VERTEX
  8
gg1
 10
-0.114000
 20
0.554000
  0
VERTEX
  8
gg1
 10
-0.144000
 20
0.554000
  0
VERTEX
  8
gg1
 10
-0.154000
 20
0.564000
  0
VERTEX
  8
gg1
 10
-0.144000
 20
0.574000
  0
VERTEX
  8
gg1
 10
-0.114000
 20
0.574000
  0
SEQEND
  8
gg1
  0
POLYLINE
  8
gg1
 62
1
 40
0.000000
 41
0.000000
 66
  1
  0
VERTEX
  8
gg1
 10
-0.114000
 20
0.594000
  0
VERTEX
  8
gg1
 10
-0.114000
 20
0.614000
  0
VERTEX
  8
gg1
 10
-0.114000
 20
0.604000
  0
VERTEX
  8
gg1
 10
-0.154000
 20
0.604000
  0
VERTEX
  8
gg1
 10
-0.154000
 20
0.594000
  0
SEQEND
  8
gg1
  0
POLYLINE
  8
gg1
 62
1
 40
0.000000
 41
0.000000
 66
  1
  0
VERTEX
  8
gg1
 10
-0.114000
 20
0.643900
  0
VERTEX
  8
gg1
 10
-0.114000
 20
0.663900
  0
VERTEX
  8
gg1
 10
-0.114000
 20
0.653900
  0
VERTEX
  8
gg1
 10
-0.174000
 20
0.653900
  0
VERTEX
  8
gg1
 10
-0.174000
 20
0.643900
  0
SEQEND
  8
gg1
  0
ENDSEC
  0
EOF
