  0
SECTION
  2
HEADER
  9
$EXTMIN
 10
-0.164000
 20
-0.187000
  9
$EXTMAX
 10
0.345000
 20
0.540000
  9
$LIMMIN
 10
-0.164000
 20
-0.187000
  9
$LIMMAX
 10
0.345000
 20
0.540000
  9
$FILLMODE
 70
  1
  0
ENDSEC
  0
SECTION
  2
TABLES
  0
TABLE
  2
LTYPE
 70
  1
  0
LTYPE
  2
CONTINUOUS
 70
 64
  3
Solid line
 72
 65
 73
  0
 40
0.0
  0
ENDTAB
  0
TABLE
  2
LAYER
 70
 1
  0
LAYER
  2
0
 70
  0
 62
7
  6
CONTINUOUS
  0
LAYER
  2
gg1
 70
  0
 62
1
  6
CONTINUOUS
  0
ENDTAB
  0
TABLE
  2
STYLE
 70
  1
  0
STYLE
  2
STANDARD
 70
  0
 40
0.0
 41
1.0
 50
0.0
 71
  0
 42
0.2
  3
txt
  4

  0
ENDTAB
  0
ENDSEC
  0
SECTION
  2
BLOCKS
  0
BLOCK
  8
0
  2
D10
 70
64
 10
0.0
 20
0.0
  3
D10
  0
CIRCLE
  8
0
 10
0.000000
 20
0.000000
 40
0.005000
 0
ENDBLK
  8
0
  0
BLOCK
  8
0
  2
D11
 70
64
 10
0.0
 20
0.0
  3
D11
  0
CIRCLE
  8
0
 10
0.000000
 20
0.000000
 40
0.003000
 0
ENDBLK
  8
0
  0
BLOCK
  8
0
  2
D12
 70
64
 10
0.0
 20
0.0
  3
D12
  0
CIRCLE
  8
0
 10
0.000000
 20
0.000000
 40
0.002500
 0
ENDBLK
  8
0
  0
ENDSEC
  0
SECTION
  2
ENTITIES
  0
POLYLINE
  8
gg1
 62
1
 40
0.000000
 41
0.000000
 66
  1
  0
VERTEX
  8
gg1
 10
0.340000
 20
-0.085000
  0
VERTEX
  8
gg1
 10
0.340000
 20
-0.015000
  0
SEQEND
  8
gg1
  0
POLYLINE
  8
gg1
 62
1
 40
0.000000
 41
0.000000
 66
  1
  0
VERTEX
  8
gg1
 10
0.000000
 20
-0.085000
  0
VERTEX
  8
gg1
 10
0.000000
 20
-0.015000
  0
SEQEND
  8
gg1
  0
POLYLINE
  8
gg1
 62
1
 40
0.000000
 41
0.000000
 66
  1
  0
VERTEX
  8
gg1
 10
0.170000
 20
-0.075000
  0
VERTEX
  8
gg1
 10
0.340000
 20
-0.075000
  0
SEQEND
  8
gg1
  0
POLYLINE
  8
gg1
 62
1
 40
0.000000
 41
0.000000
 66
  1
  0
VERTEX
  8
gg1
 10
0.000000
 20
-0.075000
  0
VERTEX
  8
gg1
 10
0.170000
 20
-0.075000
  0
SEQEND
  8
gg1
  0
POLYLINE
  8
gg1
 62
1
 40
0.000000
 41
0.000000
 66
  1
  0
VERTEX
  8
gg1
 10
0.280000
 20
-0.055000
  0
VERTEX
  8
gg1
 10
0.340000
 20
-0.075000
  0
SEQEND
  8
gg1
  0
POLYLINE
  8
gg1
 62
1
 40
0.000000
 41
0.000000
 66
  1
  0
VERTEX
  8
gg1
 10
0.280000
 20
-0.095000
  0
VERTEX
  8
gg1
 10
0.340000
 20
-0.075000
  0
SEQEND
  8
gg1
  0
POLYLINE
  8
gg1
 62
1
 40
0.000000
 41
0.000000
 66
  1
  0
VERTEX
  8
gg1
 10
0.000000
 20
-0.075000
  0
VERTEX
  8
gg1
 10
0.060000
 20
-0.095000
  0
SEQEND
  8
gg1
  0
POLYLINE
  8
gg1
 62
1
 40
0.000000
 41
0.000000
 66
  1
  0
VERTEX
  8
gg1
 10
0.000000
 20
-0.075000
  0
VERTEX
  8
gg1
 10
0.060000
 20
-0.055000
  0
SEQEND
  8
gg1
  0
POLYLINE
  8
gg1
 62
1
 40
0.000000
 41
0.000000
 66
  1
  0
VERTEX
  8
gg1
 10
-0.085000
 20
0.535000
  0
VERTEX
  8
gg1
 10
-0.015000
 20
0.535000
  0
SEQEND
  8
gg1
  0
POLYLINE
  8
gg1
 62
1
 40
0.000000
 41
0.000000
 66
  1
  0
VERTEX
  8
gg1
 10
-0.085000
 20
0.000000
  0
VERTEX
  8
gg1
 10
-0.015000
 20
0.000000
  0
SEQEND
  8
gg1
  0
POLYLINE
  8
gg1
 62
1
 40
0.000000
 41
0.000000
 66
  1
  0
VERTEX
  8
gg1
 10
-0.075000
 20
0.267500
  0
VERTEX
  8
gg1
 10
-0.075000
 20
0.535000
  0
SEQEND
  8
gg1
  0
POLYLINE
  8
gg1
 62
1
 40
0.000000
 41
0.000000
 66
  1
  0
VERTEX
  8
gg1
 10
-0.075000
 20
0.000000
  0
VERTEX
  8
gg1
 10
-0.075000
 20
0.267500
  0
SEQEND
  8
gg1
  0
POLYLINE
  8
gg1
 62
1
 40
0.000000
 41
0.000000
 66
  1
  0
VERTEX
  8
gg1
 10
-0.095000
 20
0.475000
  0
VERTEX
  8
gg1
 10
-0.075000
 20
0.535000
  0
VERTEX
  8
gg1
 10
-0.055000
 20
0.475000
  0
SEQEND
  8
gg1
  0
POLYLINE
  8
gg1
 62
1
 40
0.000000
 41
0.000000
 66
  1
  0
VERTEX
  8
gg1
 10
-0.075000
 20
0.000000
  0
VERTEX
  8
gg1
 10
-0.055000
 20
0.060000
  0
SEQEND
  8
gg1
  0
POLYLINE
  8
gg1
 62
1
 40
0.000000
 41
0.000000
 66
  1
  0
VERTEX
  8
gg1
 10
-0.095000
 20
0.060000
  0
VERTEX
  8
gg1
 10
-0.075000
 20
0.000000
  0
SEQEND
  8
gg1
  0
POLYLINE
  8
gg1
 62
1
 40
0.000000
 41
0.000000
 66
  1
  0
VERTEX
  8
gg1
 10
0.000000
 20
0.000000
  0
VERTEX
  8
gg1
 10
0.340000
 20
0.000000
  0
VERTEX
  8
gg1
 10
0.340000
 20
0.535000
  0
SEQEND
  8
gg1
  0
POLYLINE
  8
gg1
 62
1
 40
0.000000
 41
0.000000
 66
  1
  0
VERTEX
  8
gg1
 10
0.000000
 20
0.535000
  0
VERTEX
  8
gg1
 10
0.340000
 20
0.535000
  0
SEQEND
  8
gg1
  0
POLYLINE
  8
gg1
 62
1
 40
0.000000
 41
0.000000
 66
  1
  0
VERTEX
  8
gg1
 10
0.000000
 20
0.000000
  0
VERTEX
  8
gg1
 10
0.000000
 20
0.535000
  0
SEQEND
  8
gg1
  0
POLYLINE
  8
gg1
 62
1
 40
0.000000
 41
0.000000
 66
  1
  0
VERTEX
  8
gg1
 10
0.016000
 20
-0.134000
  0
VERTEX
  8
gg1
 10
0.026000
 20
-0.124000
  0
VERTEX
  8
gg1
 10
0.046000
 20
-0.124000
  0
VERTEX
  8
gg1
 10
0.056000
 20
-0.134000
  0
VERTEX
  8
gg1
 10
0.056000
 20
-0.144000
  0
VERTEX
  8
gg1
 10
0.046000
 20
-0.154000
  0
VERTEX
  8
gg1
 10
0.036000
 20
-0.154000
  0
VERTEX
  8
gg1
 10
0.046000
 20
-0.154000
  0
VERTEX
  8
gg1
 10
0.056000
 20
-0.164000
  0
VERTEX
  8
gg1
 10
0.056000
 20
-0.174000
  0
VERTEX
  8
gg1
 10
0.046000
 20
-0.184000
  0
VERTEX
  8
gg1
 10
0.026000
 20
-0.184000
  0
VERTEX
  8
gg1
 10
0.016000
 20
-0.174000
  0
SEQEND
  8
gg1
  0
POLYLINE
  8
gg1
 62
1
 40
0.000000
 41
0.000000
 66
  1
  0
VERTEX
  8
gg1
 10
0.106000
 20
-0.184000
  0
VERTEX
  8
gg1
 10
0.106000
 20
-0.124000
  0
VERTEX
  8
gg1
 10
0.076000
 20
-0.154000
  0
VERTEX
  8
gg1
 10
0.116000
 20
-0.154000
  0
SEQEND
  8
gg1
  0
POLYLINE
  8
gg1
 62
1
 40
0.000000
 41
0.000000
 66
  1
  0
VERTEX
  8
gg1
 10
0.136000
 20
-0.134000
  0
VERTEX
  8
gg1
 10
0.146000
 20
-0.124000
  0
VERTEX
  8
gg1
 10
0.166000
 20
-0.124000
  0
VERTEX
  8
gg1
 10
0.175900
 20
-0.134000
  0
VERTEX
  8
gg1
 10
0.175900
 20
-0.174000
  0
VERTEX
  8
gg1
 10
0.166000
 20
-0.184000
  0
VERTEX
  8
gg1
 10
0.146000
 20
-0.184000
  0
VERTEX
  8
gg1
 10
0.136000
 20
-0.174000
  0
VERTEX
  8
gg1
 10
0.136000
 20
-0.134000
  0
SEQEND
  8
gg1
  0
POLYLINE
  8
gg1
 62
1
 40
0.000000
 41
0.000000
 66
  1
  0
VERTEX
  8
gg1
 10
0.195900
 20
-0.184000
  0
VERTEX
  8
gg1
 10
0.195900
 20
-0.144000
  0
VERTEX
  8
gg1
 10
0.205900
 20
-0.144000
  0
VERTEX
  8
gg1
 10
0.215900
 20
-0.154000
  0
VERTEX
  8
gg1
 10
0.215900
 20
-0.184000
  0
VERTEX
  8
gg1
 10
0.215900
 20
-0.154000
  0
VERTEX
  8
gg1
 10
0.225900
 20
-0.144000
  0
VERTEX
  8
gg1
 10
0.235900
 20
-0.154000
  0
VERTEX
  8
gg1
 10
0.235900
 20
-0.184000
  0
SEQEND
  8
gg1
  0
POLYLINE
  8
gg1
 62
1
 40
0.000000
 41
0.000000
 66
  1
  0
VERTEX
  8
gg1
 10
0.255900
 20
-0.184000
  0
VERTEX
  8
gg1
 10
0.275900
 20
-0.184000
  0
VERTEX
  8
gg1
 10
0.265900
 20
-0.184000
  0
VERTEX
  8
gg1
 10
0.265900
 20
-0.144000
  0
VERTEX
  8
gg1
 10
0.255900
 20
-0.144000
  0
SEQEND
  8
gg1
  0
POLYLINE
  8
gg1
 62
1
 40
0.000000
 41
0.000000
 66
  1
  0
VERTEX
  8
gg1
 10
0.305900
 20
-0.184000
  0
VERTEX
  8
gg1
 10
0.325900
 20
-0.184000
  0
VERTEX
  8
gg1
 10
0.315900
 20
-0.184000
  0
VERTEX
  8
gg1
 10
0.315900
 20
-0.124000
  0
VERTEX
  8
gg1
 10
0.305900
 20
-0.124000
  0
SEQEND
  8
gg1
  0
POLYLINE
  8
gg1
 62
1
 40
0.000000
 41
0.000000
 66
  1
  0
VERTEX
  8
gg1
 10
-0.161000
 20
0.161000
  0
VERTEX
  8
gg1
 10
-0.161000
 20
0.121000
  0
VERTEX
  8
gg1
 10
-0.131000
 20
0.121000
  0
VERTEX
  8
gg1
 10
-0.141000
 20
0.141000
  0
VERTEX
  8
gg1
 10
-0.141000
 20
0.151000
  0
VERTEX
  8
gg1
 10
-0.131000
 20
0.161000
  0
VERTEX
  8
gg1
 10
-0.111000
 20
0.161000
  0
VERTEX
  8
gg1
 10
-0.101000
 20
0.151000
  0
VERTEX
  8
gg1
 10
-0.101000
 20
0.131000
  0
VERTEX
  8
gg1
 10
-0.111000
 20
0.121000
  0
SEQEND
  8
gg1
  0
POLYLINE
  8
gg1
 62
1
 40
0.000000
 41
0.000000
 66
  1
  0
VERTEX
  8
gg1
 10
-0.151000
 20
0.181000
  0
VERTEX
  8
gg1
 10
-0.161000
 20
0.191000
  0
VERTEX
  8
gg1
 10
-0.161000
 20
0.211000
  0
VERTEX
  8
gg1
 10
-0.151000
 20
0.221000
  0
VERTEX
  8
gg1
 10
-0.141000
 20
0.221000
  0
VERTEX
  8
gg1
 10
-0.131000
 20
0.211000
  0
VERTEX
  8
gg1
 10
-0.131000
 20
0.201000
  0
VERTEX
  8
gg1
 10
-0.131000
 20
0.211000
  0
VERTEX
  8
gg1
 10
-0.121000
 20
0.221000
  0
VERTEX
  8
gg1
 10
-0.111000
 20
0.221000
  0
VERTEX
  8
gg1
 10
-0.101000
 20
0.211000
  0
VERTEX
  8
gg1
 10
-0.101000
 20
0.191000
  0
VERTEX
  8
gg1
 10
-0.111000
 20
0.181000
  0
SEQEND
  8
gg1
  0
POLYLINE
  8
gg1
 62
1
 40
0.000000
 41
0.000000
 66
  1
  0
VERTEX
  8
gg1
 10
-0.161000
 20
0.280900
  0
VERTEX
  8
gg1
 10
-0.161000
 20
0.241000
  0
VERTEX
  8
gg1
 10
-0.131000
 20
0.241000
  0
VERTEX
  8
gg1
 10
-0.141000
 20
0.261000
  0
VERTEX
  8
gg1
 10
-0.141000
 20
0.271000
  0
VERTEX
  8
gg1
 10
-0.131000
 20
0.280900
  0
VERTEX
  8
gg1
 10
-0.111000
 20
0.280900
  0
VERTEX
  8
gg1
 10
-0.101000
 20
0.271000
  0
VERTEX
  8
gg1
 10
-0.101000
 20
0.251000
  0
VERTEX
  8
gg1
 10
-0.111000
 20
0.241000
  0
SEQEND
  8
gg1
  0
POLYLINE
  8
gg1
 62
1
 40
0.000000
 41
0.000000
 66
  1
  0
VERTEX
  8
gg1
 10
-0.101000
 20
0.300900
  0
VERTEX
  8
gg1
 10
-0.141000
 20
0.300900
  0
VERTEX
  8
gg1
 10
-0.141000
 20
0.310900
  0
VERTEX
  8
gg1
 10
-0.131000
 20
0.320900
  0
VERTEX
  8
gg1
 10
-0.101000
 20
0.320900
  0
VERTEX
  8
gg1
 10
-0.131000
 20
0.320900
  0
VERTEX
  8
gg1
 10
-0.141000
 20
0.330900
  0
VERTEX
  8
gg1
 10
-0.131000
 20
0.340900
  0
VERTEX
  8
gg1
 10
-0.101000
 20
0.340900
  0
SEQEND
  8
gg1
  0
POLYLINE
  8
gg1
 62
1
 40
0.000000
 41
0.000000
 66
  1
  0
VERTEX
  8
gg1
 10
-0.101000
 20
0.360900
  0
VERTEX
  8
gg1
 10
-0.101000
 20
0.380900
  0
VERTEX
  8
gg1
 10
-0.101000
 20
0.370900
  0
VERTEX
  8
gg1
 10
-0.141000
 20
0.370900
  0
VERTEX
  8
gg1
 10
-0.141000
 20
0.360900
  0
SEQEND
  8
gg1
  0
POLYLINE
  8
gg1
 62
1
 40
0.000000
 41
0.000000
 66
  1
  0
VERTEX
  8
gg1
 10
-0.101000
 20
0.410900
  0
VERTEX
  8
gg1
 10
-0.101000
 20
0.430900
  0
VERTEX
  8
gg1
 10
-0.101000
 20
0.420900
  0
VERTEX
  8
gg1
 10
-0.161000
 20
0.420900
  0
VERTEX
  8
gg1
 10
-0.161000
 20
0.410900
  0
SEQEND
  8
gg1
  0
POLYLINE
  8
gg1
 62
1
 40
0.000000
 41
0.000000
 66
  1
  0
VERTEX
  8
gg1
 10
0.050000
 20
0.050000
  0
VERTEX
  8
gg1
 10
0.090000
 20
0.050000
  0
SEQEND
  8
gg1
  0
POLYLINE
  8
gg1
 62
1
 40
0.000000
 41
0.000000
 66
  1
  0
VERTEX
  8
gg1
 10
0.070000
 20
0.030000
  0
VERTEX
  8
gg1
 10
0.070000
 20
0.070000
  0
SEQEND
  8
gg1
  0
POLYLINE
  8
gg1
 62
1
 40
0.000000
 41
0.000000
 66
  1
  0
VERTEX
  8
gg1
 10
0.150000
 20
0.050000
  0
VERTEX
  8
gg1
 10
0.190000
 20
0.050000
  0
SEQEND
  8
gg1
  0
POLYLINE
  8
gg1
 62
1
 40
0.000000
 41
0.000000
 66
  1
  0
VERTEX
  8
gg1
 10
0.170000
 20
0.030000
  0
VERTEX
  8
gg1
 10
0.170000
 20
0.070000
  0
SEQEND
  8
gg1
  0
POLYLINE
  8
gg1
 62
1
 40
0.000000
 41
0.000000
 66
  1
  0
VERTEX
  8
gg1
 10
0.250000
 20
0.050000
  0
VERTEX
  8
gg1
 10
0.290000
 20
0.050000
  0
SEQEND
  8
gg1
  0
POLYLINE
  8
gg1
 62
1
 40
0.000000
 41
0.000000
 66
  1
  0
VERTEX
  8
gg1
 10
0.270000
 20
0.030000
  0
VERTEX
  8
gg1
 10
0.270000
 20
0.070000
  0
SEQEND
  8
gg1
  0
ENDSEC
  0
EOF
