  0
SECTION
  2
HEADER
  9
$EXTMIN
 10
-0.127000
 20
-0.122000
  9
$EXTMAX
 10
0.355000
 20
0.855000
  9
$LIMMIN
 10
-0.127000
 20
-0.122000
  9
$LIMMAX
 10
0.355000
 20
0.855000
  9
$FILLMODE
 70
  1
  0
ENDSEC
  0
SECTION
  2
TABLES
  0
TABLE
  2
LTYPE
 70
  1
  0
LTYPE
  2
CONTINUOUS
 70
 64
  3
Solid line
 72
 65
 73
  0
 40
0.0
  0
ENDTAB
  0
TABLE
  2
LAYER
 70
 1
  0
LAYER
  2
0
 70
  0
 62
7
  6
CONTINUOUS
  0
LAYER
  2
gg1
 70
  0
 62
1
  6
CONTINUOUS
  0
ENDTAB
  0
TABLE
  2
STYLE
 70
  1
  0
STYLE
  2
STANDARD
 70
  0
 40
0.0
 41
1.0
 50
0.0
 71
  0
 42
0.2
  3
txt
  4

  0
ENDTAB
  0
ENDSEC
  0
SECTION
  2
BLOCKS
  0
BLOCK
  8
0
  2
D10
 70
64
 10
0.0
 20
0.0
  3
D10
  0
CIRCLE
  8
0
 10
0.000000
 20
0.000000
 40
0.005000
 0
ENDBLK
  8
0
  0
BLOCK
  8
0
  2
D11
 70
64
 10
0.0
 20
0.0
  3
D11
  0
CIRCLE
  8
0
 10
0.000000
 20
0.000000
 40
0.002500
 0
ENDBLK
  8
0
  0
BLOCK
  8
0
  2
D12
 70
64
 10
0.0
 20
0.0
  3
D12
  0
CIRCLE
  8
0
 10
0.000000
 20
0.000000
 40
0.003000
 0
ENDBLK
  8
0
  0
ENDSEC
  0
SECTION
  2
ENTITIES
  0
POLYLINE
  8
gg1
 62
1
 40
0.000000
 41
0.000000
 66
  1
  0
VERTEX
  8
gg1
 10
0.350000
 20
-0.110000
  0
VERTEX
  8
gg1
 10
0.350000
 20
-0.027500
  0
SEQEND
  8
gg1
  0
POLYLINE
  8
gg1
 62
1
 40
0.000000
 41
0.000000
 66
  1
  0
VERTEX
  8
gg1
 10
0.000000
 20
-0.110000
  0
VERTEX
  8
gg1
 10
0.000000
 20
-0.027500
  0
SEQEND
  8
gg1
  0
POLYLINE
  8
gg1
 62
1
 40
0.000000
 41
0.000000
 66
  1
  0
VERTEX
  8
gg1
 10
0.304400
 20
-0.100000
  0
VERTEX
  8
gg1
 10
0.350000
 20
-0.100000
  0
SEQEND
  8
gg1
  0
POLYLINE
  8
gg1
 62
1
 40
0.000000
 41
0.000000
 66
  1
  0
VERTEX
  8
gg1
 10
0.000000
 20
-0.100000
  0
VERTEX
  8
gg1
 10
0.040000
 20
-0.100000
  0
SEQEND
  8
gg1
  0
POLYLINE
  8
gg1
 62
1
 40
0.000000
 41
0.000000
 66
  1
  0
VERTEX
  8
gg1
 10
0.315000
 20
-0.088300
  0
VERTEX
  8
gg1
 10
0.350000
 20
-0.100000
  0
SEQEND
  8
gg1
  0
POLYLINE
  8
gg1
 62
1
 40
0.000000
 41
0.000000
 66
  1
  0
VERTEX
  8
gg1
 10
0.315000
 20
-0.111700
  0
VERTEX
  8
gg1
 10
0.350000
 20
-0.100000
  0
SEQEND
  8
gg1
  0
POLYLINE
  8
gg1
 62
1
 40
0.000000
 41
0.000000
 66
  1
  0
VERTEX
  8
gg1
 10
0.000000
 20
-0.100000
  0
VERTEX
  8
gg1
 10
0.035000
 20
-0.111700
  0
SEQEND
  8
gg1
  0
POLYLINE
  8
gg1
 62
1
 40
0.000000
 41
0.000000
 66
  1
  0
VERTEX
  8
gg1
 10
0.000000
 20
-0.100000
  0
VERTEX
  8
gg1
 10
0.035000
 20
-0.088300
  0
SEQEND
  8
gg1
  0
POLYLINE
  8
gg1
 62
1
 40
0.000000
 41
0.000000
 66
  1
  0
VERTEX
  8
gg1
 10
-0.120000
 20
0.060000
  0
VERTEX
  8
gg1
 10
-0.100000
 20
0.000000
  0
VERTEX
  8
gg1
 10
-0.080000
 20
0.060000
  0
SEQEND
  8
gg1
  0
POLYLINE
  8
gg1
 62
1
 40
0.000000
 41
0.000000
 66
  1
  0
VERTEX
  8
gg1
 10
-0.100000
 20
0.850000
  0
VERTEX
  8
gg1
 10
-0.080000
 20
0.790000
  0
SEQEND
  8
gg1
  0
POLYLINE
  8
gg1
 62
1
 40
0.000000
 41
0.000000
 66
  1
  0
VERTEX
  8
gg1
 10
-0.120000
 20
0.790000
  0
VERTEX
  8
gg1
 10
-0.100000
 20
0.850000
  0
SEQEND
  8
gg1
  0
POLYLINE
  8
gg1
 62
1
 40
0.000000
 41
0.000000
 66
  1
  0
VERTEX
  8
gg1
 10
-0.100000
 20
0.000000
  0
VERTEX
  8
gg1
 10
-0.100000
 20
0.238000
  0
SEQEND
  8
gg1
  0
POLYLINE
  8
gg1
 62
1
 40
0.000000
 41
0.000000
 66
  1
  0
VERTEX
  8
gg1
 10
-0.100000
 20
0.579900
  0
VERTEX
  8
gg1
 10
-0.100000
 20
0.850000
  0
SEQEND
  8
gg1
  0
POLYLINE
  8
gg1
 62
1
 40
0.000000
 41
0.000000
 66
  1
  0
VERTEX
  8
gg1
 10
-0.110000
 20
0.000000
  0
VERTEX
  8
gg1
 10
-0.027500
 20
0.000000
  0
SEQEND
  8
gg1
  0
POLYLINE
  8
gg1
 62
1
 40
0.000000
 41
0.000000
 66
  1
  0
VERTEX
  8
gg1
 10
-0.110000
 20
0.850000
  0
VERTEX
  8
gg1
 10
-0.027500
 20
0.850000
  0
SEQEND
  8
gg1
  0
POLYLINE
  8
gg1
 62
1
 40
0.000000
 41
0.000000
 66
  1
  0
VERTEX
  8
gg1
 10
0.000000
 20
0.000000
  0
VERTEX
  8
gg1
 10
0.000000
 20
0.850000
  0
VERTEX
  8
gg1
 10
0.350000
 20
0.850000
  0
SEQEND
  8
gg1
  0
POLYLINE
  8
gg1
 62
1
 40
0.000000
 41
0.000000
 66
  1
  0
VERTEX
  8
gg1
 10
0.350000
 20
0.000000
  0
VERTEX
  8
gg1
 10
0.350000
 20
0.850000
  0
SEQEND
  8
gg1
  0
POLYLINE
  8
gg1
 62
1
 40
0.000000
 41
0.000000
 66
  1
  0
VERTEX
  8
gg1
 10
0.000000
 20
0.000000
  0
VERTEX
  8
gg1
 10
0.350000
 20
0.000000
  0
SEQEND
  8
gg1
  0
POLYLINE
  8
gg1
 62
1
 40
0.000000
 41
0.000000
 66
  1
  0
VERTEX
  8
gg1
 10
0.068500
 20
0.525200
  0
VERTEX
  8
gg1
 10
0.083500
 20
0.525200
  0
SEQEND
  8
gg1
  0
POLYLINE
  8
gg1
 62
1
 40
0.000000
 41
0.000000
 66
  1
  0
VERTEX
  8
gg1
 10
0.076000
 20
0.517700
  0
VERTEX
  8
gg1
 10
0.076000
 20
0.532700
  0
SEQEND
  8
gg1
  0
POLYLINE
  8
gg1
 62
1
 40
0.000000
 41
0.000000
 66
  1
  0
VERTEX
  8
gg1
 10
0.276200
 20
0.590100
  0
VERTEX
  8
gg1
 10
0.291200
 20
0.590100
  0
SEQEND
  8
gg1
  0
POLYLINE
  8
gg1
 62
1
 40
0.000000
 41
0.000000
 66
  1
  0
VERTEX
  8
gg1
 10
0.283700
 20
0.582600
  0
VERTEX
  8
gg1
 10
0.283700
 20
0.597600
  0
SEQEND
  8
gg1
  0
POLYLINE
  8
gg1
 62
1
 40
0.000000
 41
0.000000
 66
  1
  0
VERTEX
  8
gg1
 10
0.267000
 20
0.515100
  0
VERTEX
  8
gg1
 10
0.282000
 20
0.515100
  0
SEQEND
  8
gg1
  0
POLYLINE
  8
gg1
 62
1
 40
0.000000
 41
0.000000
 66
  1
  0
VERTEX
  8
gg1
 10
0.274500
 20
0.507600
  0
VERTEX
  8
gg1
 10
0.274500
 20
0.522600
  0
SEQEND
  8
gg1
  0
POLYLINE
  8
gg1
 62
1
 40
0.000000
 41
0.000000
 66
  1
  0
VERTEX
  8
gg1
 10
0.055000
 20
0.050000
  0
VERTEX
  8
gg1
 10
0.095000
 20
0.050000
  0
SEQEND
  8
gg1
  0
POLYLINE
  8
gg1
 62
1
 40
0.000000
 41
0.000000
 66
  1
  0
VERTEX
  8
gg1
 10
0.075000
 20
0.030000
  0
VERTEX
  8
gg1
 10
0.075000
 20
0.070000
  0
SEQEND
  8
gg1
  0
POLYLINE
  8
gg1
 62
1
 40
0.000000
 41
0.000000
 66
  1
  0
VERTEX
  8
gg1
 10
0.155000
 20
0.050000
  0
VERTEX
  8
gg1
 10
0.195000
 20
0.050000
  0
SEQEND
  8
gg1
  0
POLYLINE
  8
gg1
 62
1
 40
0.000000
 41
0.000000
 66
  1
  0
VERTEX
  8
gg1
 10
0.175000
 20
0.030000
  0
VERTEX
  8
gg1
 10
0.175000
 20
0.070000
  0
SEQEND
  8
gg1
  0
POLYLINE
  8
gg1
 62
1
 40
0.000000
 41
0.000000
 66
  1
  0
VERTEX
  8
gg1
 10
0.255000
 20
0.050000
  0
VERTEX
  8
gg1
 10
0.295000
 20
0.050000
  0
SEQEND
  8
gg1
  0
POLYLINE
  8
gg1
 62
1
 40
0.000000
 41
0.000000
 66
  1
  0
VERTEX
  8
gg1
 10
0.275000
 20
0.030000
  0
VERTEX
  8
gg1
 10
0.275000
 20
0.070000
  0
SEQEND
  8
gg1
  0
POLYLINE
  8
gg1
 62
1
 40
0.000000
 41
0.000000
 66
  1
  0
VERTEX
  8
gg1
 10
0.132000
 20
0.750000
  0
VERTEX
  8
gg1
 10
0.218000
 20
0.750000
  0
SEQEND
  8
gg1
  0
POLYLINE
  8
gg1
 62
1
 40
0.000000
 41
0.000000
 66
  1
  0
VERTEX
  8
gg1
 10
0.175000
 20
0.707000
  0
VERTEX
  8
gg1
 10
0.175000
 20
0.793000
  0
SEQEND
  8
gg1
  0
POLYLINE
  8
gg1
 62
1
 40
0.000000
 41
0.000000
 66
  1
  0
VERTEX
  8
gg1
 10
0.056000
 20
-0.081500
  0
VERTEX
  8
gg1
 10
0.063500
 20
-0.074000
  0
VERTEX
  8
gg1
 10
0.078500
 20
-0.074000
  0
VERTEX
  8
gg1
 10
0.086000
 20
-0.081500
  0
VERTEX
  8
gg1
 10
0.086000
 20
-0.089000
  0
VERTEX
  8
gg1
 10
0.078500
 20
-0.096500
  0
VERTEX
  8
gg1
 10
0.071000
 20
-0.096500
  0
VERTEX
  8
gg1
 10
0.078500
 20
-0.096500
  0
VERTEX
  8
gg1
 10
0.086000
 20
-0.104000
  0
VERTEX
  8
gg1
 10
0.086000
 20
-0.111500
  0
VERTEX
  8
gg1
 10
0.078500
 20
-0.119000
  0
VERTEX
  8
gg1
 10
0.063500
 20
-0.119000
  0
VERTEX
  8
gg1
 10
0.056000
 20
-0.111500
  0
SEQEND
  8
gg1
  0
POLYLINE
  8
gg1
 62
1
 40
0.000000
 41
0.000000
 66
  1
  0
VERTEX
  8
gg1
 10
0.131000
 20
-0.074000
  0
VERTEX
  8
gg1
 10
0.101000
 20
-0.074000
  0
VERTEX
  8
gg1
 10
0.101000
 20
-0.096500
  0
VERTEX
  8
gg1
 10
0.116000
 20
-0.089000
  0
VERTEX
  8
gg1
 10
0.123500
 20
-0.089000
  0
VERTEX
  8
gg1
 10
0.131000
 20
-0.096500
  0
VERTEX
  8
gg1
 10
0.131000
 20
-0.111500
  0
VERTEX
  8
gg1
 10
0.123500
 20
-0.119000
  0
VERTEX
  8
gg1
 10
0.108500
 20
-0.119000
  0
VERTEX
  8
gg1
 10
0.101000
 20
-0.111500
  0
SEQEND
  8
gg1
  0
POLYLINE
  8
gg1
 62
1
 40
0.000000
 41
0.000000
 66
  1
  0
VERTEX
  8
gg1
 10
0.146000
 20
-0.081500
  0
VERTEX
  8
gg1
 10
0.153500
 20
-0.074000
  0
VERTEX
  8
gg1
 10
0.168500
 20
-0.074000
  0
VERTEX
  8
gg1
 10
0.176000
 20
-0.081500
  0
VERTEX
  8
gg1
 10
0.176000
 20
-0.111500
  0
VERTEX
  8
gg1
 10
0.168500
 20
-0.119000
  0
VERTEX
  8
gg1
 10
0.153500
 20
-0.119000
  0
VERTEX
  8
gg1
 10
0.146000
 20
-0.111500
  0
VERTEX
  8
gg1
 10
0.146000
 20
-0.081500
  0
SEQEND
  8
gg1
  0
POLYLINE
  8
gg1
 62
1
 40
0.000000
 41
0.000000
 66
  1
  0
VERTEX
  8
gg1
 10
0.191000
 20
-0.119000
  0
VERTEX
  8
gg1
 10
0.191000
 20
-0.089000
  0
VERTEX
  8
gg1
 10
0.198500
 20
-0.089000
  0
VERTEX
  8
gg1
 10
0.206000
 20
-0.096500
  0
VERTEX
  8
gg1
 10
0.206000
 20
-0.119000
  0
VERTEX
  8
gg1
 10
0.206000
 20
-0.096500
  0
VERTEX
  8
gg1
 10
0.213400
 20
-0.089000
  0
VERTEX
  8
gg1
 10
0.220900
 20
-0.096500
  0
VERTEX
  8
gg1
 10
0.220900
 20
-0.119000
  0
SEQEND
  8
gg1
  0
POLYLINE
  8
gg1
 62
1
 40
0.000000
 41
0.000000
 66
  1
  0
VERTEX
  8
gg1
 10
0.235900
 20
-0.119000
  0
VERTEX
  8
gg1
 10
0.250900
 20
-0.119000
  0
VERTEX
  8
gg1
 10
0.243400
 20
-0.119000
  0
VERTEX
  8
gg1
 10
0.243400
 20
-0.089000
  0
VERTEX
  8
gg1
 10
0.235900
 20
-0.089000
  0
SEQEND
  8
gg1
  0
POLYLINE
  8
gg1
 62
1
 40
0.000000
 41
0.000000
 66
  1
  0
VERTEX
  8
gg1
 10
0.273400
 20
-0.119000
  0
VERTEX
  8
gg1
 10
0.288400
 20
-0.119000
  0
VERTEX
  8
gg1
 10
0.280900
 20
-0.119000
  0
VERTEX
  8
gg1
 10
0.280900
 20
-0.074000
  0
VERTEX
  8
gg1
 10
0.273400
 20
-0.074000
  0
SEQEND
  8
gg1
  0
POLYLINE
  8
gg1
 62
1
 40
0.000000
 41
0.000000
 66
  1
  0
VERTEX
  8
gg1
 10
-0.114000
 20
0.254000
  0
VERTEX
  8
gg1
 10
-0.124000
 20
0.264000
  0
VERTEX
  8
gg1
 10
-0.124000
 20
0.284000
  0
VERTEX
  8
gg1
 10
-0.114000
 20
0.294000
  0
VERTEX
  8
gg1
 10
-0.104000
 20
0.294000
  0
VERTEX
  8
gg1
 10
-0.094000
 20
0.284000
  0
VERTEX
  8
gg1
 10
-0.084000
 20
0.294000
  0
VERTEX
  8
gg1
 10
-0.074000
 20
0.294000
  0
VERTEX
  8
gg1
 10
-0.064000
 20
0.284000
  0
VERTEX
  8
gg1
 10
-0.064000
 20
0.264000
  0
VERTEX
  8
gg1
 10
-0.074000
 20
0.254000
  0
VERTEX
  8
gg1
 10
-0.084000
 20
0.254000
  0
VERTEX
  8
gg1
 10
-0.094000
 20
0.264000
  0
VERTEX
  8
gg1
 10
-0.104000
 20
0.254000
  0
VERTEX
  8
gg1
 10
-0.114000
 20
0.254000
  0
SEQEND
  8
gg1
  0
POLYLINE
  8
gg1
 62
1
 40
0.000000
 41
0.000000
 66
  1
  0
VERTEX
  8
gg1
 10
-0.094000
 20
0.264000
  0
VERTEX
  8
gg1
 10
-0.094000
 20
0.284000
  0
SEQEND
  8
gg1
  0
POLYLINE
  8
gg1
 62
1
 40
0.000000
 41
0.000000
 66
  1
  0
VERTEX
  8
gg1
 10
-0.124000
 20
0.354000
  0
VERTEX
  8
gg1
 10
-0.124000
 20
0.314000
  0
VERTEX
  8
gg1
 10
-0.094000
 20
0.314000
  0
VERTEX
  8
gg1
 10
-0.104000
 20
0.334000
  0
VERTEX
  8
gg1
 10
-0.104000
 20
0.344000
  0
VERTEX
  8
gg1
 10
-0.094000
 20
0.354000
  0
VERTEX
  8
gg1
 10
-0.074000
 20
0.354000
  0
VERTEX
  8
gg1
 10
-0.064000
 20
0.344000
  0
VERTEX
  8
gg1
 10
-0.064000
 20
0.324000
  0
VERTEX
  8
gg1
 10
-0.074000
 20
0.314000
  0
SEQEND
  8
gg1
  0
POLYLINE
  8
gg1
 62
1
 40
0.000000
 41
0.000000
 66
  1
  0
VERTEX
  8
gg1
 10
-0.114000
 20
0.374000
  0
VERTEX
  8
gg1
 10
-0.124000
 20
0.384000
  0
VERTEX
  8
gg1
 10
-0.124000
 20
0.404000
  0
VERTEX
  8
gg1
 10
-0.114000
 20
0.414000
  0
VERTEX
  8
gg1
 10
-0.074000
 20
0.414000
  0
VERTEX
  8
gg1
 10
-0.064000
 20
0.404000
  0
VERTEX
  8
gg1
 10
-0.064000
 20
0.384000
  0
VERTEX
  8
gg1
 10
-0.074000
 20
0.374000
  0
VERTEX
  8
gg1
 10
-0.114000
 20
0.374000
  0
SEQEND
  8
gg1
  0
POLYLINE
  8
gg1
 62
1
 40
0.000000
 41
0.000000
 66
  1
  0
VERTEX
  8
gg1
 10
-0.064000
 20
0.434000
  0
VERTEX
  8
gg1
 10
-0.104000
 20
0.434000
  0
VERTEX
  8
gg1
 10
-0.104000
 20
0.444000
  0
VERTEX
  8
gg1
 10
-0.094000
 20
0.454000
  0
VERTEX
  8
gg1
 10
-0.064000
 20
0.454000
  0
VERTEX
  8
gg1
 10
-0.094000
 20
0.454000
  0
VERTEX
  8
gg1
 10
-0.104000
 20
0.464000
  0
VERTEX
  8
gg1
 10
-0.094000
 20
0.474000
  0
VERTEX
  8
gg1
 10
-0.064000
 20
0.474000
  0
SEQEND
  8
gg1
  0
POLYLINE
  8
gg1
 62
1
 40
0.000000
 41
0.000000
 66
  1
  0
VERTEX
  8
gg1
 10
-0.064000
 20
0.494000
  0
VERTEX
  8
gg1
 10
-0.064000
 20
0.514000
  0
VERTEX
  8
gg1
 10
-0.064000
 20
0.504000
  0
VERTEX
  8
gg1
 10
-0.104000
 20
0.504000
  0
VERTEX
  8
gg1
 10
-0.104000
 20
0.494000
  0
SEQEND
  8
gg1
  0
POLYLINE
  8
gg1
 62
1
 40
0.000000
 41
0.000000
 66
  1
  0
VERTEX
  8
gg1
 10
-0.064000
 20
0.544000
  0
VERTEX
  8
gg1
 10
-0.064000
 20
0.564000
  0
VERTEX
  8
gg1
 10
-0.064000
 20
0.554000
  0
VERTEX
  8
gg1
 10
-0.124000
 20
0.554000
  0
VERTEX
  8
gg1
 10
-0.124000
 20
0.544000
  0
SEQEND
  8
gg1
  0
ENDSEC
  0
EOF
