  0
SECTION
  2
HEADER
  9
$EXTMIN
 10
-0.202000
 20
-0.197000
  9
$EXTMAX
 10
0.355000
 20
0.905000
  9
$LIMMIN
 10
-0.202000
 20
-0.197000
  9
$LIMMAX
 10
0.355000
 20
0.905000
  9
$FILLMODE
 70
  1
  0
ENDSEC
  0
SECTION
  2
TABLES
  0
TABLE
  2
LTYPE
 70
  1
  0
LTYPE
  2
CONTINUOUS
 70
 64
  3
Solid line
 72
 65
 73
  0
 40
0.0
  0
ENDTAB
  0
TABLE
  2
LAYER
 70
 1
  0
LAYER
  2
0
 70
  0
 62
7
  6
CONTINUOUS
  0
LAYER
  2
gg1
 70
  0
 62
1
  6
CONTINUOUS
  0
ENDTAB
  0
TABLE
  2
STYLE
 70
  1
  0
STYLE
  2
STANDARD
 70
  0
 40
0.0
 41
1.0
 50
0.0
 71
  0
 42
0.2
  3
txt
  4

  0
ENDTAB
  0
ENDSEC
  0
SECTION
  2
BLOCKS
  0
BLOCK
  8
0
  2
D10
 70
64
 10
0.0
 20
0.0
  3
D10
  0
CIRCLE
  8
0
 10
0.000000
 20
0.000000
 40
0.002500
 0
ENDBLK
  8
0
  0
BLOCK
  8
0
  2
D11
 70
64
 10
0.0
 20
0.0
  3
D11
  0
CIRCLE
  8
0
 10
0.000000
 20
0.000000
 40
0.005000
 0
ENDBLK
  8
0
  0
BLOCK
  8
0
  2
D12
 70
64
 10
0.0
 20
0.0
  3
D12
  0
CIRCLE
  8
0
 10
0.000000
 20
0.000000
 40
0.003000
 0
ENDBLK
  8
0
  0
ENDSEC
  0
SECTION
  2
ENTITIES
  0
POLYLINE
  8
gg1
 62
1
 40
0.000000
 41
0.000000
 66
  1
  0
VERTEX
  8
gg1
 10
0.000000
 20
0.000000
  0
VERTEX
  8
gg1
 10
0.350000
 20
0.000000
  0
VERTEX
  8
gg1
 10
0.350000
 20
0.900000
  0
SEQEND
  8
gg1
  0
POLYLINE
  8
gg1
 62
1
 40
0.000000
 41
0.000000
 66
  1
  0
VERTEX
  8
gg1
 10
0.000000
 20
0.900000
  0
VERTEX
  8
gg1
 10
0.350000
 20
0.900000
  0
SEQEND
  8
gg1
  0
POLYLINE
  8
gg1
 62
1
 40
0.000000
 41
0.000000
 66
  1
  0
VERTEX
  8
gg1
 10
0.000000
 20
0.000000
  0
VERTEX
  8
gg1
 10
0.000000
 20
0.900000
  0
SEQEND
  8
gg1
  0
POLYLINE
  8
gg1
 62
1
 40
0.000000
 41
0.000000
 66
  1
  0
VERTEX
  8
gg1
 10
0.267000
 20
0.566000
  0
VERTEX
  8
gg1
 10
0.282000
 20
0.566000
  0
SEQEND
  8
gg1
  0
POLYLINE
  8
gg1
 62
1
 40
0.000000
 41
0.000000
 66
  1
  0
VERTEX
  8
gg1
 10
0.274500
 20
0.558500
  0
VERTEX
  8
gg1
 10
0.274500
 20
0.573500
  0
SEQEND
  8
gg1
  0
POLYLINE
  8
gg1
 62
1
 40
0.000000
 41
0.000000
 66
  1
  0
VERTEX
  8
gg1
 10
0.276200
 20
0.645000
  0
VERTEX
  8
gg1
 10
0.291200
 20
0.645000
  0
SEQEND
  8
gg1
  0
POLYLINE
  8
gg1
 62
1
 40
0.000000
 41
0.000000
 66
  1
  0
VERTEX
  8
gg1
 10
0.283700
 20
0.637500
  0
VERTEX
  8
gg1
 10
0.283700
 20
0.652500
  0
SEQEND
  8
gg1
  0
POLYLINE
  8
gg1
 62
1
 40
0.000000
 41
0.000000
 66
  1
  0
VERTEX
  8
gg1
 10
0.068500
 20
0.575200
  0
VERTEX
  8
gg1
 10
0.083500
 20
0.575200
  0
SEQEND
  8
gg1
  0
POLYLINE
  8
gg1
 62
1
 40
0.000000
 41
0.000000
 66
  1
  0
VERTEX
  8
gg1
 10
0.076000
 20
0.567700
  0
VERTEX
  8
gg1
 10
0.076000
 20
0.582700
  0
SEQEND
  8
gg1
  0
POLYLINE
  8
gg1
 62
1
 40
0.000000
 41
0.000000
 66
  1
  0
VERTEX
  8
gg1
 10
0.132000
 20
0.800000
  0
VERTEX
  8
gg1
 10
0.218000
 20
0.800000
  0
SEQEND
  8
gg1
  0
POLYLINE
  8
gg1
 62
1
 40
0.000000
 41
0.000000
 66
  1
  0
VERTEX
  8
gg1
 10
0.175000
 20
0.757000
  0
VERTEX
  8
gg1
 10
0.175000
 20
0.843000
  0
SEQEND
  8
gg1
  0
POLYLINE
  8
gg1
 62
1
 40
0.000000
 41
0.000000
 66
  1
  0
VERTEX
  8
gg1
 10
0.000000
 20
-0.175000
  0
VERTEX
  8
gg1
 10
0.035000
 20
-0.163300
  0
SEQEND
  8
gg1
  0
POLYLINE
  8
gg1
 62
1
 40
0.000000
 41
0.000000
 66
  1
  0
VERTEX
  8
gg1
 10
0.000000
 20
-0.175000
  0
VERTEX
  8
gg1
 10
0.035000
 20
-0.186700
  0
SEQEND
  8
gg1
  0
POLYLINE
  8
gg1
 62
1
 40
0.000000
 41
0.000000
 66
  1
  0
VERTEX
  8
gg1
 10
0.315000
 20
-0.186700
  0
VERTEX
  8
gg1
 10
0.350000
 20
-0.175000
  0
SEQEND
  8
gg1
  0
POLYLINE
  8
gg1
 62
1
 40
0.000000
 41
0.000000
 66
  1
  0
VERTEX
  8
gg1
 10
0.315000
 20
-0.163300
  0
VERTEX
  8
gg1
 10
0.350000
 20
-0.175000
  0
SEQEND
  8
gg1
  0
POLYLINE
  8
gg1
 62
1
 40
0.000000
 41
0.000000
 66
  1
  0
VERTEX
  8
gg1
 10
0.000000
 20
-0.175000
  0
VERTEX
  8
gg1
 10
0.040000
 20
-0.175000
  0
SEQEND
  8
gg1
  0
POLYLINE
  8
gg1
 62
1
 40
0.000000
 41
0.000000
 66
  1
  0
VERTEX
  8
gg1
 10
0.304400
 20
-0.175000
  0
VERTEX
  8
gg1
 10
0.350000
 20
-0.175000
  0
SEQEND
  8
gg1
  0
POLYLINE
  8
gg1
 62
1
 40
0.000000
 41
0.000000
 66
  1
  0
VERTEX
  8
gg1
 10
0.000000
 20
-0.185000
  0
VERTEX
  8
gg1
 10
0.000000
 20
-0.027500
  0
SEQEND
  8
gg1
  0
POLYLINE
  8
gg1
 62
1
 40
0.000000
 41
0.000000
 66
  1
  0
VERTEX
  8
gg1
 10
0.350000
 20
-0.185000
  0
VERTEX
  8
gg1
 10
0.350000
 20
-0.027500
  0
SEQEND
  8
gg1
  0
POLYLINE
  8
gg1
 62
1
 40
0.000000
 41
0.000000
 66
  1
  0
VERTEX
  8
gg1
 10
-0.195000
 20
0.060000
  0
VERTEX
  8
gg1
 10
-0.175000
 20
0.000000
  0
VERTEX
  8
gg1
 10
-0.155000
 20
0.060000
  0
SEQEND
  8
gg1
  0
POLYLINE
  8
gg1
 62
1
 40
0.000000
 41
0.000000
 66
  1
  0
VERTEX
  8
gg1
 10
-0.175000
 20
0.900000
  0
VERTEX
  8
gg1
 10
-0.155000
 20
0.840000
  0
SEQEND
  8
gg1
  0
POLYLINE
  8
gg1
 62
1
 40
0.000000
 41
0.000000
 66
  1
  0
VERTEX
  8
gg1
 10
-0.195000
 20
0.840000
  0
VERTEX
  8
gg1
 10
-0.175000
 20
0.900000
  0
SEQEND
  8
gg1
  0
POLYLINE
  8
gg1
 62
1
 40
0.000000
 41
0.000000
 66
  1
  0
VERTEX
  8
gg1
 10
-0.175000
 20
0.000000
  0
VERTEX
  8
gg1
 10
-0.175000
 20
0.263000
  0
SEQEND
  8
gg1
  0
POLYLINE
  8
gg1
 62
1
 40
0.000000
 41
0.000000
 66
  1
  0
VERTEX
  8
gg1
 10
-0.175000
 20
0.605000
  0
VERTEX
  8
gg1
 10
-0.175000
 20
0.900000
  0
SEQEND
  8
gg1
  0
POLYLINE
  8
gg1
 62
1
 40
0.000000
 41
0.000000
 66
  1
  0
VERTEX
  8
gg1
 10
-0.185000
 20
0.000000
  0
VERTEX
  8
gg1
 10
-0.027500
 20
0.000000
  0
SEQEND
  8
gg1
  0
POLYLINE
  8
gg1
 62
1
 40
0.000000
 41
0.000000
 66
  1
  0
VERTEX
  8
gg1
 10
-0.185000
 20
0.900000
  0
VERTEX
  8
gg1
 10
-0.027500
 20
0.900000
  0
SEQEND
  8
gg1
  0
POLYLINE
  8
gg1
 62
1
 40
0.000000
 41
0.000000
 66
  1
  0
VERTEX
  8
gg1
 10
0.056000
 20
-0.156500
  0
VERTEX
  8
gg1
 10
0.063500
 20
-0.149000
  0
VERTEX
  8
gg1
 10
0.078500
 20
-0.149000
  0
VERTEX
  8
gg1
 10
0.086000
 20
-0.156500
  0
VERTEX
  8
gg1
 10
0.086000
 20
-0.164000
  0
VERTEX
  8
gg1
 10
0.078500
 20
-0.171500
  0
VERTEX
  8
gg1
 10
0.071000
 20
-0.171500
  0
VERTEX
  8
gg1
 10
0.078500
 20
-0.171500
  0
VERTEX
  8
gg1
 10
0.086000
 20
-0.179000
  0
VERTEX
  8
gg1
 10
0.086000
 20
-0.186500
  0
VERTEX
  8
gg1
 10
0.078500
 20
-0.194000
  0
VERTEX
  8
gg1
 10
0.063500
 20
-0.194000
  0
VERTEX
  8
gg1
 10
0.056000
 20
-0.186500
  0
SEQEND
  8
gg1
  0
POLYLINE
  8
gg1
 62
1
 40
0.000000
 41
0.000000
 66
  1
  0
VERTEX
  8
gg1
 10
0.131000
 20
-0.149000
  0
VERTEX
  8
gg1
 10
0.101000
 20
-0.149000
  0
VERTEX
  8
gg1
 10
0.101000
 20
-0.171500
  0
VERTEX
  8
gg1
 10
0.116000
 20
-0.164000
  0
VERTEX
  8
gg1
 10
0.123500
 20
-0.164000
  0
VERTEX
  8
gg1
 10
0.131000
 20
-0.171500
  0
VERTEX
  8
gg1
 10
0.131000
 20
-0.186500
  0
VERTEX
  8
gg1
 10
0.123500
 20
-0.194000
  0
VERTEX
  8
gg1
 10
0.108500
 20
-0.194000
  0
VERTEX
  8
gg1
 10
0.101000
 20
-0.186500
  0
SEQEND
  8
gg1
  0
POLYLINE
  8
gg1
 62
1
 40
0.000000
 41
0.000000
 66
  1
  0
VERTEX
  8
gg1
 10
0.146000
 20
-0.156500
  0
VERTEX
  8
gg1
 10
0.153500
 20
-0.149000
  0
VERTEX
  8
gg1
 10
0.168500
 20
-0.149000
  0
VERTEX
  8
gg1
 10
0.176000
 20
-0.156500
  0
VERTEX
  8
gg1
 10
0.176000
 20
-0.186500
  0
VERTEX
  8
gg1
 10
0.168500
 20
-0.194000
  0
VERTEX
  8
gg1
 10
0.153500
 20
-0.194000
  0
VERTEX
  8
gg1
 10
0.146000
 20
-0.186500
  0
VERTEX
  8
gg1
 10
0.146000
 20
-0.156500
  0
SEQEND
  8
gg1
  0
POLYLINE
  8
gg1
 62
1
 40
0.000000
 41
0.000000
 66
  1
  0
VERTEX
  8
gg1
 10
0.191000
 20
-0.194000
  0
VERTEX
  8
gg1
 10
0.191000
 20
-0.164000
  0
VERTEX
  8
gg1
 10
0.198500
 20
-0.164000
  0
VERTEX
  8
gg1
 10
0.206000
 20
-0.171500
  0
VERTEX
  8
gg1
 10
0.206000
 20
-0.194000
  0
VERTEX
  8
gg1
 10
0.206000
 20
-0.171500
  0
VERTEX
  8
gg1
 10
0.213400
 20
-0.164000
  0
VERTEX
  8
gg1
 10
0.220900
 20
-0.171500
  0
VERTEX
  8
gg1
 10
0.220900
 20
-0.194000
  0
SEQEND
  8
gg1
  0
POLYLINE
  8
gg1
 62
1
 40
0.000000
 41
0.000000
 66
  1
  0
VERTEX
  8
gg1
 10
0.235900
 20
-0.194000
  0
VERTEX
  8
gg1
 10
0.250900
 20
-0.194000
  0
VERTEX
  8
gg1
 10
0.243400
 20
-0.194000
  0
VERTEX
  8
gg1
 10
0.243400
 20
-0.164000
  0
VERTEX
  8
gg1
 10
0.235900
 20
-0.164000
  0
SEQEND
  8
gg1
  0
POLYLINE
  8
gg1
 62
1
 40
0.000000
 41
0.000000
 66
  1
  0
VERTEX
  8
gg1
 10
0.273400
 20
-0.194000
  0
VERTEX
  8
gg1
 10
0.288400
 20
-0.194000
  0
VERTEX
  8
gg1
 10
0.280900
 20
-0.194000
  0
VERTEX
  8
gg1
 10
0.280900
 20
-0.149000
  0
VERTEX
  8
gg1
 10
0.273400
 20
-0.149000
  0
SEQEND
  8
gg1
  0
POLYLINE
  8
gg1
 62
1
 40
0.000000
 41
0.000000
 66
  1
  0
VERTEX
  8
gg1
 10
-0.149000
 20
0.279000
  0
VERTEX
  8
gg1
 10
-0.139000
 20
0.289000
  0
VERTEX
  8
gg1
 10
-0.139000
 20
0.309000
  0
VERTEX
  8
gg1
 10
-0.149000
 20
0.319000
  0
VERTEX
  8
gg1
 10
-0.189000
 20
0.319000
  0
VERTEX
  8
gg1
 10
-0.199000
 20
0.309000
  0
VERTEX
  8
gg1
 10
-0.199000
 20
0.289000
  0
VERTEX
  8
gg1
 10
-0.189000
 20
0.279000
  0
VERTEX
  8
gg1
 10
-0.179000
 20
0.279000
  0
VERTEX
  8
gg1
 10
-0.169000
 20
0.289000
  0
VERTEX
  8
gg1
 10
-0.169000
 20
0.319000
  0
SEQEND
  8
gg1
  0
POLYLINE
  8
gg1
 62
1
 40
0.000000
 41
0.000000
 66
  1
  0
VERTEX
  8
gg1
 10
-0.189000
 20
0.339000
  0
VERTEX
  8
gg1
 10
-0.199000
 20
0.349000
  0
VERTEX
  8
gg1
 10
-0.199000
 20
0.369000
  0
VERTEX
  8
gg1
 10
-0.189000
 20
0.379000
  0
VERTEX
  8
gg1
 10
-0.149000
 20
0.379000
  0
VERTEX
  8
gg1
 10
-0.139000
 20
0.369000
  0
VERTEX
  8
gg1
 10
-0.139000
 20
0.349000
  0
VERTEX
  8
gg1
 10
-0.149000
 20
0.339000
  0
VERTEX
  8
gg1
 10
-0.189000
 20
0.339000
  0
SEQEND
  8
gg1
  0
POLYLINE
  8
gg1
 62
1
 40
0.000000
 41
0.000000
 66
  1
  0
VERTEX
  8
gg1
 10
-0.189000
 20
0.399000
  0
VERTEX
  8
gg1
 10
-0.199000
 20
0.409000
  0
VERTEX
  8
gg1
 10
-0.199000
 20
0.429000
  0
VERTEX
  8
gg1
 10
-0.189000
 20
0.439000
  0
VERTEX
  8
gg1
 10
-0.149000
 20
0.439000
  0
VERTEX
  8
gg1
 10
-0.139000
 20
0.429000
  0
VERTEX
  8
gg1
 10
-0.139000
 20
0.409000
  0
VERTEX
  8
gg1
 10
-0.149000
 20
0.399000
  0
VERTEX
  8
gg1
 10
-0.189000
 20
0.399000
  0
SEQEND
  8
gg1
  0
POLYLINE
  8
gg1
 62
1
 40
0.000000
 41
0.000000
 66
  1
  0
VERTEX
  8
gg1
 10
-0.139000
 20
0.459000
  0
VERTEX
  8
gg1
 10
-0.179000
 20
0.459000
  0
VERTEX
  8
gg1
 10
-0.179000
 20
0.469000
  0
VERTEX
  8
gg1
 10
-0.169000
 20
0.479000
  0
VERTEX
  8
gg1
 10
-0.139000
 20
0.479000
  0
VERTEX
  8
gg1
 10
-0.169000
 20
0.479000
  0
VERTEX
  8
gg1
 10
-0.179000
 20
0.489000
  0
VERTEX
  8
gg1
 10
-0.169000
 20
0.499000
  0
VERTEX
  8
gg1
 10
-0.139000
 20
0.499000
  0
SEQEND
  8
gg1
  0
POLYLINE
  8
gg1
 62
1
 40
0.000000
 41
0.000000
 66
  1
  0
VERTEX
  8
gg1
 10
-0.139000
 20
0.519000
  0
VERTEX
  8
gg1
 10
-0.139000
 20
0.539000
  0
VERTEX
  8
gg1
 10
-0.139000
 20
0.529000
  0
VERTEX
  8
gg1
 10
-0.179000
 20
0.529000
  0
VERTEX
  8
gg1
 10
-0.179000
 20
0.519000
  0
SEQEND
  8
gg1
  0
POLYLINE
  8
gg1
 62
1
 40
0.000000
 41
0.000000
 66
  1
  0
VERTEX
  8
gg1
 10
-0.139000
 20
0.569000
  0
VERTEX
  8
gg1
 10
-0.139000
 20
0.588900
  0
VERTEX
  8
gg1
 10
-0.139000
 20
0.579000
  0
VERTEX
  8
gg1
 10
-0.199000
 20
0.579000
  0
VERTEX
  8
gg1
 10
-0.199000
 20
0.569000
  0
SEQEND
  8
gg1
  0
ENDSEC
  0
EOF
