  0
SECTION
  2
HEADER
  9
$EXTMIN
 10
7.381000
 20
14.886000
  9
$EXTMAX
 10
8.105000
 20
15.505000
  9
$LIMMIN
 10
7.381000
 20
14.886000
  9
$LIMMAX
 10
8.105000
 20
15.505000
  9
$FILLMODE
 70
  1
  0
ENDSEC
  0
SECTION
  2
TABLES
  0
TABLE
  2
LTYPE
 70
  1
  0
LTYPE
  2
CONTINUOUS
 70
 64
  3
Solid line
 72
 65
 73
  0
 40
0.0
  0
ENDTAB
  0
TABLE
  2
LAYER
 70
 1
  0
LAYER
  2
0
 70
  0
 62
7
  6
CONTINUOUS
  0
LAYER
  2
gg1
 70
  0
 62
1
  6
CONTINUOUS
  0
ENDTAB
  0
TABLE
  2
STYLE
 70
  1
  0
STYLE
  2
STANDARD
 70
  0
 40
0.0
 41
1.0
 50
0.0
 71
  0
 42
0.2
  3
txt
  4

  0
ENDTAB
  0
ENDSEC
  0
SECTION
  2
BLOCKS
  0
BLOCK
  8
0
  2
D10
 70
64
 10
0.0
 20
0.0
  3
D10
  0
CIRCLE
  8
0
 10
0.000000
 20
0.000000
 40
0.002500
 0
ENDBLK
  8
0
  0
BLOCK
  8
0
  2
D11
 70
64
 10
0.0
 20
0.0
  3
D11
  0
CIRCLE
  8
0
 10
0.000000
 20
0.000000
 40
0.005000
 0
ENDBLK
  8
0
  0
BLOCK
  8
0
  2
D12
 70
64
 10
0.0
 20
0.0
  3
D12
  0
CIRCLE
  8
0
 10
0.000000
 20
0.000000
 40
0.003000
 0
ENDBLK
  8
0
  0
ENDSEC
  0
SECTION
  2
ENTITIES
  0
POLYLINE
  8
gg1
 62
1
 40
0.000000
 41
0.000000
 66
  1
  0
VERTEX
  8
gg1
 10
8.100000
 20
15.000000
  0
VERTEX
  8
gg1
 10
8.100000
 20
15.500000
  0
SEQEND
  8
gg1
  0
POLYLINE
  8
gg1
 62
1
 40
0.000000
 41
0.000000
 66
  1
  0
VERTEX
  8
gg1
 10
7.500000
 20
15.000000
  0
VERTEX
  8
gg1
 10
8.100000
 20
15.000000
  0
SEQEND
  8
gg1
  0
POLYLINE
  8
gg1
 62
1
 40
0.000000
 41
0.000000
 66
  1
  0
VERTEX
  8
gg1
 10
7.500000
 20
15.000000
  0
VERTEX
  8
gg1
 10
7.500000
 20
15.500000
  0
VERTEX
  8
gg1
 10
8.100000
 20
15.500000
  0
SEQEND
  8
gg1
  0
POLYLINE
  8
gg1
 62
1
 40
0.000000
 41
0.000000
 66
  1
  0
VERTEX
  8
gg1
 10
8.030000
 20
15.050000
  0
VERTEX
  8
gg1
 10
8.070000
 20
15.050000
  0
SEQEND
  8
gg1
  0
POLYLINE
  8
gg1
 62
1
 40
0.000000
 41
0.000000
 66
  1
  0
VERTEX
  8
gg1
 10
8.050000
 20
15.030000
  0
VERTEX
  8
gg1
 10
8.050000
 20
15.070000
  0
SEQEND
  8
gg1
  0
POLYLINE
  8
gg1
 62
1
 40
0.000000
 41
0.000000
 66
  1
  0
VERTEX
  8
gg1
 10
7.530000
 20
15.050000
  0
VERTEX
  8
gg1
 10
7.570000
 20
15.050000
  0
SEQEND
  8
gg1
  0
POLYLINE
  8
gg1
 62
1
 40
0.000000
 41
0.000000
 66
  1
  0
VERTEX
  8
gg1
 10
7.550000
 20
15.030000
  0
VERTEX
  8
gg1
 10
7.550000
 20
15.070000
  0
SEQEND
  8
gg1
  0
POLYLINE
  8
gg1
 62
1
 40
0.000000
 41
0.000000
 66
  1
  0
VERTEX
  8
gg1
 10
8.030000
 20
15.150000
  0
VERTEX
  8
gg1
 10
8.070000
 20
15.150000
  0
SEQEND
  8
gg1
  0
POLYLINE
  8
gg1
 62
1
 40
0.000000
 41
0.000000
 66
  1
  0
VERTEX
  8
gg1
 10
8.050000
 20
15.130000
  0
VERTEX
  8
gg1
 10
8.050000
 20
15.170000
  0
SEQEND
  8
gg1
  0
POLYLINE
  8
gg1
 62
1
 40
0.000000
 41
0.000000
 66
  1
  0
VERTEX
  8
gg1
 10
8.030000
 20
15.250000
  0
VERTEX
  8
gg1
 10
8.070000
 20
15.250000
  0
SEQEND
  8
gg1
  0
POLYLINE
  8
gg1
 62
1
 40
0.000000
 41
0.000000
 66
  1
  0
VERTEX
  8
gg1
 10
8.050000
 20
15.230000
  0
VERTEX
  8
gg1
 10
8.050000
 20
15.270000
  0
SEQEND
  8
gg1
  0
POLYLINE
  8
gg1
 62
1
 40
0.000000
 41
0.000000
 66
  1
  0
VERTEX
  8
gg1
 10
8.030000
 20
15.350000
  0
VERTEX
  8
gg1
 10
8.070000
 20
15.350000
  0
SEQEND
  8
gg1
  0
POLYLINE
  8
gg1
 62
1
 40
0.000000
 41
0.000000
 66
  1
  0
VERTEX
  8
gg1
 10
8.050000
 20
15.330000
  0
VERTEX
  8
gg1
 10
8.050000
 20
15.370000
  0
SEQEND
  8
gg1
  0
POLYLINE
  8
gg1
 62
1
 40
0.000000
 41
0.000000
 66
  1
  0
VERTEX
  8
gg1
 10
8.030000
 20
15.450000
  0
VERTEX
  8
gg1
 10
8.070000
 20
15.450000
  0
SEQEND
  8
gg1
  0
POLYLINE
  8
gg1
 62
1
 40
0.000000
 41
0.000000
 66
  1
  0
VERTEX
  8
gg1
 10
8.050000
 20
15.430000
  0
VERTEX
  8
gg1
 10
8.050000
 20
15.470000
  0
SEQEND
  8
gg1
  0
POLYLINE
  8
gg1
 62
1
 40
0.000000
 41
0.000000
 66
  1
  0
VERTEX
  8
gg1
 10
7.530000
 20
15.150000
  0
VERTEX
  8
gg1
 10
7.570000
 20
15.150000
  0
SEQEND
  8
gg1
  0
POLYLINE
  8
gg1
 62
1
 40
0.000000
 41
0.000000
 66
  1
  0
VERTEX
  8
gg1
 10
7.550000
 20
15.130000
  0
VERTEX
  8
gg1
 10
7.550000
 20
15.170000
  0
SEQEND
  8
gg1
  0
POLYLINE
  8
gg1
 62
1
 40
0.000000
 41
0.000000
 66
  1
  0
VERTEX
  8
gg1
 10
7.530000
 20
15.250000
  0
VERTEX
  8
gg1
 10
7.570000
 20
15.250000
  0
SEQEND
  8
gg1
  0
POLYLINE
  8
gg1
 62
1
 40
0.000000
 41
0.000000
 66
  1
  0
VERTEX
  8
gg1
 10
7.550000
 20
15.230000
  0
VERTEX
  8
gg1
 10
7.550000
 20
15.270000
  0
SEQEND
  8
gg1
  0
POLYLINE
  8
gg1
 62
1
 40
0.000000
 41
0.000000
 66
  1
  0
VERTEX
  8
gg1
 10
7.530000
 20
15.350000
  0
VERTEX
  8
gg1
 10
7.570000
 20
15.350000
  0
SEQEND
  8
gg1
  0
POLYLINE
  8
gg1
 62
1
 40
0.000000
 41
0.000000
 66
  1
  0
VERTEX
  8
gg1
 10
7.550000
 20
15.330000
  0
VERTEX
  8
gg1
 10
7.550000
 20
15.370000
  0
SEQEND
  8
gg1
  0
POLYLINE
  8
gg1
 62
1
 40
0.000000
 41
0.000000
 66
  1
  0
VERTEX
  8
gg1
 10
7.530000
 20
15.450000
  0
VERTEX
  8
gg1
 10
7.570000
 20
15.450000
  0
SEQEND
  8
gg1
  0
POLYLINE
  8
gg1
 62
1
 40
0.000000
 41
0.000000
 66
  1
  0
VERTEX
  8
gg1
 10
7.550000
 20
15.430000
  0
VERTEX
  8
gg1
 10
7.550000
 20
15.470000
  0
SEQEND
  8
gg1
  0
POLYLINE
  8
gg1
 62
1
 40
0.000000
 41
0.000000
 66
  1
  0
VERTEX
  8
gg1
 10
7.405000
 20
15.060000
  0
VERTEX
  8
gg1
 10
7.425000
 20
15.000000
  0
VERTEX
  8
gg1
 10
7.445000
 20
15.060000
  0
SEQEND
  8
gg1
  0
POLYLINE
  8
gg1
 62
1
 40
0.000000
 41
0.000000
 66
  1
  0
VERTEX
  8
gg1
 10
7.425000
 20
15.500000
  0
VERTEX
  8
gg1
 10
7.445000
 20
15.440000
  0
SEQEND
  8
gg1
  0
POLYLINE
  8
gg1
 62
1
 40
0.000000
 41
0.000000
 66
  1
  0
VERTEX
  8
gg1
 10
7.405000
 20
15.440000
  0
VERTEX
  8
gg1
 10
7.425000
 20
15.500000
  0
SEQEND
  8
gg1
  0
POLYLINE
  8
gg1
 62
1
 40
0.000000
 41
0.000000
 66
  1
  0
VERTEX
  8
gg1
 10
7.425000
 20
15.000000
  0
VERTEX
  8
gg1
 10
7.425000
 20
15.080000
  0
SEQEND
  8
gg1
  0
POLYLINE
  8
gg1
 62
1
 40
0.000000
 41
0.000000
 66
  1
  0
VERTEX
  8
gg1
 10
7.425000
 20
15.421900
  0
VERTEX
  8
gg1
 10
7.425000
 20
15.500000
  0
SEQEND
  8
gg1
  0
POLYLINE
  8
gg1
 62
1
 40
0.000000
 41
0.000000
 66
  1
  0
VERTEX
  8
gg1
 10
7.415000
 20
15.000000
  0
VERTEX
  8
gg1
 10
7.472500
 20
15.000000
  0
SEQEND
  8
gg1
  0
POLYLINE
  8
gg1
 62
1
 40
0.000000
 41
0.000000
 66
  1
  0
VERTEX
  8
gg1
 10
7.415000
 20
15.500000
  0
VERTEX
  8
gg1
 10
7.472500
 20
15.500000
  0
SEQEND
  8
gg1
  0
POLYLINE
  8
gg1
 62
1
 40
0.000000
 41
0.000000
 66
  1
  0
VERTEX
  8
gg1
 10
7.500000
 20
14.925000
  0
VERTEX
  8
gg1
 10
7.560000
 20
14.945000
  0
SEQEND
  8
gg1
  0
POLYLINE
  8
gg1
 62
1
 40
0.000000
 41
0.000000
 66
  1
  0
VERTEX
  8
gg1
 10
7.500000
 20
14.925000
  0
VERTEX
  8
gg1
 10
7.560000
 20
14.905000
  0
SEQEND
  8
gg1
  0
POLYLINE
  8
gg1
 62
1
 40
0.000000
 41
0.000000
 66
  1
  0
VERTEX
  8
gg1
 10
8.040000
 20
14.905000
  0
VERTEX
  8
gg1
 10
8.100000
 20
14.925000
  0
SEQEND
  8
gg1
  0
POLYLINE
  8
gg1
 62
1
 40
0.000000
 41
0.000000
 66
  1
  0
VERTEX
  8
gg1
 10
8.040000
 20
14.945000
  0
VERTEX
  8
gg1
 10
8.100000
 20
14.925000
  0
SEQEND
  8
gg1
  0
POLYLINE
  8
gg1
 62
1
 40
0.000000
 41
0.000000
 66
  1
  0
VERTEX
  8
gg1
 10
7.500000
 20
14.925000
  0
VERTEX
  8
gg1
 10
7.613000
 20
14.925000
  0
SEQEND
  8
gg1
  0
POLYLINE
  8
gg1
 62
1
 40
0.000000
 41
0.000000
 66
  1
  0
VERTEX
  8
gg1
 10
7.954900
 20
14.925000
  0
VERTEX
  8
gg1
 10
8.100000
 20
14.925000
  0
SEQEND
  8
gg1
  0
POLYLINE
  8
gg1
 62
1
 40
0.000000
 41
0.000000
 66
  1
  0
VERTEX
  8
gg1
 10
7.500000
 20
14.915000
  0
VERTEX
  8
gg1
 10
7.500000
 20
14.972500
  0
SEQEND
  8
gg1
  0
POLYLINE
  8
gg1
 62
1
 40
0.000000
 41
0.000000
 66
  1
  0
VERTEX
  8
gg1
 10
8.100000
 20
14.915000
  0
VERTEX
  8
gg1
 10
8.100000
 20
14.972500
  0
SEQEND
  8
gg1
  0
POLYLINE
  8
gg1
 62
1
 40
0.000000
 41
0.000000
 66
  1
  0
VERTEX
  8
gg1
 10
7.384000
 20
15.136000
  0
VERTEX
  8
gg1
 10
7.384000
 20
15.096000
  0
VERTEX
  8
gg1
 10
7.414000
 20
15.096000
  0
VERTEX
  8
gg1
 10
7.404000
 20
15.116000
  0
VERTEX
  8
gg1
 10
7.404000
 20
15.126000
  0
VERTEX
  8
gg1
 10
7.414000
 20
15.136000
  0
VERTEX
  8
gg1
 10
7.434000
 20
15.136000
  0
VERTEX
  8
gg1
 10
7.444000
 20
15.126000
  0
VERTEX
  8
gg1
 10
7.444000
 20
15.106000
  0
VERTEX
  8
gg1
 10
7.434000
 20
15.096000
  0
SEQEND
  8
gg1
  0
POLYLINE
  8
gg1
 62
1
 40
0.000000
 41
0.000000
 66
  1
  0
VERTEX
  8
gg1
 10
7.394000
 20
15.156000
  0
VERTEX
  8
gg1
 10
7.384000
 20
15.166000
  0
VERTEX
  8
gg1
 10
7.384000
 20
15.186000
  0
VERTEX
  8
gg1
 10
7.394000
 20
15.196000
  0
VERTEX
  8
gg1
 10
7.434000
 20
15.196000
  0
VERTEX
  8
gg1
 10
7.444000
 20
15.186000
  0
VERTEX
  8
gg1
 10
7.444000
 20
15.166000
  0
VERTEX
  8
gg1
 10
7.434000
 20
15.156000
  0
VERTEX
  8
gg1
 10
7.394000
 20
15.156000
  0
SEQEND
  8
gg1
  0
POLYLINE
  8
gg1
 62
1
 40
0.000000
 41
0.000000
 66
  1
  0
VERTEX
  8
gg1
 10
7.394000
 20
15.216000
  0
VERTEX
  8
gg1
 10
7.384000
 20
15.226000
  0
VERTEX
  8
gg1
 10
7.384000
 20
15.246000
  0
VERTEX
  8
gg1
 10
7.394000
 20
15.255900
  0
VERTEX
  8
gg1
 10
7.434000
 20
15.255900
  0
VERTEX
  8
gg1
 10
7.444000
 20
15.246000
  0
VERTEX
  8
gg1
 10
7.444000
 20
15.226000
  0
VERTEX
  8
gg1
 10
7.434000
 20
15.216000
  0
VERTEX
  8
gg1
 10
7.394000
 20
15.216000
  0
SEQEND
  8
gg1
  0
POLYLINE
  8
gg1
 62
1
 40
0.000000
 41
0.000000
 66
  1
  0
VERTEX
  8
gg1
 10
7.444000
 20
15.275900
  0
VERTEX
  8
gg1
 10
7.404000
 20
15.275900
  0
VERTEX
  8
gg1
 10
7.404000
 20
15.285900
  0
VERTEX
  8
gg1
 10
7.414000
 20
15.295900
  0
VERTEX
  8
gg1
 10
7.444000
 20
15.295900
  0
VERTEX
  8
gg1
 10
7.414000
 20
15.295900
  0
VERTEX
  8
gg1
 10
7.404000
 20
15.305900
  0
VERTEX
  8
gg1
 10
7.414000
 20
15.315900
  0
VERTEX
  8
gg1
 10
7.444000
 20
15.315900
  0
SEQEND
  8
gg1
  0
POLYLINE
  8
gg1
 62
1
 40
0.000000
 41
0.000000
 66
  1
  0
VERTEX
  8
gg1
 10
7.444000
 20
15.335900
  0
VERTEX
  8
gg1
 10
7.444000
 20
15.355900
  0
VERTEX
  8
gg1
 10
7.444000
 20
15.345900
  0
VERTEX
  8
gg1
 10
7.404000
 20
15.345900
  0
VERTEX
  8
gg1
 10
7.404000
 20
15.335900
  0
SEQEND
  8
gg1
  0
POLYLINE
  8
gg1
 62
1
 40
0.000000
 41
0.000000
 66
  1
  0
VERTEX
  8
gg1
 10
7.444000
 20
15.385900
  0
VERTEX
  8
gg1
 10
7.444000
 20
15.405900
  0
VERTEX
  8
gg1
 10
7.444000
 20
15.395900
  0
VERTEX
  8
gg1
 10
7.384000
 20
15.395900
  0
VERTEX
  8
gg1
 10
7.384000
 20
15.385900
  0
SEQEND
  8
gg1
  0
POLYLINE
  8
gg1
 62
1
 40
0.000000
 41
0.000000
 66
  1
  0
VERTEX
  8
gg1
 10
7.669000
 20
14.949000
  0
VERTEX
  8
gg1
 10
7.649000
 20
14.939000
  0
VERTEX
  8
gg1
 10
7.629000
 20
14.919000
  0
VERTEX
  8
gg1
 10
7.629000
 20
14.899000
  0
VERTEX
  8
gg1
 10
7.639000
 20
14.889000
  0
VERTEX
  8
gg1
 10
7.659000
 20
14.889000
  0
VERTEX
  8
gg1
 10
7.669000
 20
14.899000
  0
VERTEX
  8
gg1
 10
7.669000
 20
14.909000
  0
VERTEX
  8
gg1
 10
7.659000
 20
14.919000
  0
VERTEX
  8
gg1
 10
7.629000
 20
14.919000
  0
SEQEND
  8
gg1
  0
POLYLINE
  8
gg1
 62
1
 40
0.000000
 41
0.000000
 66
  1
  0
VERTEX
  8
gg1
 10
7.689000
 20
14.939000
  0
VERTEX
  8
gg1
 10
7.699000
 20
14.949000
  0
VERTEX
  8
gg1
 10
7.719000
 20
14.949000
  0
VERTEX
  8
gg1
 10
7.729000
 20
14.939000
  0
VERTEX
  8
gg1
 10
7.729000
 20
14.899000
  0
VERTEX
  8
gg1
 10
7.719000
 20
14.889000
  0
VERTEX
  8
gg1
 10
7.699000
 20
14.889000
  0
VERTEX
  8
gg1
 10
7.689000
 20
14.899000
  0
VERTEX
  8
gg1
 10
7.689000
 20
14.939000
  0
SEQEND
  8
gg1
  0
POLYLINE
  8
gg1
 62
1
 40
0.000000
 41
0.000000
 66
  1
  0
VERTEX
  8
gg1
 10
7.749000
 20
14.939000
  0
VERTEX
  8
gg1
 10
7.759000
 20
14.949000
  0
VERTEX
  8
gg1
 10
7.779000
 20
14.949000
  0
VERTEX
  8
gg1
 10
7.789000
 20
14.939000
  0
VERTEX
  8
gg1
 10
7.789000
 20
14.899000
  0
VERTEX
  8
gg1
 10
7.779000
 20
14.889000
  0
VERTEX
  8
gg1
 10
7.759000
 20
14.889000
  0
VERTEX
  8
gg1
 10
7.749000
 20
14.899000
  0
VERTEX
  8
gg1
 10
7.749000
 20
14.939000
  0
SEQEND
  8
gg1
  0
POLYLINE
  8
gg1
 62
1
 40
0.000000
 41
0.000000
 66
  1
  0
VERTEX
  8
gg1
 10
7.809000
 20
14.889000
  0
VERTEX
  8
gg1
 10
7.809000
 20
14.929000
  0
VERTEX
  8
gg1
 10
7.819000
 20
14.929000
  0
VERTEX
  8
gg1
 10
7.829000
 20
14.919000
  0
VERTEX
  8
gg1
 10
7.829000
 20
14.889000
  0
VERTEX
  8
gg1
 10
7.829000
 20
14.919000
  0
VERTEX
  8
gg1
 10
7.839000
 20
14.929000
  0
VERTEX
  8
gg1
 10
7.849000
 20
14.919000
  0
VERTEX
  8
gg1
 10
7.849000
 20
14.889000
  0
SEQEND
  8
gg1
  0
POLYLINE
  8
gg1
 62
1
 40
0.000000
 41
0.000000
 66
  1
  0
VERTEX
  8
gg1
 10
7.869000
 20
14.889000
  0
VERTEX
  8
gg1
 10
7.889000
 20
14.889000
  0
VERTEX
  8
gg1
 10
7.879000
 20
14.889000
  0
VERTEX
  8
gg1
 10
7.879000
 20
14.929000
  0
VERTEX
  8
gg1
 10
7.869000
 20
14.929000
  0
SEQEND
  8
gg1
  0
POLYLINE
  8
gg1
 62
1
 40
0.000000
 41
0.000000
 66
  1
  0
VERTEX
  8
gg1
 10
7.919000
 20
14.889000
  0
VERTEX
  8
gg1
 10
7.939000
 20
14.889000
  0
VERTEX
  8
gg1
 10
7.929000
 20
14.889000
  0
VERTEX
  8
gg1
 10
7.929000
 20
14.949000
  0
VERTEX
  8
gg1
 10
7.919000
 20
14.949000
  0
SEQEND
  8
gg1
  0
ENDSEC
  0
EOF
