  0
SECTION
  2
HEADER
  9
$EXTMIN
 10
7.373000
 20
14.753000
  9
$EXTMAX
 10
7.805000
 20
15.505000
  9
$LIMMIN
 10
7.373000
 20
14.753000
  9
$LIMMAX
 10
7.805000
 20
15.505000
  9
$FILLMODE
 70
  1
  0
ENDSEC
  0
SECTION
  2
TABLES
  0
TABLE
  2
LTYPE
 70
  1
  0
LTYPE
  2
CONTINUOUS
 70
 64
  3
Solid line
 72
 65
 73
  0
 40
0.0
  0
ENDTAB
  0
TABLE
  2
LAYER
 70
 1
  0
LAYER
  2
0
 70
  0
 62
7
  6
CONTINUOUS
  0
LAYER
  2
gg1
 70
  0
 62
1
  6
CONTINUOUS
  0
ENDTAB
  0
TABLE
  2
STYLE
 70
  1
  0
STYLE
  2
STANDARD
 70
  0
 40
0.0
 41
1.0
 50
0.0
 71
  0
 42
0.2
  3
txt
  4

  0
ENDTAB
  0
ENDSEC
  0
SECTION
  2
BLOCKS
  0
BLOCK
  8
0
  2
D10
 70
64
 10
0.0
 20
0.0
  3
D10
  0
CIRCLE
  8
0
 10
0.000000
 20
0.000000
 40
0.005000
 0
ENDBLK
  8
0
  0
BLOCK
  8
0
  2
D11
 70
64
 10
0.0
 20
0.0
  3
D11
  0
CIRCLE
  8
0
 10
0.000000
 20
0.000000
 40
0.002500
 0
ENDBLK
  8
0
  0
BLOCK
  8
0
  2
D12
 70
64
 10
0.0
 20
0.0
  3
D12
  0
CIRCLE
  8
0
 10
0.000000
 20
0.000000
 40
0.003000
 0
ENDBLK
  8
0
  0
ENDSEC
  0
SECTION
  2
ENTITIES
  0
POLYLINE
  8
gg1
 62
1
 40
0.000000
 41
0.000000
 66
  1
  0
VERTEX
  8
gg1
 10
7.390000
 20
15.500000
  0
VERTEX
  8
gg1
 10
7.487500
 20
15.500000
  0
SEQEND
  8
gg1
  0
POLYLINE
  8
gg1
 62
1
 40
0.000000
 41
0.000000
 66
  1
  0
VERTEX
  8
gg1
 10
7.390000
 20
15.000000
  0
VERTEX
  8
gg1
 10
7.487500
 20
15.000000
  0
SEQEND
  8
gg1
  0
POLYLINE
  8
gg1
 62
1
 40
0.000000
 41
0.000000
 66
  1
  0
VERTEX
  8
gg1
 10
7.400000
 20
15.405000
  0
VERTEX
  8
gg1
 10
7.400000
 20
15.500000
  0
SEQEND
  8
gg1
  0
POLYLINE
  8
gg1
 62
1
 40
0.000000
 41
0.000000
 66
  1
  0
VERTEX
  8
gg1
 10
7.400000
 20
15.000000
  0
VERTEX
  8
gg1
 10
7.400000
 20
15.063100
  0
SEQEND
  8
gg1
  0
POLYLINE
  8
gg1
 62
1
 40
0.000000
 41
0.000000
 66
  1
  0
VERTEX
  8
gg1
 10
7.380000
 20
15.440000
  0
VERTEX
  8
gg1
 10
7.400000
 20
15.500000
  0
VERTEX
  8
gg1
 10
7.420000
 20
15.440000
  0
SEQEND
  8
gg1
  0
POLYLINE
  8
gg1
 62
1
 40
0.000000
 41
0.000000
 66
  1
  0
VERTEX
  8
gg1
 10
7.400000
 20
15.000000
  0
VERTEX
  8
gg1
 10
7.420000
 20
15.060000
  0
SEQEND
  8
gg1
  0
POLYLINE
  8
gg1
 62
1
 40
0.000000
 41
0.000000
 66
  1
  0
VERTEX
  8
gg1
 10
7.380000
 20
15.060000
  0
VERTEX
  8
gg1
 10
7.400000
 20
15.000000
  0
SEQEND
  8
gg1
  0
POLYLINE
  8
gg1
 62
1
 40
0.000000
 41
0.000000
 66
  1
  0
VERTEX
  8
gg1
 10
7.800000
 20
14.890000
  0
VERTEX
  8
gg1
 10
7.800000
 20
14.987500
  0
SEQEND
  8
gg1
  0
POLYLINE
  8
gg1
 62
1
 40
0.000000
 41
0.000000
 66
  1
  0
VERTEX
  8
gg1
 10
7.500000
 20
14.890000
  0
VERTEX
  8
gg1
 10
7.500000
 20
14.987500
  0
SEQEND
  8
gg1
  0
POLYLINE
  8
gg1
 62
1
 40
0.000000
 41
0.000000
 66
  1
  0
VERTEX
  8
gg1
 10
7.650000
 20
14.900000
  0
VERTEX
  8
gg1
 10
7.800000
 20
14.900000
  0
SEQEND
  8
gg1
  0
POLYLINE
  8
gg1
 62
1
 40
0.000000
 41
0.000000
 66
  1
  0
VERTEX
  8
gg1
 10
7.500000
 20
14.900000
  0
VERTEX
  8
gg1
 10
7.650000
 20
14.900000
  0
SEQEND
  8
gg1
  0
POLYLINE
  8
gg1
 62
1
 40
0.000000
 41
0.000000
 66
  1
  0
VERTEX
  8
gg1
 10
7.740000
 20
14.920000
  0
VERTEX
  8
gg1
 10
7.800000
 20
14.900000
  0
SEQEND
  8
gg1
  0
POLYLINE
  8
gg1
 62
1
 40
0.000000
 41
0.000000
 66
  1
  0
VERTEX
  8
gg1
 10
7.740000
 20
14.880000
  0
VERTEX
  8
gg1
 10
7.800000
 20
14.900000
  0
SEQEND
  8
gg1
  0
POLYLINE
  8
gg1
 62
1
 40
0.000000
 41
0.000000
 66
  1
  0
VERTEX
  8
gg1
 10
7.500000
 20
14.900000
  0
VERTEX
  8
gg1
 10
7.560000
 20
14.880000
  0
SEQEND
  8
gg1
  0
POLYLINE
  8
gg1
 62
1
 40
0.000000
 41
0.000000
 66
  1
  0
VERTEX
  8
gg1
 10
7.500000
 20
14.900000
  0
VERTEX
  8
gg1
 10
7.560000
 20
14.920000
  0
SEQEND
  8
gg1
  0
POLYLINE
  8
gg1
 62
1
 40
0.000000
 41
0.000000
 66
  1
  0
VERTEX
  8
gg1
 10
7.500000
 20
15.500000
  0
VERTEX
  8
gg1
 10
7.800000
 20
15.500000
  0
SEQEND
  8
gg1
  0
POLYLINE
  8
gg1
 62
1
 40
0.000000
 41
0.000000
 66
  1
  0
VERTEX
  8
gg1
 10
7.800000
 20
15.000000
  0
VERTEX
  8
gg1
 10
7.800000
 20
15.500000
  0
SEQEND
  8
gg1
  0
POLYLINE
  8
gg1
 62
1
 40
0.000000
 41
0.000000
 66
  1
  0
VERTEX
  8
gg1
 10
7.500000
 20
15.000000
  0
VERTEX
  8
gg1
 10
7.800000
 20
15.000000
  0
SEQEND
  8
gg1
  0
POLYLINE
  8
gg1
 62
1
 40
0.000000
 41
0.000000
 66
  1
  0
VERTEX
  8
gg1
 10
7.500000
 20
15.000000
  0
VERTEX
  8
gg1
 10
7.500000
 20
15.500000
  0
SEQEND
  8
gg1
  0
POLYLINE
  8
gg1
 62
1
 40
0.000000
 41
0.000000
 66
  1
  0
VERTEX
  8
gg1
 10
7.730000
 20
15.050000
  0
VERTEX
  8
gg1
 10
7.770000
 20
15.050000
  0
SEQEND
  8
gg1
  0
POLYLINE
  8
gg1
 62
1
 40
0.000000
 41
0.000000
 66
  1
  0
VERTEX
  8
gg1
 10
7.750000
 20
15.030000
  0
VERTEX
  8
gg1
 10
7.750000
 20
15.070000
  0
SEQEND
  8
gg1
  0
POLYLINE
  8
gg1
 62
1
 40
0.000000
 41
0.000000
 66
  1
  0
VERTEX
  8
gg1
 10
7.630000
 20
15.050000
  0
VERTEX
  8
gg1
 10
7.670000
 20
15.050000
  0
SEQEND
  8
gg1
  0
POLYLINE
  8
gg1
 62
1
 40
0.000000
 41
0.000000
 66
  1
  0
VERTEX
  8
gg1
 10
7.650000
 20
15.030000
  0
VERTEX
  8
gg1
 10
7.650000
 20
15.070000
  0
SEQEND
  8
gg1
  0
POLYLINE
  8
gg1
 62
1
 40
0.000000
 41
0.000000
 66
  1
  0
VERTEX
  8
gg1
 10
7.530000
 20
15.050000
  0
VERTEX
  8
gg1
 10
7.570000
 20
15.050000
  0
SEQEND
  8
gg1
  0
POLYLINE
  8
gg1
 62
1
 40
0.000000
 41
0.000000
 66
  1
  0
VERTEX
  8
gg1
 10
7.550000
 20
15.030000
  0
VERTEX
  8
gg1
 10
7.550000
 20
15.070000
  0
SEQEND
  8
gg1
  0
POLYLINE
  8
gg1
 62
1
 40
0.000000
 41
0.000000
 66
  1
  0
VERTEX
  8
gg1
 10
7.376000
 20
15.119000
  0
VERTEX
  8
gg1
 10
7.376000
 20
15.079100
  0
VERTEX
  8
gg1
 10
7.406000
 20
15.079100
  0
VERTEX
  8
gg1
 10
7.396000
 20
15.099000
  0
VERTEX
  8
gg1
 10
7.396000
 20
15.109000
  0
VERTEX
  8
gg1
 10
7.406000
 20
15.119000
  0
VERTEX
  8
gg1
 10
7.426000
 20
15.119000
  0
VERTEX
  8
gg1
 10
7.436000
 20
15.109000
  0
VERTEX
  8
gg1
 10
7.436000
 20
15.089000
  0
VERTEX
  8
gg1
 10
7.426000
 20
15.079100
  0
SEQEND
  8
gg1
  0
POLYLINE
  8
gg1
 62
1
 40
0.000000
 41
0.000000
 66
  1
  0
VERTEX
  8
gg1
 10
7.386000
 20
15.139000
  0
VERTEX
  8
gg1
 10
7.376000
 20
15.149000
  0
VERTEX
  8
gg1
 10
7.376000
 20
15.169000
  0
VERTEX
  8
gg1
 10
7.386000
 20
15.179000
  0
VERTEX
  8
gg1
 10
7.426000
 20
15.179000
  0
VERTEX
  8
gg1
 10
7.436000
 20
15.169000
  0
VERTEX
  8
gg1
 10
7.436000
 20
15.149000
  0
VERTEX
  8
gg1
 10
7.426000
 20
15.139000
  0
VERTEX
  8
gg1
 10
7.386000
 20
15.139000
  0
SEQEND
  8
gg1
  0
POLYLINE
  8
gg1
 62
1
 40
0.000000
 41
0.000000
 66
  1
  0
VERTEX
  8
gg1
 10
7.386000
 20
15.199000
  0
VERTEX
  8
gg1
 10
7.376000
 20
15.209000
  0
VERTEX
  8
gg1
 10
7.376000
 20
15.229000
  0
VERTEX
  8
gg1
 10
7.386000
 20
15.239000
  0
VERTEX
  8
gg1
 10
7.426000
 20
15.239000
  0
VERTEX
  8
gg1
 10
7.436000
 20
15.229000
  0
VERTEX
  8
gg1
 10
7.436000
 20
15.209000
  0
VERTEX
  8
gg1
 10
7.426000
 20
15.199000
  0
VERTEX
  8
gg1
 10
7.386000
 20
15.199000
  0
SEQEND
  8
gg1
  0
POLYLINE
  8
gg1
 62
1
 40
0.000000
 41
0.000000
 66
  1
  0
VERTEX
  8
gg1
 10
7.436000
 20
15.259000
  0
VERTEX
  8
gg1
 10
7.396000
 20
15.259000
  0
VERTEX
  8
gg1
 10
7.396000
 20
15.269000
  0
VERTEX
  8
gg1
 10
7.406000
 20
15.279000
  0
VERTEX
  8
gg1
 10
7.436000
 20
15.279000
  0
VERTEX
  8
gg1
 10
7.406000
 20
15.279000
  0
VERTEX
  8
gg1
 10
7.396000
 20
15.289000
  0
VERTEX
  8
gg1
 10
7.406000
 20
15.299000
  0
VERTEX
  8
gg1
 10
7.436000
 20
15.299000
  0
SEQEND
  8
gg1
  0
POLYLINE
  8
gg1
 62
1
 40
0.000000
 41
0.000000
 66
  1
  0
VERTEX
  8
gg1
 10
7.436000
 20
15.319000
  0
VERTEX
  8
gg1
 10
7.436000
 20
15.339000
  0
VERTEX
  8
gg1
 10
7.436000
 20
15.329000
  0
VERTEX
  8
gg1
 10
7.396000
 20
15.329000
  0
VERTEX
  8
gg1
 10
7.396000
 20
15.319000
  0
SEQEND
  8
gg1
  0
POLYLINE
  8
gg1
 62
1
 40
0.000000
 41
0.000000
 66
  1
  0
VERTEX
  8
gg1
 10
7.436000
 20
15.369000
  0
VERTEX
  8
gg1
 10
7.436000
 20
15.389000
  0
VERTEX
  8
gg1
 10
7.436000
 20
15.379000
  0
VERTEX
  8
gg1
 10
7.376000
 20
15.379000
  0
VERTEX
  8
gg1
 10
7.376000
 20
15.369000
  0
SEQEND
  8
gg1
  0
POLYLINE
  8
gg1
 62
1
 40
0.000000
 41
0.000000
 66
  1
  0
VERTEX
  8
gg1
 10
7.479100
 20
14.806000
  0
VERTEX
  8
gg1
 10
7.489000
 20
14.816000
  0
VERTEX
  8
gg1
 10
7.509000
 20
14.816000
  0
VERTEX
  8
gg1
 10
7.519000
 20
14.806000
  0
VERTEX
  8
gg1
 10
7.519000
 20
14.796000
  0
VERTEX
  8
gg1
 10
7.509000
 20
14.786000
  0
VERTEX
  8
gg1
 10
7.499000
 20
14.786000
  0
VERTEX
  8
gg1
 10
7.509000
 20
14.786000
  0
VERTEX
  8
gg1
 10
7.519000
 20
14.776000
  0
VERTEX
  8
gg1
 10
7.519000
 20
14.766000
  0
VERTEX
  8
gg1
 10
7.509000
 20
14.756000
  0
VERTEX
  8
gg1
 10
7.489000
 20
14.756000
  0
VERTEX
  8
gg1
 10
7.479100
 20
14.766000
  0
SEQEND
  8
gg1
  0
POLYLINE
  8
gg1
 62
1
 40
0.000000
 41
0.000000
 66
  1
  0
VERTEX
  8
gg1
 10
7.539000
 20
14.806000
  0
VERTEX
  8
gg1
 10
7.549000
 20
14.816000
  0
VERTEX
  8
gg1
 10
7.569000
 20
14.816000
  0
VERTEX
  8
gg1
 10
7.579000
 20
14.806000
  0
VERTEX
  8
gg1
 10
7.579000
 20
14.766000
  0
VERTEX
  8
gg1
 10
7.569000
 20
14.756000
  0
VERTEX
  8
gg1
 10
7.549000
 20
14.756000
  0
VERTEX
  8
gg1
 10
7.539000
 20
14.766000
  0
VERTEX
  8
gg1
 10
7.539000
 20
14.806000
  0
SEQEND
  8
gg1
  0
POLYLINE
  8
gg1
 62
1
 40
0.000000
 41
0.000000
 66
  1
  0
VERTEX
  8
gg1
 10
7.599000
 20
14.806000
  0
VERTEX
  8
gg1
 10
7.609000
 20
14.816000
  0
VERTEX
  8
gg1
 10
7.629000
 20
14.816000
  0
VERTEX
  8
gg1
 10
7.639000
 20
14.806000
  0
VERTEX
  8
gg1
 10
7.639000
 20
14.766000
  0
VERTEX
  8
gg1
 10
7.629000
 20
14.756000
  0
VERTEX
  8
gg1
 10
7.609000
 20
14.756000
  0
VERTEX
  8
gg1
 10
7.599000
 20
14.766000
  0
VERTEX
  8
gg1
 10
7.599000
 20
14.806000
  0
SEQEND
  8
gg1
  0
POLYLINE
  8
gg1
 62
1
 40
0.000000
 41
0.000000
 66
  1
  0
VERTEX
  8
gg1
 10
7.659000
 20
14.756000
  0
VERTEX
  8
gg1
 10
7.659000
 20
14.796000
  0
VERTEX
  8
gg1
 10
7.669000
 20
14.796000
  0
VERTEX
  8
gg1
 10
7.679000
 20
14.786000
  0
VERTEX
  8
gg1
 10
7.679000
 20
14.756000
  0
VERTEX
  8
gg1
 10
7.679000
 20
14.786000
  0
VERTEX
  8
gg1
 10
7.689000
 20
14.796000
  0
VERTEX
  8
gg1
 10
7.699000
 20
14.786000
  0
VERTEX
  8
gg1
 10
7.699000
 20
14.756000
  0
SEQEND
  8
gg1
  0
POLYLINE
  8
gg1
 62
1
 40
0.000000
 41
0.000000
 66
  1
  0
VERTEX
  8
gg1
 10
7.719000
 20
14.756000
  0
VERTEX
  8
gg1
 10
7.739000
 20
14.756000
  0
VERTEX
  8
gg1
 10
7.729000
 20
14.756000
  0
VERTEX
  8
gg1
 10
7.729000
 20
14.796000
  0
VERTEX
  8
gg1
 10
7.719000
 20
14.796000
  0
SEQEND
  8
gg1
  0
POLYLINE
  8
gg1
 62
1
 40
0.000000
 41
0.000000
 66
  1
  0
VERTEX
  8
gg1
 10
7.769000
 20
14.756000
  0
VERTEX
  8
gg1
 10
7.788900
 20
14.756000
  0
VERTEX
  8
gg1
 10
7.779000
 20
14.756000
  0
VERTEX
  8
gg1
 10
7.779000
 20
14.816000
  0
VERTEX
  8
gg1
 10
7.769000
 20
14.816000
  0
SEQEND
  8
gg1
  0
ENDSEC
  0
EOF
