  0
SECTION
  2
HEADER
  9
$EXTMIN
 10
7.323000
 20
14.811000
  9
$EXTMAX
 10
8.805000
 20
15.805000
  9
$LIMMIN
 10
7.323000
 20
14.811000
  9
$LIMMAX
 10
8.805000
 20
15.805000
  9
$FILLMODE
 70
  1
  0
ENDSEC
  0
SECTION
  2
TABLES
  0
TABLE
  2
LTYPE
 70
  1
  0
LTYPE
  2
CONTINUOUS
 70
 64
  3
Solid line
 72
 65
 73
  0
 40
0.0
  0
ENDTAB
  0
TABLE
  2
LAYER
 70
 1
  0
LAYER
  2
0
 70
  0
 62
7
  6
CONTINUOUS
  0
LAYER
  2
gg1
 70
  0
 62
1
  6
CONTINUOUS
  0
ENDTAB
  0
TABLE
  2
STYLE
 70
  1
  0
STYLE
  2
STANDARD
 70
  0
 40
0.0
 41
1.0
 50
0.0
 71
  0
 42
0.2
  3
txt
  4

  0
ENDTAB
  0
ENDSEC
  0
SECTION
  2
BLOCKS
  0
BLOCK
  8
0
  2
D10
 70
64
 10
0.0
 20
0.0
  3
D10
  0
CIRCLE
  8
0
 10
0.000000
 20
0.000000
 40
0.002500
 0
ENDBLK
  8
0
  0
BLOCK
  8
0
  2
D11
 70
64
 10
0.0
 20
0.0
  3
D11
  0
CIRCLE
  8
0
 10
0.000000
 20
0.000000
 40
0.005000
 0
ENDBLK
  8
0
  0
BLOCK
  8
0
  2
D12
 70
64
 10
0.0
 20
0.0
  3
D12
  0
CIRCLE
  8
0
 10
0.000000
 20
0.000000
 40
0.003000
 0
ENDBLK
  8
0
  0
ENDSEC
  0
SECTION
  2
ENTITIES
  0
POLYLINE
  8
gg1
 62
1
 40
0.000000
 41
0.000000
 66
  1
  0
VERTEX
  8
gg1
 10
8.800000
 20
15.000000
  0
VERTEX
  8
gg1
 10
8.800000
 20
15.800000
  0
SEQEND
  8
gg1
  0
POLYLINE
  8
gg1
 62
1
 40
0.000000
 41
0.000000
 66
  1
  0
VERTEX
  8
gg1
 10
7.500000
 20
15.800000
  0
VERTEX
  8
gg1
 10
8.800000
 20
15.800000
  0
SEQEND
  8
gg1
  0
POLYLINE
  8
gg1
 62
1
 40
0.000000
 41
0.000000
 66
  1
  0
VERTEX
  8
gg1
 10
7.500000
 20
15.000000
  0
VERTEX
  8
gg1
 10
7.500000
 20
15.800000
  0
SEQEND
  8
gg1
  0
POLYLINE
  8
gg1
 62
1
 40
0.000000
 41
0.000000
 66
  1
  0
VERTEX
  8
gg1
 10
7.500000
 20
15.000000
  0
VERTEX
  8
gg1
 10
8.800000
 20
15.000000
  0
SEQEND
  8
gg1
  0
POLYLINE
  8
gg1
 62
1
 40
0.000000
 41
0.000000
 66
  1
  0
VERTEX
  8
gg1
 10
7.615000
 20
15.700000
  0
VERTEX
  8
gg1
 10
7.635000
 20
15.700000
  0
SEQEND
  8
gg1
  0
POLYLINE
  8
gg1
 62
1
 40
0.000000
 41
0.000000
 66
  1
  0
VERTEX
  8
gg1
 10
7.625000
 20
15.690000
  0
VERTEX
  8
gg1
 10
7.625000
 20
15.710000
  0
SEQEND
  8
gg1
  0
POLYLINE
  8
gg1
 62
1
 40
0.000000
 41
0.000000
 66
  1
  0
VERTEX
  8
gg1
 10
8.080000
 20
15.055000
  0
VERTEX
  8
gg1
 10
8.100000
 20
15.055000
  0
SEQEND
  8
gg1
  0
POLYLINE
  8
gg1
 62
1
 40
0.000000
 41
0.000000
 66
  1
  0
VERTEX
  8
gg1
 10
8.090000
 20
15.045000
  0
VERTEX
  8
gg1
 10
8.090000
 20
15.065000
  0
SEQEND
  8
gg1
  0
POLYLINE
  8
gg1
 62
1
 40
0.000000
 41
0.000000
 66
  1
  0
VERTEX
  8
gg1
 10
7.965000
 20
15.085000
  0
VERTEX
  8
gg1
 10
8.005000
 20
15.085000
  0
SEQEND
  8
gg1
  0
POLYLINE
  8
gg1
 62
1
 40
0.000000
 41
0.000000
 66
  1
  0
VERTEX
  8
gg1
 10
7.985000
 20
15.065000
  0
VERTEX
  8
gg1
 10
7.985000
 20
15.105000
  0
SEQEND
  8
gg1
  0
POLYLINE
  8
gg1
 62
1
 40
0.000000
 41
0.000000
 66
  1
  0
VERTEX
  8
gg1
 10
8.161800
 20
15.085000
  0
VERTEX
  8
gg1
 10
8.201800
 20
15.085000
  0
SEQEND
  8
gg1
  0
POLYLINE
  8
gg1
 62
1
 40
0.000000
 41
0.000000
 66
  1
  0
VERTEX
  8
gg1
 10
8.181900
 20
15.065000
  0
VERTEX
  8
gg1
 10
8.181900
 20
15.105000
  0
SEQEND
  8
gg1
  0
POLYLINE
  8
gg1
 62
1
 40
0.000000
 41
0.000000
 66
  1
  0
VERTEX
  8
gg1
 10
8.161800
 20
15.750000
  0
VERTEX
  8
gg1
 10
8.201800
 20
15.750000
  0
SEQEND
  8
gg1
  0
POLYLINE
  8
gg1
 62
1
 40
0.000000
 41
0.000000
 66
  1
  0
VERTEX
  8
gg1
 10
8.181900
 20
15.730000
  0
VERTEX
  8
gg1
 10
8.181900
 20
15.770000
  0
SEQEND
  8
gg1
  0
POLYLINE
  8
gg1
 62
1
 40
0.000000
 41
0.000000
 66
  1
  0
VERTEX
  8
gg1
 10
7.530000
 20
15.450000
  0
VERTEX
  8
gg1
 10
7.570000
 20
15.450000
  0
SEQEND
  8
gg1
  0
POLYLINE
  8
gg1
 62
1
 40
0.000000
 41
0.000000
 66
  1
  0
VERTEX
  8
gg1
 10
7.550000
 20
15.430000
  0
VERTEX
  8
gg1
 10
7.550000
 20
15.470000
  0
SEQEND
  8
gg1
  0
POLYLINE
  8
gg1
 62
1
 40
0.000000
 41
0.000000
 66
  1
  0
VERTEX
  8
gg1
 10
7.530000
 20
15.350000
  0
VERTEX
  8
gg1
 10
7.570000
 20
15.350000
  0
SEQEND
  8
gg1
  0
POLYLINE
  8
gg1
 62
1
 40
0.000000
 41
0.000000
 66
  1
  0
VERTEX
  8
gg1
 10
7.550000
 20
15.330000
  0
VERTEX
  8
gg1
 10
7.550000
 20
15.370000
  0
SEQEND
  8
gg1
  0
POLYLINE
  8
gg1
 62
1
 40
0.000000
 41
0.000000
 66
  1
  0
VERTEX
  8
gg1
 10
7.530000
 20
15.250000
  0
VERTEX
  8
gg1
 10
7.570000
 20
15.250000
  0
SEQEND
  8
gg1
  0
POLYLINE
  8
gg1
 62
1
 40
0.000000
 41
0.000000
 66
  1
  0
VERTEX
  8
gg1
 10
7.550000
 20
15.230000
  0
VERTEX
  8
gg1
 10
7.550000
 20
15.270000
  0
SEQEND
  8
gg1
  0
POLYLINE
  8
gg1
 62
1
 40
0.000000
 41
0.000000
 66
  1
  0
VERTEX
  8
gg1
 10
7.530000
 20
15.150000
  0
VERTEX
  8
gg1
 10
7.570000
 20
15.150000
  0
SEQEND
  8
gg1
  0
POLYLINE
  8
gg1
 62
1
 40
0.000000
 41
0.000000
 66
  1
  0
VERTEX
  8
gg1
 10
7.550000
 20
15.130000
  0
VERTEX
  8
gg1
 10
7.550000
 20
15.170000
  0
SEQEND
  8
gg1
  0
POLYLINE
  8
gg1
 62
1
 40
0.000000
 41
0.000000
 66
  1
  0
VERTEX
  8
gg1
 10
7.530000
 20
15.050000
  0
VERTEX
  8
gg1
 10
7.570000
 20
15.050000
  0
SEQEND
  8
gg1
  0
POLYLINE
  8
gg1
 62
1
 40
0.000000
 41
0.000000
 66
  1
  0
VERTEX
  8
gg1
 10
7.550000
 20
15.030000
  0
VERTEX
  8
gg1
 10
7.550000
 20
15.070000
  0
SEQEND
  8
gg1
  0
POLYLINE
  8
gg1
 62
1
 40
0.000000
 41
0.000000
 66
  1
  0
VERTEX
  8
gg1
 10
7.530000
 20
15.550000
  0
VERTEX
  8
gg1
 10
7.570000
 20
15.550000
  0
SEQEND
  8
gg1
  0
POLYLINE
  8
gg1
 62
1
 40
0.000000
 41
0.000000
 66
  1
  0
VERTEX
  8
gg1
 10
7.550000
 20
15.530000
  0
VERTEX
  8
gg1
 10
7.550000
 20
15.570000
  0
SEQEND
  8
gg1
  0
POLYLINE
  8
gg1
 62
1
 40
0.000000
 41
0.000000
 66
  1
  0
VERTEX
  8
gg1
 10
7.530000
 20
15.650000
  0
VERTEX
  8
gg1
 10
7.570000
 20
15.650000
  0
SEQEND
  8
gg1
  0
POLYLINE
  8
gg1
 62
1
 40
0.000000
 41
0.000000
 66
  1
  0
VERTEX
  8
gg1
 10
7.550000
 20
15.630000
  0
VERTEX
  8
gg1
 10
7.550000
 20
15.670000
  0
SEQEND
  8
gg1
  0
POLYLINE
  8
gg1
 62
1
 40
0.000000
 41
0.000000
 66
  1
  0
VERTEX
  8
gg1
 10
7.530000
 20
15.750000
  0
VERTEX
  8
gg1
 10
7.570000
 20
15.750000
  0
SEQEND
  8
gg1
  0
POLYLINE
  8
gg1
 62
1
 40
0.000000
 41
0.000000
 66
  1
  0
VERTEX
  8
gg1
 10
7.550000
 20
15.730000
  0
VERTEX
  8
gg1
 10
7.550000
 20
15.770000
  0
SEQEND
  8
gg1
  0
POLYLINE
  8
gg1
 62
1
 40
0.000000
 41
0.000000
 66
  1
  0
VERTEX
  8
gg1
 10
8.630000
 20
15.450000
  0
VERTEX
  8
gg1
 10
8.670000
 20
15.450000
  0
SEQEND
  8
gg1
  0
POLYLINE
  8
gg1
 62
1
 40
0.000000
 41
0.000000
 66
  1
  0
VERTEX
  8
gg1
 10
8.650000
 20
15.430000
  0
VERTEX
  8
gg1
 10
8.650000
 20
15.470000
  0
SEQEND
  8
gg1
  0
POLYLINE
  8
gg1
 62
1
 40
0.000000
 41
0.000000
 66
  1
  0
VERTEX
  8
gg1
 10
8.630000
 20
15.350000
  0
VERTEX
  8
gg1
 10
8.670000
 20
15.350000
  0
SEQEND
  8
gg1
  0
POLYLINE
  8
gg1
 62
1
 40
0.000000
 41
0.000000
 66
  1
  0
VERTEX
  8
gg1
 10
8.650000
 20
15.330000
  0
VERTEX
  8
gg1
 10
8.650000
 20
15.370000
  0
SEQEND
  8
gg1
  0
POLYLINE
  8
gg1
 62
1
 40
0.000000
 41
0.000000
 66
  1
  0
VERTEX
  8
gg1
 10
8.630000
 20
15.250000
  0
VERTEX
  8
gg1
 10
8.670000
 20
15.250000
  0
SEQEND
  8
gg1
  0
POLYLINE
  8
gg1
 62
1
 40
0.000000
 41
0.000000
 66
  1
  0
VERTEX
  8
gg1
 10
8.650000
 20
15.230000
  0
VERTEX
  8
gg1
 10
8.650000
 20
15.270000
  0
SEQEND
  8
gg1
  0
POLYLINE
  8
gg1
 62
1
 40
0.000000
 41
0.000000
 66
  1
  0
VERTEX
  8
gg1
 10
8.630000
 20
15.150000
  0
VERTEX
  8
gg1
 10
8.670000
 20
15.150000
  0
SEQEND
  8
gg1
  0
POLYLINE
  8
gg1
 62
1
 40
0.000000
 41
0.000000
 66
  1
  0
VERTEX
  8
gg1
 10
8.650000
 20
15.130000
  0
VERTEX
  8
gg1
 10
8.650000
 20
15.170000
  0
SEQEND
  8
gg1
  0
POLYLINE
  8
gg1
 62
1
 40
0.000000
 41
0.000000
 66
  1
  0
VERTEX
  8
gg1
 10
8.630000
 20
15.050000
  0
VERTEX
  8
gg1
 10
8.670000
 20
15.050000
  0
SEQEND
  8
gg1
  0
POLYLINE
  8
gg1
 62
1
 40
0.000000
 41
0.000000
 66
  1
  0
VERTEX
  8
gg1
 10
8.650000
 20
15.030000
  0
VERTEX
  8
gg1
 10
8.650000
 20
15.070000
  0
SEQEND
  8
gg1
  0
POLYLINE
  8
gg1
 62
1
 40
0.000000
 41
0.000000
 66
  1
  0
VERTEX
  8
gg1
 10
8.630000
 20
15.550000
  0
VERTEX
  8
gg1
 10
8.670000
 20
15.550000
  0
SEQEND
  8
gg1
  0
POLYLINE
  8
gg1
 62
1
 40
0.000000
 41
0.000000
 66
  1
  0
VERTEX
  8
gg1
 10
8.650000
 20
15.530000
  0
VERTEX
  8
gg1
 10
8.650000
 20
15.570000
  0
SEQEND
  8
gg1
  0
POLYLINE
  8
gg1
 62
1
 40
0.000000
 41
0.000000
 66
  1
  0
VERTEX
  8
gg1
 10
8.630000
 20
15.650000
  0
VERTEX
  8
gg1
 10
8.670000
 20
15.650000
  0
SEQEND
  8
gg1
  0
POLYLINE
  8
gg1
 62
1
 40
0.000000
 41
0.000000
 66
  1
  0
VERTEX
  8
gg1
 10
8.650000
 20
15.630000
  0
VERTEX
  8
gg1
 10
8.650000
 20
15.670000
  0
SEQEND
  8
gg1
  0
POLYLINE
  8
gg1
 62
1
 40
0.000000
 41
0.000000
 66
  1
  0
VERTEX
  8
gg1
 10
8.630000
 20
15.750000
  0
VERTEX
  8
gg1
 10
8.670000
 20
15.750000
  0
SEQEND
  8
gg1
  0
POLYLINE
  8
gg1
 62
1
 40
0.000000
 41
0.000000
 66
  1
  0
VERTEX
  8
gg1
 10
8.650000
 20
15.730000
  0
VERTEX
  8
gg1
 10
8.650000
 20
15.770000
  0
SEQEND
  8
gg1
  0
POLYLINE
  8
gg1
 62
1
 40
0.000000
 41
0.000000
 66
  1
  0
VERTEX
  8
gg1
 10
8.667000
 20
15.695300
  0
VERTEX
  8
gg1
 10
8.753000
 20
15.695300
  0
SEQEND
  8
gg1
  0
POLYLINE
  8
gg1
 62
1
 40
0.000000
 41
0.000000
 66
  1
  0
VERTEX
  8
gg1
 10
8.710000
 20
15.652300
  0
VERTEX
  8
gg1
 10
8.710000
 20
15.738300
  0
SEQEND
  8
gg1
  0
POLYLINE
  8
gg1
 62
1
 40
0.000000
 41
0.000000
 66
  1
  0
VERTEX
  8
gg1
 10
8.667000
 20
15.498400
  0
VERTEX
  8
gg1
 10
8.753000
 20
15.498400
  0
SEQEND
  8
gg1
  0
POLYLINE
  8
gg1
 62
1
 40
0.000000
 41
0.000000
 66
  1
  0
VERTEX
  8
gg1
 10
8.710000
 20
15.455400
  0
VERTEX
  8
gg1
 10
8.710000
 20
15.541400
  0
SEQEND
  8
gg1
  0
POLYLINE
  8
gg1
 62
1
 40
0.000000
 41
0.000000
 66
  1
  0
VERTEX
  8
gg1
 10
8.667000
 20
15.104700
  0
VERTEX
  8
gg1
 10
8.753000
 20
15.104700
  0
SEQEND
  8
gg1
  0
POLYLINE
  8
gg1
 62
1
 40
0.000000
 41
0.000000
 66
  1
  0
VERTEX
  8
gg1
 10
8.710000
 20
15.061700
  0
VERTEX
  8
gg1
 10
8.710000
 20
15.147700
  0
SEQEND
  8
gg1
  0
POLYLINE
  8
gg1
 62
1
 40
0.000000
 41
0.000000
 66
  1
  0
VERTEX
  8
gg1
 10
8.667000
 20
15.301600
  0
VERTEX
  8
gg1
 10
8.753000
 20
15.301600
  0
SEQEND
  8
gg1
  0
POLYLINE
  8
gg1
 62
1
 40
0.000000
 41
0.000000
 66
  1
  0
VERTEX
  8
gg1
 10
8.710000
 20
15.258600
  0
VERTEX
  8
gg1
 10
8.710000
 20
15.344600
  0
SEQEND
  8
gg1
  0
POLYLINE
  8
gg1
 62
1
 40
0.000000
 41
0.000000
 66
  1
  0
VERTEX
  8
gg1
 10
7.782000
 20
15.090000
  0
VERTEX
  8
gg1
 10
7.868000
 20
15.090000
  0
SEQEND
  8
gg1
  0
POLYLINE
  8
gg1
 62
1
 40
0.000000
 41
0.000000
 66
  1
  0
VERTEX
  8
gg1
 10
7.825000
 20
15.047000
  0
VERTEX
  8
gg1
 10
7.825000
 20
15.133000
  0
SEQEND
  8
gg1
  0
POLYLINE
  8
gg1
 62
1
 40
0.000000
 41
0.000000
 66
  1
  0
VERTEX
  8
gg1
 10
8.407000
 20
15.710000
  0
VERTEX
  8
gg1
 10
8.493000
 20
15.710000
  0
SEQEND
  8
gg1
  0
POLYLINE
  8
gg1
 62
1
 40
0.000000
 41
0.000000
 66
  1
  0
VERTEX
  8
gg1
 10
8.450000
 20
15.667000
  0
VERTEX
  8
gg1
 10
8.450000
 20
15.753000
  0
SEQEND
  8
gg1
  0
POLYLINE
  8
gg1
 62
1
 40
0.000000
 41
0.000000
 66
  1
  0
VERTEX
  8
gg1
 10
7.330000
 20
15.060000
  0
VERTEX
  8
gg1
 10
7.350000
 20
15.000000
  0
VERTEX
  8
gg1
 10
7.370000
 20
15.060000
  0
SEQEND
  8
gg1
  0
POLYLINE
  8
gg1
 62
1
 40
0.000000
 41
0.000000
 66
  1
  0
VERTEX
  8
gg1
 10
7.350000
 20
15.800000
  0
VERTEX
  8
gg1
 10
7.370000
 20
15.740000
  0
SEQEND
  8
gg1
  0
POLYLINE
  8
gg1
 62
1
 40
0.000000
 41
0.000000
 66
  1
  0
VERTEX
  8
gg1
 10
7.330000
 20
15.740000
  0
VERTEX
  8
gg1
 10
7.350000
 20
15.800000
  0
SEQEND
  8
gg1
  0
POLYLINE
  8
gg1
 62
1
 40
0.000000
 41
0.000000
 66
  1
  0
VERTEX
  8
gg1
 10
7.350000
 20
15.000000
  0
VERTEX
  8
gg1
 10
7.350000
 20
15.213000
  0
SEQEND
  8
gg1
  0
POLYLINE
  8
gg1
 62
1
 40
0.000000
 41
0.000000
 66
  1
  0
VERTEX
  8
gg1
 10
7.350000
 20
15.554900
  0
VERTEX
  8
gg1
 10
7.350000
 20
15.800000
  0
SEQEND
  8
gg1
  0
POLYLINE
  8
gg1
 62
1
 40
0.000000
 41
0.000000
 66
  1
  0
VERTEX
  8
gg1
 10
7.340000
 20
15.000000
  0
VERTEX
  8
gg1
 10
7.472500
 20
15.000000
  0
SEQEND
  8
gg1
  0
POLYLINE
  8
gg1
 62
1
 40
0.000000
 41
0.000000
 66
  1
  0
VERTEX
  8
gg1
 10
7.340000
 20
15.800000
  0
VERTEX
  8
gg1
 10
7.472500
 20
15.800000
  0
SEQEND
  8
gg1
  0
POLYLINE
  8
gg1
 62
1
 40
0.000000
 41
0.000000
 66
  1
  0
VERTEX
  8
gg1
 10
7.500000
 20
14.850000
  0
VERTEX
  8
gg1
 10
7.560000
 20
14.870000
  0
SEQEND
  8
gg1
  0
POLYLINE
  8
gg1
 62
1
 40
0.000000
 41
0.000000
 66
  1
  0
VERTEX
  8
gg1
 10
7.500000
 20
14.850000
  0
VERTEX
  8
gg1
 10
7.560000
 20
14.830000
  0
SEQEND
  8
gg1
  0
POLYLINE
  8
gg1
 62
1
 40
0.000000
 41
0.000000
 66
  1
  0
VERTEX
  8
gg1
 10
8.740000
 20
14.830000
  0
VERTEX
  8
gg1
 10
8.800000
 20
14.850000
  0
SEQEND
  8
gg1
  0
POLYLINE
  8
gg1
 62
1
 40
0.000000
 41
0.000000
 66
  1
  0
VERTEX
  8
gg1
 10
8.740000
 20
14.870000
  0
VERTEX
  8
gg1
 10
8.800000
 20
14.850000
  0
SEQEND
  8
gg1
  0
POLYLINE
  8
gg1
 62
1
 40
0.000000
 41
0.000000
 66
  1
  0
VERTEX
  8
gg1
 10
7.500000
 20
14.850000
  0
VERTEX
  8
gg1
 10
7.938100
 20
14.850000
  0
SEQEND
  8
gg1
  0
POLYLINE
  8
gg1
 62
1
 40
0.000000
 41
0.000000
 66
  1
  0
VERTEX
  8
gg1
 10
8.329900
 20
14.850000
  0
VERTEX
  8
gg1
 10
8.800000
 20
14.850000
  0
SEQEND
  8
gg1
  0
POLYLINE
  8
gg1
 62
1
 40
0.000000
 41
0.000000
 66
  1
  0
VERTEX
  8
gg1
 10
7.500000
 20
14.840000
  0
VERTEX
  8
gg1
 10
7.500000
 20
14.972500
  0
SEQEND
  8
gg1
  0
POLYLINE
  8
gg1
 62
1
 40
0.000000
 41
0.000000
 66
  1
  0
VERTEX
  8
gg1
 10
8.800000
 20
14.840000
  0
VERTEX
  8
gg1
 10
8.800000
 20
14.972500
  0
SEQEND
  8
gg1
  0
POLYLINE
  8
gg1
 62
1
 40
0.000000
 41
0.000000
 66
  1
  0
VERTEX
  8
gg1
 10
7.336000
 20
15.229000
  0
VERTEX
  8
gg1
 10
7.326000
 20
15.239000
  0
VERTEX
  8
gg1
 10
7.326000
 20
15.259000
  0
VERTEX
  8
gg1
 10
7.336000
 20
15.269000
  0
VERTEX
  8
gg1
 10
7.346000
 20
15.269000
  0
VERTEX
  8
gg1
 10
7.356000
 20
15.259000
  0
VERTEX
  8
gg1
 10
7.366000
 20
15.269000
  0
VERTEX
  8
gg1
 10
7.376000
 20
15.269000
  0
VERTEX
  8
gg1
 10
7.386000
 20
15.259000
  0
VERTEX
  8
gg1
 10
7.386000
 20
15.239000
  0
VERTEX
  8
gg1
 10
7.376000
 20
15.229000
  0
VERTEX
  8
gg1
 10
7.366000
 20
15.229000
  0
VERTEX
  8
gg1
 10
7.356000
 20
15.239000
  0
VERTEX
  8
gg1
 10
7.346000
 20
15.229000
  0
VERTEX
  8
gg1
 10
7.336000
 20
15.229000
  0
SEQEND
  8
gg1
  0
POLYLINE
  8
gg1
 62
1
 40
0.000000
 41
0.000000
 66
  1
  0
VERTEX
  8
gg1
 10
7.356000
 20
15.239000
  0
VERTEX
  8
gg1
 10
7.356000
 20
15.259000
  0
SEQEND
  8
gg1
  0
POLYLINE
  8
gg1
 62
1
 40
0.000000
 41
0.000000
 66
  1
  0
VERTEX
  8
gg1
 10
7.336000
 20
15.289000
  0
VERTEX
  8
gg1
 10
7.326000
 20
15.299000
  0
VERTEX
  8
gg1
 10
7.326000
 20
15.319000
  0
VERTEX
  8
gg1
 10
7.336000
 20
15.329000
  0
VERTEX
  8
gg1
 10
7.376000
 20
15.329000
  0
VERTEX
  8
gg1
 10
7.386000
 20
15.319000
  0
VERTEX
  8
gg1
 10
7.386000
 20
15.299000
  0
VERTEX
  8
gg1
 10
7.376000
 20
15.289000
  0
VERTEX
  8
gg1
 10
7.336000
 20
15.289000
  0
SEQEND
  8
gg1
  0
POLYLINE
  8
gg1
 62
1
 40
0.000000
 41
0.000000
 66
  1
  0
VERTEX
  8
gg1
 10
7.336000
 20
15.349000
  0
VERTEX
  8
gg1
 10
7.326000
 20
15.359000
  0
VERTEX
  8
gg1
 10
7.326000
 20
15.379000
  0
VERTEX
  8
gg1
 10
7.336000
 20
15.389000
  0
VERTEX
  8
gg1
 10
7.376000
 20
15.389000
  0
VERTEX
  8
gg1
 10
7.386000
 20
15.379000
  0
VERTEX
  8
gg1
 10
7.386000
 20
15.359000
  0
VERTEX
  8
gg1
 10
7.376000
 20
15.349000
  0
VERTEX
  8
gg1
 10
7.336000
 20
15.349000
  0
SEQEND
  8
gg1
  0
POLYLINE
  8
gg1
 62
1
 40
0.000000
 41
0.000000
 66
  1
  0
VERTEX
  8
gg1
 10
7.386000
 20
15.409000
  0
VERTEX
  8
gg1
 10
7.346000
 20
15.409000
  0
VERTEX
  8
gg1
 10
7.346000
 20
15.419000
  0
VERTEX
  8
gg1
 10
7.356000
 20
15.429000
  0
VERTEX
  8
gg1
 10
7.386000
 20
15.429000
  0
VERTEX
  8
gg1
 10
7.356000
 20
15.429000
  0
VERTEX
  8
gg1
 10
7.346000
 20
15.439000
  0
VERTEX
  8
gg1
 10
7.356000
 20
15.449000
  0
VERTEX
  8
gg1
 10
7.386000
 20
15.449000
  0
SEQEND
  8
gg1
  0
POLYLINE
  8
gg1
 62
1
 40
0.000000
 41
0.000000
 66
  1
  0
VERTEX
  8
gg1
 10
7.386000
 20
15.469000
  0
VERTEX
  8
gg1
 10
7.386000
 20
15.489000
  0
VERTEX
  8
gg1
 10
7.386000
 20
15.479000
  0
VERTEX
  8
gg1
 10
7.346000
 20
15.479000
  0
VERTEX
  8
gg1
 10
7.346000
 20
15.469000
  0
SEQEND
  8
gg1
  0
POLYLINE
  8
gg1
 62
1
 40
0.000000
 41
0.000000
 66
  1
  0
VERTEX
  8
gg1
 10
7.386000
 20
15.519000
  0
VERTEX
  8
gg1
 10
7.386000
 20
15.538900
  0
VERTEX
  8
gg1
 10
7.386000
 20
15.529000
  0
VERTEX
  8
gg1
 10
7.326000
 20
15.529000
  0
VERTEX
  8
gg1
 10
7.326000
 20
15.519000
  0
SEQEND
  8
gg1
  0
POLYLINE
  8
gg1
 62
1
 40
0.000000
 41
0.000000
 66
  1
  0
VERTEX
  8
gg1
 10
7.954100
 20
14.814000
  0
VERTEX
  8
gg1
 10
7.974100
 20
14.814000
  0
VERTEX
  8
gg1
 10
7.964100
 20
14.814000
  0
VERTEX
  8
gg1
 10
7.964100
 20
14.874000
  0
VERTEX
  8
gg1
 10
7.954100
 20
14.864000
  0
SEQEND
  8
gg1
  0
POLYLINE
  8
gg1
 62
1
 40
0.000000
 41
0.000000
 66
  1
  0
VERTEX
  8
gg1
 10
8.004000
 20
14.864000
  0
VERTEX
  8
gg1
 10
8.014000
 20
14.874000
  0
VERTEX
  8
gg1
 10
8.034000
 20
14.874000
  0
VERTEX
  8
gg1
 10
8.044000
 20
14.864000
  0
VERTEX
  8
gg1
 10
8.044000
 20
14.854000
  0
VERTEX
  8
gg1
 10
8.034000
 20
14.844000
  0
VERTEX
  8
gg1
 10
8.024000
 20
14.844000
  0
VERTEX
  8
gg1
 10
8.034000
 20
14.844000
  0
VERTEX
  8
gg1
 10
8.044000
 20
14.834000
  0
VERTEX
  8
gg1
 10
8.044000
 20
14.824000
  0
VERTEX
  8
gg1
 10
8.034000
 20
14.814000
  0
VERTEX
  8
gg1
 10
8.014000
 20
14.814000
  0
VERTEX
  8
gg1
 10
8.004000
 20
14.824000
  0
SEQEND
  8
gg1
  0
POLYLINE
  8
gg1
 62
1
 40
0.000000
 41
0.000000
 66
  1
  0
VERTEX
  8
gg1
 10
8.064000
 20
14.864000
  0
VERTEX
  8
gg1
 10
8.074000
 20
14.874000
  0
VERTEX
  8
gg1
 10
8.094000
 20
14.874000
  0
VERTEX
  8
gg1
 10
8.104000
 20
14.864000
  0
VERTEX
  8
gg1
 10
8.104000
 20
14.824000
  0
VERTEX
  8
gg1
 10
8.094000
 20
14.814000
  0
VERTEX
  8
gg1
 10
8.074000
 20
14.814000
  0
VERTEX
  8
gg1
 10
8.064000
 20
14.824000
  0
VERTEX
  8
gg1
 10
8.064000
 20
14.864000
  0
SEQEND
  8
gg1
  0
POLYLINE
  8
gg1
 62
1
 40
0.000000
 41
0.000000
 66
  1
  0
VERTEX
  8
gg1
 10
8.124000
 20
14.864000
  0
VERTEX
  8
gg1
 10
8.134000
 20
14.874000
  0
VERTEX
  8
gg1
 10
8.154000
 20
14.874000
  0
VERTEX
  8
gg1
 10
8.164000
 20
14.864000
  0
VERTEX
  8
gg1
 10
8.164000
 20
14.824000
  0
VERTEX
  8
gg1
 10
8.154000
 20
14.814000
  0
VERTEX
  8
gg1
 10
8.134000
 20
14.814000
  0
VERTEX
  8
gg1
 10
8.124000
 20
14.824000
  0
VERTEX
  8
gg1
 10
8.124000
 20
14.864000
  0
SEQEND
  8
gg1
  0
POLYLINE
  8
gg1
 62
1
 40
0.000000
 41
0.000000
 66
  1
  0
VERTEX
  8
gg1
 10
8.184000
 20
14.814000
  0
VERTEX
  8
gg1
 10
8.184000
 20
14.854000
  0
VERTEX
  8
gg1
 10
8.194000
 20
14.854000
  0
VERTEX
  8
gg1
 10
8.204000
 20
14.844000
  0
VERTEX
  8
gg1
 10
8.204000
 20
14.814000
  0
VERTEX
  8
gg1
 10
8.204000
 20
14.844000
  0
VERTEX
  8
gg1
 10
8.214000
 20
14.854000
  0
VERTEX
  8
gg1
 10
8.224000
 20
14.844000
  0
VERTEX
  8
gg1
 10
8.224000
 20
14.814000
  0
SEQEND
  8
gg1
  0
POLYLINE
  8
gg1
 62
1
 40
0.000000
 41
0.000000
 66
  1
  0
VERTEX
  8
gg1
 10
8.244000
 20
14.814000
  0
VERTEX
  8
gg1
 10
8.264000
 20
14.814000
  0
VERTEX
  8
gg1
 10
8.254000
 20
14.814000
  0
VERTEX
  8
gg1
 10
8.254000
 20
14.854000
  0
VERTEX
  8
gg1
 10
8.244000
 20
14.854000
  0
SEQEND
  8
gg1
  0
POLYLINE
  8
gg1
 62
1
 40
0.000000
 41
0.000000
 66
  1
  0
VERTEX
  8
gg1
 10
8.293900
 20
14.814000
  0
VERTEX
  8
gg1
 10
8.313900
 20
14.814000
  0
VERTEX
  8
gg1
 10
8.303900
 20
14.814000
  0
VERTEX
  8
gg1
 10
8.303900
 20
14.874000
  0
VERTEX
  8
gg1
 10
8.293900
 20
14.874000
  0
SEQEND
  8
gg1
  0
ENDSEC
  0
EOF
