  0
SECTION
  2
HEADER
  9
$EXTMIN
 10
7.373000
 20
14.861000
  9
$EXTMAX
 10
8.705000
 20
16.405000
  9
$LIMMIN
 10
7.373000
 20
14.861000
  9
$LIMMAX
 10
8.705000
 20
16.405000
  9
$FILLMODE
 70
  1
  0
ENDSEC
  0
SECTION
  2
TABLES
  0
TABLE
  2
LTYPE
 70
  1
  0
LTYPE
  2
CONTINUOUS
 70
 64
  3
Solid line
 72
 65
 73
  0
 40
0.0
  0
ENDTAB
  0
TABLE
  2
LAYER
 70
 1
  0
LAYER
  2
0
 70
  0
 62
7
  6
CONTINUOUS
  0
LAYER
  2
gg1
 70
  0
 62
1
  6
CONTINUOUS
  0
ENDTAB
  0
TABLE
  2
STYLE
 70
  1
  0
STYLE
  2
STANDARD
 70
  0
 40
0.0
 41
1.0
 50
0.0
 71
  0
 42
0.2
  3
txt
  4

  0
ENDTAB
  0
ENDSEC
  0
SECTION
  2
BLOCKS
  0
BLOCK
  8
0
  2
D10
 70
64
 10
0.0
 20
0.0
  3
D10
  0
CIRCLE
  8
0
 10
0.000000
 20
0.000000
 40
0.005000
 0
ENDBLK
  8
0
  0
BLOCK
  8
0
  2
D11
 70
64
 10
0.0
 20
0.0
  3
D11
  0
CIRCLE
  8
0
 10
0.000000
 20
0.000000
 40
0.002500
 0
ENDBLK
  8
0
  0
BLOCK
  8
0
  2
D12
 70
64
 10
0.0
 20
0.0
  3
D12
  0
CIRCLE
  8
0
 10
0.000000
 20
0.000000
 40
0.003000
 0
ENDBLK
  8
0
  0
ENDSEC
  0
SECTION
  2
ENTITIES
  0
POLYLINE
  8
gg1
 62
1
 40
0.000000
 41
0.000000
 66
  1
  0
VERTEX
  8
gg1
 10
8.700000
 20
14.890000
  0
VERTEX
  8
gg1
 10
8.700000
 20
14.987500
  0
SEQEND
  8
gg1
  0
POLYLINE
  8
gg1
 62
1
 40
0.000000
 41
0.000000
 66
  1
  0
VERTEX
  8
gg1
 10
7.500000
 20
14.890000
  0
VERTEX
  8
gg1
 10
7.500000
 20
14.987500
  0
SEQEND
  8
gg1
  0
POLYLINE
  8
gg1
 62
1
 40
0.000000
 41
0.000000
 66
  1
  0
VERTEX
  8
gg1
 10
8.279900
 20
14.900000
  0
VERTEX
  8
gg1
 10
8.700000
 20
14.900000
  0
SEQEND
  8
gg1
  0
POLYLINE
  8
gg1
 62
1
 40
0.000000
 41
0.000000
 66
  1
  0
VERTEX
  8
gg1
 10
7.500000
 20
14.900000
  0
VERTEX
  8
gg1
 10
7.888100
 20
14.900000
  0
SEQEND
  8
gg1
  0
POLYLINE
  8
gg1
 62
1
 40
0.000000
 41
0.000000
 66
  1
  0
VERTEX
  8
gg1
 10
8.640000
 20
14.920000
  0
VERTEX
  8
gg1
 10
8.700000
 20
14.900000
  0
SEQEND
  8
gg1
  0
POLYLINE
  8
gg1
 62
1
 40
0.000000
 41
0.000000
 66
  1
  0
VERTEX
  8
gg1
 10
8.640000
 20
14.880000
  0
VERTEX
  8
gg1
 10
8.700000
 20
14.900000
  0
SEQEND
  8
gg1
  0
POLYLINE
  8
gg1
 62
1
 40
0.000000
 41
0.000000
 66
  1
  0
VERTEX
  8
gg1
 10
7.500000
 20
14.900000
  0
VERTEX
  8
gg1
 10
7.560000
 20
14.880000
  0
SEQEND
  8
gg1
  0
POLYLINE
  8
gg1
 62
1
 40
0.000000
 41
0.000000
 66
  1
  0
VERTEX
  8
gg1
 10
7.500000
 20
14.900000
  0
VERTEX
  8
gg1
 10
7.560000
 20
14.920000
  0
SEQEND
  8
gg1
  0
POLYLINE
  8
gg1
 62
1
 40
0.000000
 41
0.000000
 66
  1
  0
VERTEX
  8
gg1
 10
7.380000
 20
15.060000
  0
VERTEX
  8
gg1
 10
7.400000
 20
15.000000
  0
VERTEX
  8
gg1
 10
7.420000
 20
15.060000
  0
SEQEND
  8
gg1
  0
POLYLINE
  8
gg1
 62
1
 40
0.000000
 41
0.000000
 66
  1
  0
VERTEX
  8
gg1
 10
7.400000
 20
16.400000
  0
VERTEX
  8
gg1
 10
7.420000
 20
16.340000
  0
SEQEND
  8
gg1
  0
POLYLINE
  8
gg1
 62
1
 40
0.000000
 41
0.000000
 66
  1
  0
VERTEX
  8
gg1
 10
7.380000
 20
16.340000
  0
VERTEX
  8
gg1
 10
7.400000
 20
16.400000
  0
SEQEND
  8
gg1
  0
POLYLINE
  8
gg1
 62
1
 40
0.000000
 41
0.000000
 66
  1
  0
VERTEX
  8
gg1
 10
7.400000
 20
15.000000
  0
VERTEX
  8
gg1
 10
7.400000
 20
15.488100
  0
SEQEND
  8
gg1
  0
POLYLINE
  8
gg1
 62
1
 40
0.000000
 41
0.000000
 66
  1
  0
VERTEX
  8
gg1
 10
7.400000
 20
15.879900
  0
VERTEX
  8
gg1
 10
7.400000
 20
16.400000
  0
SEQEND
  8
gg1
  0
POLYLINE
  8
gg1
 62
1
 40
0.000000
 41
0.000000
 66
  1
  0
VERTEX
  8
gg1
 10
7.390000
 20
15.000000
  0
VERTEX
  8
gg1
 10
7.487500
 20
15.000000
  0
SEQEND
  8
gg1
  0
POLYLINE
  8
gg1
 62
1
 40
0.000000
 41
0.000000
 66
  1
  0
VERTEX
  8
gg1
 10
7.390000
 20
16.400000
  0
VERTEX
  8
gg1
 10
7.487500
 20
16.400000
  0
SEQEND
  8
gg1
  0
POLYLINE
  8
gg1
 62
1
 40
0.000000
 41
0.000000
 66
  1
  0
VERTEX
  8
gg1
 10
7.500000
 20
15.000000
  0
VERTEX
  8
gg1
 10
7.500000
 20
16.400000
  0
VERTEX
  8
gg1
 10
8.700000
 20
16.400000
  0
SEQEND
  8
gg1
  0
POLYLINE
  8
gg1
 62
1
 40
0.000000
 41
0.000000
 66
  1
  0
VERTEX
  8
gg1
 10
8.700000
 20
15.000000
  0
VERTEX
  8
gg1
 10
8.700000
 20
16.400000
  0
SEQEND
  8
gg1
  0
POLYLINE
  8
gg1
 62
1
 40
0.000000
 41
0.000000
 66
  1
  0
VERTEX
  8
gg1
 10
7.500000
 20
15.000000
  0
VERTEX
  8
gg1
 10
8.700000
 20
15.000000
  0
SEQEND
  8
gg1
  0
POLYLINE
  8
gg1
 62
1
 40
0.000000
 41
0.000000
 66
  1
  0
VERTEX
  8
gg1
 10
7.920000
 20
15.750000
  0
VERTEX
  8
gg1
 10
7.960000
 20
15.750000
  0
SEQEND
  8
gg1
  0
POLYLINE
  8
gg1
 62
1
 40
0.000000
 41
0.000000
 66
  1
  0
VERTEX
  8
gg1
 10
7.940000
 20
15.730000
  0
VERTEX
  8
gg1
 10
7.940000
 20
15.770000
  0
SEQEND
  8
gg1
  0
POLYLINE
  8
gg1
 62
1
 40
0.000000
 41
0.000000
 66
  1
  0
VERTEX
  8
gg1
 10
7.920000
 20
15.650000
  0
VERTEX
  8
gg1
 10
7.960000
 20
15.650000
  0
SEQEND
  8
gg1
  0
POLYLINE
  8
gg1
 62
1
 40
0.000000
 41
0.000000
 66
  1
  0
VERTEX
  8
gg1
 10
7.940000
 20
15.630000
  0
VERTEX
  8
gg1
 10
7.940000
 20
15.670000
  0
SEQEND
  8
gg1
  0
POLYLINE
  8
gg1
 62
1
 40
0.000000
 41
0.000000
 66
  1
  0
VERTEX
  8
gg1
 10
8.620000
 20
15.900000
  0
VERTEX
  8
gg1
 10
8.660000
 20
15.900000
  0
SEQEND
  8
gg1
  0
POLYLINE
  8
gg1
 62
1
 40
0.000000
 41
0.000000
 66
  1
  0
VERTEX
  8
gg1
 10
8.640000
 20
15.880000
  0
VERTEX
  8
gg1
 10
8.640000
 20
15.920000
  0
SEQEND
  8
gg1
  0
POLYLINE
  8
gg1
 62
1
 40
0.000000
 41
0.000000
 66
  1
  0
VERTEX
  8
gg1
 10
8.620000
 20
15.800000
  0
VERTEX
  8
gg1
 10
8.660000
 20
15.800000
  0
SEQEND
  8
gg1
  0
POLYLINE
  8
gg1
 62
1
 40
0.000000
 41
0.000000
 66
  1
  0
VERTEX
  8
gg1
 10
8.640000
 20
15.780000
  0
VERTEX
  8
gg1
 10
8.640000
 20
15.820000
  0
SEQEND
  8
gg1
  0
POLYLINE
  8
gg1
 62
1
 40
0.000000
 41
0.000000
 66
  1
  0
VERTEX
  8
gg1
 10
8.620000
 20
15.700000
  0
VERTEX
  8
gg1
 10
8.660000
 20
15.700000
  0
SEQEND
  8
gg1
  0
POLYLINE
  8
gg1
 62
1
 40
0.000000
 41
0.000000
 66
  1
  0
VERTEX
  8
gg1
 10
8.640000
 20
15.680000
  0
VERTEX
  8
gg1
 10
8.640000
 20
15.720000
  0
SEQEND
  8
gg1
  0
POLYLINE
  8
gg1
 62
1
 40
0.000000
 41
0.000000
 66
  1
  0
VERTEX
  8
gg1
 10
8.620000
 20
15.600000
  0
VERTEX
  8
gg1
 10
8.660000
 20
15.600000
  0
SEQEND
  8
gg1
  0
POLYLINE
  8
gg1
 62
1
 40
0.000000
 41
0.000000
 66
  1
  0
VERTEX
  8
gg1
 10
8.640000
 20
15.580000
  0
VERTEX
  8
gg1
 10
8.640000
 20
15.620000
  0
SEQEND
  8
gg1
  0
POLYLINE
  8
gg1
 62
1
 40
0.000000
 41
0.000000
 66
  1
  0
VERTEX
  8
gg1
 10
8.620000
 20
15.500000
  0
VERTEX
  8
gg1
 10
8.660000
 20
15.500000
  0
SEQEND
  8
gg1
  0
POLYLINE
  8
gg1
 62
1
 40
0.000000
 41
0.000000
 66
  1
  0
VERTEX
  8
gg1
 10
8.640000
 20
15.480000
  0
VERTEX
  8
gg1
 10
8.640000
 20
15.520000
  0
SEQEND
  8
gg1
  0
POLYLINE
  8
gg1
 62
1
 40
0.000000
 41
0.000000
 66
  1
  0
VERTEX
  8
gg1
 10
7.745000
 20
15.800000
  0
VERTEX
  8
gg1
 10
7.795000
 20
15.800000
  0
SEQEND
  8
gg1
  0
POLYLINE
  8
gg1
 62
1
 40
0.000000
 41
0.000000
 66
  1
  0
VERTEX
  8
gg1
 10
7.770000
 20
15.775000
  0
VERTEX
  8
gg1
 10
7.770000
 20
15.825000
  0
SEQEND
  8
gg1
  0
POLYLINE
  8
gg1
 62
1
 40
0.000000
 41
0.000000
 66
  1
  0
VERTEX
  8
gg1
 10
7.745000
 20
15.600000
  0
VERTEX
  8
gg1
 10
7.795000
 20
15.600000
  0
SEQEND
  8
gg1
  0
POLYLINE
  8
gg1
 62
1
 40
0.000000
 41
0.000000
 66
  1
  0
VERTEX
  8
gg1
 10
7.770000
 20
15.575000
  0
VERTEX
  8
gg1
 10
7.770000
 20
15.625000
  0
SEQEND
  8
gg1
  0
POLYLINE
  8
gg1
 62
1
 40
0.000000
 41
0.000000
 66
  1
  0
VERTEX
  8
gg1
 10
7.825000
 20
15.770000
  0
VERTEX
  8
gg1
 10
7.875000
 20
15.770000
  0
SEQEND
  8
gg1
  0
POLYLINE
  8
gg1
 62
1
 40
0.000000
 41
0.000000
 66
  1
  0
VERTEX
  8
gg1
 10
7.850000
 20
15.745000
  0
VERTEX
  8
gg1
 10
7.850000
 20
15.795000
  0
SEQEND
  8
gg1
  0
POLYLINE
  8
gg1
 62
1
 40
0.000000
 41
0.000000
 66
  1
  0
VERTEX
  8
gg1
 10
7.825000
 20
15.630000
  0
VERTEX
  8
gg1
 10
7.875000
 20
15.630000
  0
SEQEND
  8
gg1
  0
POLYLINE
  8
gg1
 62
1
 40
0.000000
 41
0.000000
 66
  1
  0
VERTEX
  8
gg1
 10
7.850000
 20
15.605000
  0
VERTEX
  8
gg1
 10
7.850000
 20
15.655000
  0
SEQEND
  8
gg1
  0
POLYLINE
  8
gg1
 62
1
 40
0.000000
 41
0.000000
 66
  1
  0
VERTEX
  8
gg1
 10
7.587000
 20
16.202000
  0
VERTEX
  8
gg1
 10
7.713000
 20
16.202000
  0
SEQEND
  8
gg1
  0
POLYLINE
  8
gg1
 62
1
 40
0.000000
 41
0.000000
 66
  1
  0
VERTEX
  8
gg1
 10
7.650000
 20
16.139000
  0
VERTEX
  8
gg1
 10
7.650000
 20
16.265000
  0
SEQEND
  8
gg1
  0
POLYLINE
  8
gg1
 62
1
 40
0.000000
 41
0.000000
 66
  1
  0
VERTEX
  8
gg1
 10
7.587000
 20
15.867300
  0
VERTEX
  8
gg1
 10
7.713000
 20
15.867300
  0
SEQEND
  8
gg1
  0
POLYLINE
  8
gg1
 62
1
 40
0.000000
 41
0.000000
 66
  1
  0
VERTEX
  8
gg1
 10
7.650000
 20
15.804300
  0
VERTEX
  8
gg1
 10
7.650000
 20
15.930300
  0
SEQEND
  8
gg1
  0
POLYLINE
  8
gg1
 62
1
 40
0.000000
 41
0.000000
 66
  1
  0
VERTEX
  8
gg1
 10
7.587000
 20
15.532700
  0
VERTEX
  8
gg1
 10
7.713000
 20
15.532700
  0
SEQEND
  8
gg1
  0
POLYLINE
  8
gg1
 62
1
 40
0.000000
 41
0.000000
 66
  1
  0
VERTEX
  8
gg1
 10
7.650000
 20
15.469700
  0
VERTEX
  8
gg1
 10
7.650000
 20
15.595700
  0
SEQEND
  8
gg1
  0
POLYLINE
  8
gg1
 62
1
 40
0.000000
 41
0.000000
 66
  1
  0
VERTEX
  8
gg1
 10
7.587000
 20
15.198000
  0
VERTEX
  8
gg1
 10
7.713000
 20
15.198000
  0
SEQEND
  8
gg1
  0
POLYLINE
  8
gg1
 62
1
 40
0.000000
 41
0.000000
 66
  1
  0
VERTEX
  8
gg1
 10
7.650000
 20
15.135000
  0
VERTEX
  8
gg1
 10
7.650000
 20
15.261000
  0
SEQEND
  8
gg1
  0
POLYLINE
  8
gg1
 62
1
 40
0.000000
 41
0.000000
 66
  1
  0
VERTEX
  8
gg1
 10
7.820100
 20
16.133100
  0
VERTEX
  8
gg1
 10
8.079900
 20
16.133100
  0
SEQEND
  8
gg1
  0
POLYLINE
  8
gg1
 62
1
 40
0.000000
 41
0.000000
 66
  1
  0
VERTEX
  8
gg1
 10
7.950000
 20
16.003200
  0
VERTEX
  8
gg1
 10
7.950000
 20
16.263000
  0
SEQEND
  8
gg1
  0
POLYLINE
  8
gg1
 62
1
 40
0.000000
 41
0.000000
 66
  1
  0
VERTEX
  8
gg1
 10
8.487000
 20
15.150000
  0
VERTEX
  8
gg1
 10
8.613000
 20
15.150000
  0
SEQEND
  8
gg1
  0
POLYLINE
  8
gg1
 62
1
 40
0.000000
 41
0.000000
 66
  1
  0
VERTEX
  8
gg1
 10
8.550000
 20
15.087000
  0
VERTEX
  8
gg1
 10
8.550000
 20
15.213000
  0
SEQEND
  8
gg1
  0
POLYLINE
  8
gg1
 62
1
 40
0.000000
 41
0.000000
 66
  1
  0
VERTEX
  8
gg1
 10
8.487000
 20
16.250000
  0
VERTEX
  8
gg1
 10
8.613000
 20
16.250000
  0
SEQEND
  8
gg1
  0
POLYLINE
  8
gg1
 62
1
 40
0.000000
 41
0.000000
 66
  1
  0
VERTEX
  8
gg1
 10
8.550000
 20
16.187000
  0
VERTEX
  8
gg1
 10
8.550000
 20
16.313000
  0
SEQEND
  8
gg1
  0
POLYLINE
  8
gg1
 62
1
 40
0.000000
 41
0.000000
 66
  1
  0
VERTEX
  8
gg1
 10
7.820100
 20
15.266900
  0
VERTEX
  8
gg1
 10
8.079900
 20
15.266900
  0
SEQEND
  8
gg1
  0
POLYLINE
  8
gg1
 62
1
 40
0.000000
 41
0.000000
 66
  1
  0
VERTEX
  8
gg1
 10
7.950000
 20
15.137000
  0
VERTEX
  8
gg1
 10
7.950000
 20
15.396800
  0
SEQEND
  8
gg1
  0
POLYLINE
  8
gg1
 62
1
 40
0.000000
 41
0.000000
 66
  1
  0
VERTEX
  8
gg1
 10
7.904100
 20
14.864000
  0
VERTEX
  8
gg1
 10
7.924100
 20
14.864000
  0
VERTEX
  8
gg1
 10
7.914100
 20
14.864000
  0
VERTEX
  8
gg1
 10
7.914100
 20
14.924000
  0
VERTEX
  8
gg1
 10
7.904100
 20
14.914000
  0
SEQEND
  8
gg1
  0
POLYLINE
  8
gg1
 62
1
 40
0.000000
 41
0.000000
 66
  1
  0
VERTEX
  8
gg1
 10
7.994000
 20
14.864000
  0
VERTEX
  8
gg1
 10
7.954000
 20
14.864000
  0
VERTEX
  8
gg1
 10
7.994000
 20
14.904000
  0
VERTEX
  8
gg1
 10
7.994000
 20
14.914000
  0
VERTEX
  8
gg1
 10
7.984000
 20
14.924000
  0
VERTEX
  8
gg1
 10
7.964000
 20
14.924000
  0
VERTEX
  8
gg1
 10
7.954000
 20
14.914000
  0
SEQEND
  8
gg1
  0
POLYLINE
  8
gg1
 62
1
 40
0.000000
 41
0.000000
 66
  1
  0
VERTEX
  8
gg1
 10
8.014000
 20
14.914000
  0
VERTEX
  8
gg1
 10
8.024000
 20
14.924000
  0
VERTEX
  8
gg1
 10
8.044000
 20
14.924000
  0
VERTEX
  8
gg1
 10
8.054000
 20
14.914000
  0
VERTEX
  8
gg1
 10
8.054000
 20
14.874000
  0
VERTEX
  8
gg1
 10
8.044000
 20
14.864000
  0
VERTEX
  8
gg1
 10
8.024000
 20
14.864000
  0
VERTEX
  8
gg1
 10
8.014000
 20
14.874000
  0
VERTEX
  8
gg1
 10
8.014000
 20
14.914000
  0
SEQEND
  8
gg1
  0
POLYLINE
  8
gg1
 62
1
 40
0.000000
 41
0.000000
 66
  1
  0
VERTEX
  8
gg1
 10
8.074000
 20
14.914000
  0
VERTEX
  8
gg1
 10
8.084000
 20
14.924000
  0
VERTEX
  8
gg1
 10
8.104000
 20
14.924000
  0
VERTEX
  8
gg1
 10
8.114000
 20
14.914000
  0
VERTEX
  8
gg1
 10
8.114000
 20
14.874000
  0
VERTEX
  8
gg1
 10
8.104000
 20
14.864000
  0
VERTEX
  8
gg1
 10
8.084000
 20
14.864000
  0
VERTEX
  8
gg1
 10
8.074000
 20
14.874000
  0
VERTEX
  8
gg1
 10
8.074000
 20
14.914000
  0
SEQEND
  8
gg1
  0
POLYLINE
  8
gg1
 62
1
 40
0.000000
 41
0.000000
 66
  1
  0
VERTEX
  8
gg1
 10
8.134000
 20
14.864000
  0
VERTEX
  8
gg1
 10
8.134000
 20
14.904000
  0
VERTEX
  8
gg1
 10
8.144000
 20
14.904000
  0
VERTEX
  8
gg1
 10
8.154000
 20
14.894000
  0
VERTEX
  8
gg1
 10
8.154000
 20
14.864000
  0
VERTEX
  8
gg1
 10
8.154000
 20
14.894000
  0
VERTEX
  8
gg1
 10
8.164000
 20
14.904000
  0
VERTEX
  8
gg1
 10
8.174000
 20
14.894000
  0
VERTEX
  8
gg1
 10
8.174000
 20
14.864000
  0
SEQEND
  8
gg1
  0
POLYLINE
  8
gg1
 62
1
 40
0.000000
 41
0.000000
 66
  1
  0
VERTEX
  8
gg1
 10
8.194000
 20
14.864000
  0
VERTEX
  8
gg1
 10
8.214000
 20
14.864000
  0
VERTEX
  8
gg1
 10
8.204000
 20
14.864000
  0
VERTEX
  8
gg1
 10
8.204000
 20
14.904000
  0
VERTEX
  8
gg1
 10
8.194000
 20
14.904000
  0
SEQEND
  8
gg1
  0
POLYLINE
  8
gg1
 62
1
 40
0.000000
 41
0.000000
 66
  1
  0
VERTEX
  8
gg1
 10
8.243900
 20
14.864000
  0
VERTEX
  8
gg1
 10
8.263900
 20
14.864000
  0
VERTEX
  8
gg1
 10
8.253900
 20
14.864000
  0
VERTEX
  8
gg1
 10
8.253900
 20
14.924000
  0
VERTEX
  8
gg1
 10
8.243900
 20
14.924000
  0
SEQEND
  8
gg1
  0
POLYLINE
  8
gg1
 62
1
 40
0.000000
 41
0.000000
 66
  1
  0
VERTEX
  8
gg1
 10
7.436000
 20
15.504100
  0
VERTEX
  8
gg1
 10
7.436000
 20
15.524100
  0
VERTEX
  8
gg1
 10
7.436000
 20
15.514100
  0
VERTEX
  8
gg1
 10
7.376000
 20
15.514100
  0
VERTEX
  8
gg1
 10
7.386000
 20
15.504100
  0
SEQEND
  8
gg1
  0
POLYLINE
  8
gg1
 62
1
 40
0.000000
 41
0.000000
 66
  1
  0
VERTEX
  8
gg1
 10
7.436000
 20
15.584000
  0
VERTEX
  8
gg1
 10
7.376000
 20
15.584000
  0
VERTEX
  8
gg1
 10
7.406000
 20
15.554000
  0
VERTEX
  8
gg1
 10
7.406000
 20
15.594000
  0
SEQEND
  8
gg1
  0
POLYLINE
  8
gg1
 62
1
 40
0.000000
 41
0.000000
 66
  1
  0
VERTEX
  8
gg1
 10
7.386000
 20
15.614000
  0
VERTEX
  8
gg1
 10
7.376000
 20
15.624000
  0
VERTEX
  8
gg1
 10
7.376000
 20
15.644000
  0
VERTEX
  8
gg1
 10
7.386000
 20
15.654000
  0
VERTEX
  8
gg1
 10
7.426000
 20
15.654000
  0
VERTEX
  8
gg1
 10
7.436000
 20
15.644000
  0
VERTEX
  8
gg1
 10
7.436000
 20
15.624000
  0
VERTEX
  8
gg1
 10
7.426000
 20
15.614000
  0
VERTEX
  8
gg1
 10
7.386000
 20
15.614000
  0
SEQEND
  8
gg1
  0
POLYLINE
  8
gg1
 62
1
 40
0.000000
 41
0.000000
 66
  1
  0
VERTEX
  8
gg1
 10
7.386000
 20
15.674000
  0
VERTEX
  8
gg1
 10
7.376000
 20
15.684000
  0
VERTEX
  8
gg1
 10
7.376000
 20
15.704000
  0
VERTEX
  8
gg1
 10
7.386000
 20
15.714000
  0
VERTEX
  8
gg1
 10
7.426000
 20
15.714000
  0
VERTEX
  8
gg1
 10
7.436000
 20
15.704000
  0
VERTEX
  8
gg1
 10
7.436000
 20
15.684000
  0
VERTEX
  8
gg1
 10
7.426000
 20
15.674000
  0
VERTEX
  8
gg1
 10
7.386000
 20
15.674000
  0
SEQEND
  8
gg1
  0
POLYLINE
  8
gg1
 62
1
 40
0.000000
 41
0.000000
 66
  1
  0
VERTEX
  8
gg1
 10
7.436000
 20
15.734000
  0
VERTEX
  8
gg1
 10
7.396000
 20
15.734000
  0
VERTEX
  8
gg1
 10
7.396000
 20
15.744000
  0
VERTEX
  8
gg1
 10
7.406000
 20
15.754000
  0
VERTEX
  8
gg1
 10
7.436000
 20
15.754000
  0
VERTEX
  8
gg1
 10
7.406000
 20
15.754000
  0
VERTEX
  8
gg1
 10
7.396000
 20
15.764000
  0
VERTEX
  8
gg1
 10
7.406000
 20
15.774000
  0
VERTEX
  8
gg1
 10
7.436000
 20
15.774000
  0
SEQEND
  8
gg1
  0
POLYLINE
  8
gg1
 62
1
 40
0.000000
 41
0.000000
 66
  1
  0
VERTEX
  8
gg1
 10
7.436000
 20
15.794000
  0
VERTEX
  8
gg1
 10
7.436000
 20
15.814000
  0
VERTEX
  8
gg1
 10
7.436000
 20
15.804000
  0
VERTEX
  8
gg1
 10
7.396000
 20
15.804000
  0
VERTEX
  8
gg1
 10
7.396000
 20
15.794000
  0
SEQEND
  8
gg1
  0
POLYLINE
  8
gg1
 62
1
 40
0.000000
 41
0.000000
 66
  1
  0
VERTEX
  8
gg1
 10
7.436000
 20
15.843900
  0
VERTEX
  8
gg1
 10
7.436000
 20
15.863900
  0
VERTEX
  8
gg1
 10
7.436000
 20
15.853900
  0
VERTEX
  8
gg1
 10
7.376000
 20
15.853900
  0
VERTEX
  8
gg1
 10
7.376000
 20
15.843900
  0
SEQEND
  8
gg1
  0
ENDSEC
  0
EOF
