  0
SECTION
  2
HEADER
  9
$EXTMIN
 10
-0.127000
 20
-0.139000
  9
$EXTMAX
 10
1.205000
 20
1.405000
  9
$LIMMIN
 10
-0.127000
 20
-0.139000
  9
$LIMMAX
 10
1.205000
 20
1.405000
  9
$FILLMODE
 70
  1
  0
ENDSEC
  0
SECTION
  2
TABLES
  0
TABLE
  2
LTYPE
 70
  1
  0
LTYPE
  2
CONTINUOUS
 70
 64
  3
Solid line
 72
 65
 73
  0
 40
0.0
  0
ENDTAB
  0
TABLE
  2
LAYER
 70
 1
  0
LAYER
  2
0
 70
  0
 62
7
  6
CONTINUOUS
  0
LAYER
  2
gg1
 70
  0
 62
1
  6
CONTINUOUS
  0
ENDTAB
  0
TABLE
  2
STYLE
 70
  1
  0
STYLE
  2
STANDARD
 70
  0
 40
0.0
 41
1.0
 50
0.0
 71
  0
 42
0.2
  3
txt
  4

  0
ENDTAB
  0
ENDSEC
  0
SECTION
  2
BLOCKS
  0
BLOCK
  8
0
  2
D10
 70
64
 10
0.0
 20
0.0
  3
D10
  0
CIRCLE
  8
0
 10
0.000000
 20
0.000000
 40
0.004000
 0
ENDBLK
  8
0
  0
BLOCK
  8
0
  2
D11
 70
64
 10
0.0
 20
0.0
  3
D11
  0
CIRCLE
  8
0
 10
0.000000
 20
0.000000
 40
0.005000
 0
ENDBLK
  8
0
  0
BLOCK
  8
0
  2
D12
 70
64
 10
0.0
 20
0.0
  3
D12
  0
CIRCLE
  8
0
 10
0.000000
 20
0.000000
 40
0.003000
 0
ENDBLK
  8
0
  0
BLOCK
  8
0
  2
D13
 70
64
 10
0.0
 20
0.0
  3
D13
  0
CIRCLE
  8
0
 10
0.000000
 20
0.000000
 40
0.002500
 0
ENDBLK
  8
0
  0
ENDSEC
  0
SECTION
  2
ENTITIES
  0
POLYLINE
  8
gg1
 62
1
 40
0.000000
 41
0.000000
 66
  1
  0
VERTEX
  8
gg1
 10
0.000000
 20
0.000000
  0
VERTEX
  8
gg1
 10
0.000000
 20
1.400000
  0
VERTEX
  8
gg1
 10
1.200000
 20
1.400000
  0
SEQEND
  8
gg1
  0
POLYLINE
  8
gg1
 62
1
 40
0.000000
 41
0.000000
 66
  1
  0
VERTEX
  8
gg1
 10
1.200000
 20
0.000000
  0
VERTEX
  8
gg1
 10
1.200000
 20
1.400000
  0
SEQEND
  8
gg1
  0
POLYLINE
  8
gg1
 62
1
 40
0.000000
 41
0.000000
 66
  1
  0
VERTEX
  8
gg1
 10
0.000000
 20
0.000000
  0
VERTEX
  8
gg1
 10
1.200000
 20
0.000000
  0
SEQEND
  8
gg1
  0
POLYLINE
  8
gg1
 62
1
 40
0.000000
 41
0.000000
 66
  1
  0
VERTEX
  8
gg1
 10
-0.120000
 20
0.060000
  0
VERTEX
  8
gg1
 10
-0.100000
 20
0.000000
  0
VERTEX
  8
gg1
 10
-0.080000
 20
0.060000
  0
SEQEND
  8
gg1
  0
POLYLINE
  8
gg1
 62
1
 40
0.000000
 41
0.000000
 66
  1
  0
VERTEX
  8
gg1
 10
-0.100000
 20
1.400000
  0
VERTEX
  8
gg1
 10
-0.080000
 20
1.340000
  0
SEQEND
  8
gg1
  0
POLYLINE
  8
gg1
 62
1
 40
0.000000
 41
0.000000
 66
  1
  0
VERTEX
  8
gg1
 10
-0.120000
 20
1.340000
  0
VERTEX
  8
gg1
 10
-0.100000
 20
1.400000
  0
SEQEND
  8
gg1
  0
POLYLINE
  8
gg1
 62
1
 40
0.000000
 41
0.000000
 66
  1
  0
VERTEX
  8
gg1
 10
-0.100000
 20
0.000000
  0
VERTEX
  8
gg1
 10
-0.100000
 20
0.488100
  0
SEQEND
  8
gg1
  0
POLYLINE
  8
gg1
 62
1
 40
0.000000
 41
0.000000
 66
  1
  0
VERTEX
  8
gg1
 10
-0.100000
 20
0.879900
  0
VERTEX
  8
gg1
 10
-0.100000
 20
1.400000
  0
SEQEND
  8
gg1
  0
POLYLINE
  8
gg1
 62
1
 40
0.000000
 41
0.000000
 66
  1
  0
VERTEX
  8
gg1
 10
-0.110000
 20
0.000000
  0
VERTEX
  8
gg1
 10
-0.014000
 20
0.000000
  0
SEQEND
  8
gg1
  0
POLYLINE
  8
gg1
 62
1
 40
0.000000
 41
0.000000
 66
  1
  0
VERTEX
  8
gg1
 10
-0.110000
 20
1.400000
  0
VERTEX
  8
gg1
 10
-0.014000
 20
1.400000
  0
SEQEND
  8
gg1
  0
POLYLINE
  8
gg1
 62
1
 40
0.000000
 41
0.000000
 66
  1
  0
VERTEX
  8
gg1
 10
0.000000
 20
-0.100000
  0
VERTEX
  8
gg1
 10
0.060000
 20
-0.080000
  0
SEQEND
  8
gg1
  0
POLYLINE
  8
gg1
 62
1
 40
0.000000
 41
0.000000
 66
  1
  0
VERTEX
  8
gg1
 10
0.000000
 20
-0.100000
  0
VERTEX
  8
gg1
 10
0.060000
 20
-0.120000
  0
SEQEND
  8
gg1
  0
POLYLINE
  8
gg1
 62
1
 40
0.000000
 41
0.000000
 66
  1
  0
VERTEX
  8
gg1
 10
1.140000
 20
-0.120000
  0
VERTEX
  8
gg1
 10
1.200000
 20
-0.100000
  0
SEQEND
  8
gg1
  0
POLYLINE
  8
gg1
 62
1
 40
0.000000
 41
0.000000
 66
  1
  0
VERTEX
  8
gg1
 10
1.140000
 20
-0.080000
  0
VERTEX
  8
gg1
 10
1.200000
 20
-0.100000
  0
SEQEND
  8
gg1
  0
POLYLINE
  8
gg1
 62
1
 40
0.000000
 41
0.000000
 66
  1
  0
VERTEX
  8
gg1
 10
0.000000
 20
-0.100000
  0
VERTEX
  8
gg1
 10
0.388100
 20
-0.100000
  0
SEQEND
  8
gg1
  0
POLYLINE
  8
gg1
 62
1
 40
0.000000
 41
0.000000
 66
  1
  0
VERTEX
  8
gg1
 10
0.779900
 20
-0.100000
  0
VERTEX
  8
gg1
 10
1.200000
 20
-0.100000
  0
SEQEND
  8
gg1
  0
POLYLINE
  8
gg1
 62
1
 40
0.000000
 41
0.000000
 66
  1
  0
VERTEX
  8
gg1
 10
0.000000
 20
-0.110000
  0
VERTEX
  8
gg1
 10
0.000000
 20
-0.014000
  0
SEQEND
  8
gg1
  0
POLYLINE
  8
gg1
 62
1
 40
0.000000
 41
0.000000
 66
  1
  0
VERTEX
  8
gg1
 10
1.200000
 20
-0.110000
  0
VERTEX
  8
gg1
 10
1.200000
 20
-0.014000
  0
SEQEND
  8
gg1
  0
POLYLINE
  8
gg1
 62
1
 40
0.000000
 41
0.000000
 66
  1
  0
VERTEX
  8
gg1
 10
-0.064000
 20
0.504100
  0
VERTEX
  8
gg1
 10
-0.064000
 20
0.524100
  0
VERTEX
  8
gg1
 10
-0.064000
 20
0.514100
  0
VERTEX
  8
gg1
 10
-0.124000
 20
0.514100
  0
VERTEX
  8
gg1
 10
-0.114000
 20
0.504100
  0
SEQEND
  8
gg1
  0
POLYLINE
  8
gg1
 62
1
 40
0.000000
 41
0.000000
 66
  1
  0
VERTEX
  8
gg1
 10
-0.064000
 20
0.584000
  0
VERTEX
  8
gg1
 10
-0.124000
 20
0.584000
  0
VERTEX
  8
gg1
 10
-0.094000
 20
0.554000
  0
VERTEX
  8
gg1
 10
-0.094000
 20
0.594000
  0
SEQEND
  8
gg1
  0
POLYLINE
  8
gg1
 62
1
 40
0.000000
 41
0.000000
 66
  1
  0
VERTEX
  8
gg1
 10
-0.114000
 20
0.614000
  0
VERTEX
  8
gg1
 10
-0.124000
 20
0.624000
  0
VERTEX
  8
gg1
 10
-0.124000
 20
0.644000
  0
VERTEX
  8
gg1
 10
-0.114000
 20
0.654000
  0
VERTEX
  8
gg1
 10
-0.074000
 20
0.654000
  0
VERTEX
  8
gg1
 10
-0.064000
 20
0.644000
  0
VERTEX
  8
gg1
 10
-0.064000
 20
0.624000
  0
VERTEX
  8
gg1
 10
-0.074000
 20
0.614000
  0
VERTEX
  8
gg1
 10
-0.114000
 20
0.614000
  0
SEQEND
  8
gg1
  0
POLYLINE
  8
gg1
 62
1
 40
0.000000
 41
0.000000
 66
  1
  0
VERTEX
  8
gg1
 10
-0.114000
 20
0.674000
  0
VERTEX
  8
gg1
 10
-0.124000
 20
0.684000
  0
VERTEX
  8
gg1
 10
-0.124000
 20
0.704000
  0
VERTEX
  8
gg1
 10
-0.114000
 20
0.714000
  0
VERTEX
  8
gg1
 10
-0.074000
 20
0.714000
  0
VERTEX
  8
gg1
 10
-0.064000
 20
0.704000
  0
VERTEX
  8
gg1
 10
-0.064000
 20
0.684000
  0
VERTEX
  8
gg1
 10
-0.074000
 20
0.674000
  0
VERTEX
  8
gg1
 10
-0.114000
 20
0.674000
  0
SEQEND
  8
gg1
  0
POLYLINE
  8
gg1
 62
1
 40
0.000000
 41
0.000000
 66
  1
  0
VERTEX
  8
gg1
 10
-0.064000
 20
0.734000
  0
VERTEX
  8
gg1
 10
-0.104000
 20
0.734000
  0
VERTEX
  8
gg1
 10
-0.104000
 20
0.744000
  0
VERTEX
  8
gg1
 10
-0.094000
 20
0.754000
  0
VERTEX
  8
gg1
 10
-0.064000
 20
0.754000
  0
VERTEX
  8
gg1
 10
-0.094000
 20
0.754000
  0
VERTEX
  8
gg1
 10
-0.104000
 20
0.764000
  0
VERTEX
  8
gg1
 10
-0.094000
 20
0.774000
  0
VERTEX
  8
gg1
 10
-0.064000
 20
0.774000
  0
SEQEND
  8
gg1
  0
POLYLINE
  8
gg1
 62
1
 40
0.000000
 41
0.000000
 66
  1
  0
VERTEX
  8
gg1
 10
-0.064000
 20
0.794000
  0
VERTEX
  8
gg1
 10
-0.064000
 20
0.814000
  0
VERTEX
  8
gg1
 10
-0.064000
 20
0.804000
  0
VERTEX
  8
gg1
 10
-0.104000
 20
0.804000
  0
VERTEX
  8
gg1
 10
-0.104000
 20
0.794000
  0
SEQEND
  8
gg1
  0
POLYLINE
  8
gg1
 62
1
 40
0.000000
 41
0.000000
 66
  1
  0
VERTEX
  8
gg1
 10
-0.064000
 20
0.843900
  0
VERTEX
  8
gg1
 10
-0.064000
 20
0.863900
  0
VERTEX
  8
gg1
 10
-0.064000
 20
0.853900
  0
VERTEX
  8
gg1
 10
-0.124000
 20
0.853900
  0
VERTEX
  8
gg1
 10
-0.124000
 20
0.843900
  0
SEQEND
  8
gg1
  0
POLYLINE
  8
gg1
 62
1
 40
0.000000
 41
0.000000
 66
  1
  0
VERTEX
  8
gg1
 10
0.404100
 20
-0.136000
  0
VERTEX
  8
gg1
 10
0.424100
 20
-0.136000
  0
VERTEX
  8
gg1
 10
0.414100
 20
-0.136000
  0
VERTEX
  8
gg1
 10
0.414100
 20
-0.076000
  0
VERTEX
  8
gg1
 10
0.404100
 20
-0.086000
  0
SEQEND
  8
gg1
  0
POLYLINE
  8
gg1
 62
1
 40
0.000000
 41
0.000000
 66
  1
  0
VERTEX
  8
gg1
 10
0.494000
 20
-0.136000
  0
VERTEX
  8
gg1
 10
0.454000
 20
-0.136000
  0
VERTEX
  8
gg1
 10
0.494000
 20
-0.096000
  0
VERTEX
  8
gg1
 10
0.494000
 20
-0.086000
  0
VERTEX
  8
gg1
 10
0.484000
 20
-0.076000
  0
VERTEX
  8
gg1
 10
0.464000
 20
-0.076000
  0
VERTEX
  8
gg1
 10
0.454000
 20
-0.086000
  0
SEQEND
  8
gg1
  0
POLYLINE
  8
gg1
 62
1
 40
0.000000
 41
0.000000
 66
  1
  0
VERTEX
  8
gg1
 10
0.514000
 20
-0.086000
  0
VERTEX
  8
gg1
 10
0.524000
 20
-0.076000
  0
VERTEX
  8
gg1
 10
0.544000
 20
-0.076000
  0
VERTEX
  8
gg1
 10
0.554000
 20
-0.086000
  0
VERTEX
  8
gg1
 10
0.554000
 20
-0.126000
  0
VERTEX
  8
gg1
 10
0.544000
 20
-0.136000
  0
VERTEX
  8
gg1
 10
0.524000
 20
-0.136000
  0
VERTEX
  8
gg1
 10
0.514000
 20
-0.126000
  0
VERTEX
  8
gg1
 10
0.514000
 20
-0.086000
  0
SEQEND
  8
gg1
  0
POLYLINE
  8
gg1
 62
1
 40
0.000000
 41
0.000000
 66
  1
  0
VERTEX
  8
gg1
 10
0.574000
 20
-0.086000
  0
VERTEX
  8
gg1
 10
0.584000
 20
-0.076000
  0
VERTEX
  8
gg1
 10
0.604000
 20
-0.076000
  0
VERTEX
  8
gg1
 10
0.614000
 20
-0.086000
  0
VERTEX
  8
gg1
 10
0.614000
 20
-0.126000
  0
VERTEX
  8
gg1
 10
0.604000
 20
-0.136000
  0
VERTEX
  8
gg1
 10
0.584000
 20
-0.136000
  0
VERTEX
  8
gg1
 10
0.574000
 20
-0.126000
  0
VERTEX
  8
gg1
 10
0.574000
 20
-0.086000
  0
SEQEND
  8
gg1
  0
POLYLINE
  8
gg1
 62
1
 40
0.000000
 41
0.000000
 66
  1
  0
VERTEX
  8
gg1
 10
0.634000
 20
-0.136000
  0
VERTEX
  8
gg1
 10
0.634000
 20
-0.096000
  0
VERTEX
  8
gg1
 10
0.644000
 20
-0.096000
  0
VERTEX
  8
gg1
 10
0.654000
 20
-0.106000
  0
VERTEX
  8
gg1
 10
0.654000
 20
-0.136000
  0
VERTEX
  8
gg1
 10
0.654000
 20
-0.106000
  0
VERTEX
  8
gg1
 10
0.664000
 20
-0.096000
  0
VERTEX
  8
gg1
 10
0.674000
 20
-0.106000
  0
VERTEX
  8
gg1
 10
0.674000
 20
-0.136000
  0
SEQEND
  8
gg1
  0
POLYLINE
  8
gg1
 62
1
 40
0.000000
 41
0.000000
 66
  1
  0
VERTEX
  8
gg1
 10
0.694000
 20
-0.136000
  0
VERTEX
  8
gg1
 10
0.714000
 20
-0.136000
  0
VERTEX
  8
gg1
 10
0.704000
 20
-0.136000
  0
VERTEX
  8
gg1
 10
0.704000
 20
-0.096000
  0
VERTEX
  8
gg1
 10
0.694000
 20
-0.096000
  0
SEQEND
  8
gg1
  0
POLYLINE
  8
gg1
 62
1
 40
0.000000
 41
0.000000
 66
  1
  0
VERTEX
  8
gg1
 10
0.743900
 20
-0.136000
  0
VERTEX
  8
gg1
 10
0.763900
 20
-0.136000
  0
VERTEX
  8
gg1
 10
0.753900
 20
-0.136000
  0
VERTEX
  8
gg1
 10
0.753900
 20
-0.076000
  0
VERTEX
  8
gg1
 10
0.743900
 20
-0.076000
  0
SEQEND
  8
gg1
  0
POLYLINE
  8
gg1
 62
1
 40
0.000000
 41
0.000000
 66
  1
  0
VERTEX
  8
gg1
 10
0.620000
 20
0.750000
  0
VERTEX
  8
gg1
 10
0.660000
 20
0.750000
  0
SEQEND
  8
gg1
  0
POLYLINE
  8
gg1
 62
1
 40
0.000000
 41
0.000000
 66
  1
  0
VERTEX
  8
gg1
 10
0.640000
 20
0.730000
  0
VERTEX
  8
gg1
 10
0.640000
 20
0.770000
  0
SEQEND
  8
gg1
  0
POLYLINE
  8
gg1
 62
1
 40
0.000000
 41
0.000000
 66
  1
  0
VERTEX
  8
gg1
 10
0.620000
 20
0.650000
  0
VERTEX
  8
gg1
 10
0.660000
 20
0.650000
  0
SEQEND
  8
gg1
  0
POLYLINE
  8
gg1
 62
1
 40
0.000000
 41
0.000000
 66
  1
  0
VERTEX
  8
gg1
 10
0.640000
 20
0.630000
  0
VERTEX
  8
gg1
 10
0.640000
 20
0.670000
  0
SEQEND
  8
gg1
  0
POLYLINE
  8
gg1
 62
1
 40
0.000000
 41
0.000000
 66
  1
  0
VERTEX
  8
gg1
 10
0.087000
 20
0.198000
  0
VERTEX
  8
gg1
 10
0.213000
 20
0.198000
  0
SEQEND
  8
gg1
  0
POLYLINE
  8
gg1
 62
1
 40
0.000000
 41
0.000000
 66
  1
  0
VERTEX
  8
gg1
 10
0.150000
 20
0.135000
  0
VERTEX
  8
gg1
 10
0.150000
 20
0.261000
  0
SEQEND
  8
gg1
  0
POLYLINE
  8
gg1
 62
1
 40
0.000000
 41
0.000000
 66
  1
  0
VERTEX
  8
gg1
 10
0.087000
 20
0.532700
  0
VERTEX
  8
gg1
 10
0.213000
 20
0.532700
  0
SEQEND
  8
gg1
  0
POLYLINE
  8
gg1
 62
1
 40
0.000000
 41
0.000000
 66
  1
  0
VERTEX
  8
gg1
 10
0.150000
 20
0.469700
  0
VERTEX
  8
gg1
 10
0.150000
 20
0.595700
  0
SEQEND
  8
gg1
  0
POLYLINE
  8
gg1
 62
1
 40
0.000000
 41
0.000000
 66
  1
  0
VERTEX
  8
gg1
 10
0.087000
 20
0.867300
  0
VERTEX
  8
gg1
 10
0.213000
 20
0.867300
  0
SEQEND
  8
gg1
  0
POLYLINE
  8
gg1
 62
1
 40
0.000000
 41
0.000000
 66
  1
  0
VERTEX
  8
gg1
 10
0.150000
 20
0.804300
  0
VERTEX
  8
gg1
 10
0.150000
 20
0.930300
  0
SEQEND
  8
gg1
  0
POLYLINE
  8
gg1
 62
1
 40
0.000000
 41
0.000000
 66
  1
  0
VERTEX
  8
gg1
 10
0.087000
 20
1.202000
  0
VERTEX
  8
gg1
 10
0.213000
 20
1.202000
  0
SEQEND
  8
gg1
  0
POLYLINE
  8
gg1
 62
1
 40
0.000000
 41
0.000000
 66
  1
  0
VERTEX
  8
gg1
 10
0.150000
 20
1.139000
  0
VERTEX
  8
gg1
 10
0.150000
 20
1.265000
  0
SEQEND
  8
gg1
  0
POLYLINE
  8
gg1
 62
1
 40
0.000000
 41
0.000000
 66
  1
  0
VERTEX
  8
gg1
 10
0.284600
 20
0.306300
  0
VERTEX
  8
gg1
 10
0.615400
 20
0.306300
  0
SEQEND
  8
gg1
  0
POLYLINE
  8
gg1
 62
1
 40
0.000000
 41
0.000000
 66
  1
  0
VERTEX
  8
gg1
 10
0.450000
 20
0.140900
  0
VERTEX
  8
gg1
 10
0.450000
 20
0.471700
  0
SEQEND
  8
gg1
  0
POLYLINE
  8
gg1
 62
1
 40
0.000000
 41
0.000000
 66
  1
  0
VERTEX
  8
gg1
 10
0.987000
 20
1.250000
  0
VERTEX
  8
gg1
 10
1.113000
 20
1.250000
  0
SEQEND
  8
gg1
  0
POLYLINE
  8
gg1
 62
1
 40
0.000000
 41
0.000000
 66
  1
  0
VERTEX
  8
gg1
 10
1.050000
 20
1.187000
  0
VERTEX
  8
gg1
 10
1.050000
 20
1.313000
  0
SEQEND
  8
gg1
  0
POLYLINE
  8
gg1
 62
1
 40
0.000000
 41
0.000000
 66
  1
  0
VERTEX
  8
gg1
 10
0.525000
 20
0.630000
  0
VERTEX
  8
gg1
 10
0.575000
 20
0.630000
  0
SEQEND
  8
gg1
  0
POLYLINE
  8
gg1
 62
1
 40
0.000000
 41
0.000000
 66
  1
  0
VERTEX
  8
gg1
 10
0.550000
 20
0.605000
  0
VERTEX
  8
gg1
 10
0.550000
 20
0.655000
  0
SEQEND
  8
gg1
  0
POLYLINE
  8
gg1
 62
1
 40
0.000000
 41
0.000000
 66
  1
  0
VERTEX
  8
gg1
 10
0.525000
 20
0.770000
  0
VERTEX
  8
gg1
 10
0.575000
 20
0.770000
  0
SEQEND
  8
gg1
  0
POLYLINE
  8
gg1
 62
1
 40
0.000000
 41
0.000000
 66
  1
  0
VERTEX
  8
gg1
 10
0.550000
 20
0.745000
  0
VERTEX
  8
gg1
 10
0.550000
 20
0.795000
  0
SEQEND
  8
gg1
  0
POLYLINE
  8
gg1
 62
1
 40
0.000000
 41
0.000000
 66
  1
  0
VERTEX
  8
gg1
 10
0.445000
 20
0.600000
  0
VERTEX
  8
gg1
 10
0.495000
 20
0.600000
  0
SEQEND
  8
gg1
  0
POLYLINE
  8
gg1
 62
1
 40
0.000000
 41
0.000000
 66
  1
  0
VERTEX
  8
gg1
 10
0.470000
 20
0.575000
  0
VERTEX
  8
gg1
 10
0.470000
 20
0.625000
  0
SEQEND
  8
gg1
  0
POLYLINE
  8
gg1
 62
1
 40
0.000000
 41
0.000000
 66
  1
  0
VERTEX
  8
gg1
 10
0.445000
 20
0.800000
  0
VERTEX
  8
gg1
 10
0.495000
 20
0.800000
  0
SEQEND
  8
gg1
  0
POLYLINE
  8
gg1
 62
1
 40
0.000000
 41
0.000000
 66
  1
  0
VERTEX
  8
gg1
 10
0.470000
 20
0.775000
  0
VERTEX
  8
gg1
 10
0.470000
 20
0.825000
  0
SEQEND
  8
gg1
  0
POLYLINE
  8
gg1
 62
1
 40
0.000000
 41
0.000000
 66
  1
  0
VERTEX
  8
gg1
 10
0.987000
 20
0.150000
  0
VERTEX
  8
gg1
 10
1.113000
 20
0.150000
  0
SEQEND
  8
gg1
  0
POLYLINE
  8
gg1
 62
1
 40
0.000000
 41
0.000000
 66
  1
  0
VERTEX
  8
gg1
 10
1.050000
 20
0.087000
  0
VERTEX
  8
gg1
 10
1.050000
 20
0.213000
  0
SEQEND
  8
gg1
  0
POLYLINE
  8
gg1
 62
1
 40
0.000000
 41
0.000000
 66
  1
  0
VERTEX
  8
gg1
 10
1.120000
 20
0.600000
  0
VERTEX
  8
gg1
 10
1.160000
 20
0.600000
  0
SEQEND
  8
gg1
  0
POLYLINE
  8
gg1
 62
1
 40
0.000000
 41
0.000000
 66
  1
  0
VERTEX
  8
gg1
 10
1.140000
 20
0.580000
  0
VERTEX
  8
gg1
 10
1.140000
 20
0.620000
  0
SEQEND
  8
gg1
  0
POLYLINE
  8
gg1
 62
1
 40
0.000000
 41
0.000000
 66
  1
  0
VERTEX
  8
gg1
 10
1.120000
 20
0.700000
  0
VERTEX
  8
gg1
 10
1.160000
 20
0.700000
  0
SEQEND
  8
gg1
  0
POLYLINE
  8
gg1
 62
1
 40
0.000000
 41
0.000000
 66
  1
  0
VERTEX
  8
gg1
 10
1.140000
 20
0.680000
  0
VERTEX
  8
gg1
 10
1.140000
 20
0.720000
  0
SEQEND
  8
gg1
  0
POLYLINE
  8
gg1
 62
1
 40
0.000000
 41
0.000000
 66
  1
  0
VERTEX
  8
gg1
 10
1.120000
 20
0.800000
  0
VERTEX
  8
gg1
 10
1.160000
 20
0.800000
  0
SEQEND
  8
gg1
  0
POLYLINE
  8
gg1
 62
1
 40
0.000000
 41
0.000000
 66
  1
  0
VERTEX
  8
gg1
 10
1.140000
 20
0.780000
  0
VERTEX
  8
gg1
 10
1.140000
 20
0.820000
  0
SEQEND
  8
gg1
  0
POLYLINE
  8
gg1
 62
1
 40
0.000000
 41
0.000000
 66
  1
  0
VERTEX
  8
gg1
 10
0.284600
 20
1.093700
  0
VERTEX
  8
gg1
 10
0.615400
 20
1.093700
  0
SEQEND
  8
gg1
  0
POLYLINE
  8
gg1
 62
1
 40
0.000000
 41
0.000000
 66
  1
  0
VERTEX
  8
gg1
 10
0.450000
 20
0.928300
  0
VERTEX
  8
gg1
 10
0.450000
 20
1.259100
  0
SEQEND
  8
gg1
  0
ENDSEC
  0
EOF
