  0
SECTION
  2
HEADER
  9
$EXTMIN
 10
0.398000
 20
-0.804000
  9
$EXTMAX
 10
1.305000
 20
0.015000
  9
$LIMMIN
 10
0.398000
 20
-0.804000
  9
$LIMMAX
 10
1.305000
 20
0.015000
  9
$FILLMODE
 70
  1
  0
ENDSEC
  0
SECTION
  2
TABLES
  0
TABLE
  2
LTYPE
 70
  1
  0
LTYPE
  2
CONTINUOUS
 70
 64
  3
Solid line
 72
 65
 73
  0
 40
0.0
  0
ENDTAB
  0
TABLE
  2
LAYER
 70
 1
  0
LAYER
  2
0
 70
  0
 62
7
  6
CONTINUOUS
  0
LAYER
  2
gg1
 70
  0
 62
1
  6
CONTINUOUS
  0
ENDTAB
  0
TABLE
  2
STYLE
 70
  1
  0
STYLE
  2
STANDARD
 70
  0
 40
0.0
 41
1.0
 50
0.0
 71
  0
 42
0.2
  3
txt
  4

  0
ENDTAB
  0
ENDSEC
  0
SECTION
  2
BLOCKS
  0
BLOCK
  8
0
  2
D10
 70
64
 10
0.0
 20
0.0
  3
D10
  0
CIRCLE
  8
0
 10
0.000000
 20
0.000000
 40
0.004000
 0
ENDBLK
  8
0
  0
BLOCK
  8
0
  2
D11
 70
64
 10
0.0
 20
0.0
  3
D11
  0
CIRCLE
  8
0
 10
0.000000
 20
0.000000
 40
0.005000
 0
ENDBLK
  8
0
  0
BLOCK
  8
0
  2
D12
 70
64
 10
0.0
 20
0.0
  3
D12
  0
CIRCLE
  8
0
 10
0.000000
 20
0.000000
 40
0.003000
 0
ENDBLK
  8
0
  0
BLOCK
  8
0
  2
D13
 70
64
 10
0.0
 20
0.0
  3
D13
  0
CIRCLE
  8
0
 10
0.000000
 20
0.000000
 40
0.002500
 0
ENDBLK
  8
0
  0
ENDSEC
  0
SECTION
  2
ENTITIES
  0
POLYLINE
  8
gg1
 62
1
 40
0.000000
 41
0.000000
 66
  1
  0
VERTEX
  8
gg1
 10
0.500000
 20
-0.690000
  0
VERTEX
  8
gg1
 10
0.500000
 20
0.010000
  0
VERTEX
  8
gg1
 10
1.300000
 20
0.010000
  0
SEQEND
  8
gg1
  0
POLYLINE
  8
gg1
 62
1
 40
0.000000
 41
0.000000
 66
  1
  0
VERTEX
  8
gg1
 10
1.300000
 20
-0.690000
  0
VERTEX
  8
gg1
 10
1.300000
 20
0.010000
  0
SEQEND
  8
gg1
  0
POLYLINE
  8
gg1
 62
1
 40
0.000000
 41
0.000000
 66
  1
  0
VERTEX
  8
gg1
 10
0.500000
 20
-0.690000
  0
VERTEX
  8
gg1
 10
1.300000
 20
-0.690000
  0
SEQEND
  8
gg1
  0
POLYLINE
  8
gg1
 62
1
 40
0.000000
 41
0.000000
 66
  1
  0
VERTEX
  8
gg1
 10
0.405000
 20
-0.630000
  0
VERTEX
  8
gg1
 10
0.425000
 20
-0.690000
  0
VERTEX
  8
gg1
 10
0.445000
 20
-0.630000
  0
SEQEND
  8
gg1
  0
POLYLINE
  8
gg1
 62
1
 40
0.000000
 41
0.000000
 66
  1
  0
VERTEX
  8
gg1
 10
0.425000
 20
0.010000
  0
VERTEX
  8
gg1
 10
0.445000
 20
-0.050000
  0
SEQEND
  8
gg1
  0
POLYLINE
  8
gg1
 62
1
 40
0.000000
 41
0.000000
 66
  1
  0
VERTEX
  8
gg1
 10
0.405000
 20
-0.050000
  0
VERTEX
  8
gg1
 10
0.425000
 20
0.010000
  0
SEQEND
  8
gg1
  0
POLYLINE
  8
gg1
 62
1
 40
0.000000
 41
0.000000
 66
  1
  0
VERTEX
  8
gg1
 10
0.425000
 20
-0.690000
  0
VERTEX
  8
gg1
 10
0.425000
 20
-0.527000
  0
SEQEND
  8
gg1
  0
POLYLINE
  8
gg1
 62
1
 40
0.000000
 41
0.000000
 66
  1
  0
VERTEX
  8
gg1
 10
0.425000
 20
-0.185000
  0
VERTEX
  8
gg1
 10
0.425000
 20
0.010000
  0
SEQEND
  8
gg1
  0
POLYLINE
  8
gg1
 62
1
 40
0.000000
 41
0.000000
 66
  1
  0
VERTEX
  8
gg1
 10
0.415000
 20
-0.690000
  0
VERTEX
  8
gg1
 10
0.486000
 20
-0.690000
  0
SEQEND
  8
gg1
  0
POLYLINE
  8
gg1
 62
1
 40
0.000000
 41
0.000000
 66
  1
  0
VERTEX
  8
gg1
 10
0.415000
 20
0.010000
  0
VERTEX
  8
gg1
 10
0.486000
 20
0.010000
  0
SEQEND
  8
gg1
  0
POLYLINE
  8
gg1
 62
1
 40
0.000000
 41
0.000000
 66
  1
  0
VERTEX
  8
gg1
 10
0.500000
 20
-0.765000
  0
VERTEX
  8
gg1
 10
0.560000
 20
-0.745000
  0
SEQEND
  8
gg1
  0
POLYLINE
  8
gg1
 62
1
 40
0.000000
 41
0.000000
 66
  1
  0
VERTEX
  8
gg1
 10
0.500000
 20
-0.765000
  0
VERTEX
  8
gg1
 10
0.560000
 20
-0.785000
  0
SEQEND
  8
gg1
  0
POLYLINE
  8
gg1
 62
1
 40
0.000000
 41
0.000000
 66
  1
  0
VERTEX
  8
gg1
 10
1.240000
 20
-0.785000
  0
VERTEX
  8
gg1
 10
1.300000
 20
-0.765000
  0
SEQEND
  8
gg1
  0
POLYLINE
  8
gg1
 62
1
 40
0.000000
 41
0.000000
 66
  1
  0
VERTEX
  8
gg1
 10
1.240000
 20
-0.745000
  0
VERTEX
  8
gg1
 10
1.300000
 20
-0.765000
  0
SEQEND
  8
gg1
  0
POLYLINE
  8
gg1
 62
1
 40
0.000000
 41
0.000000
 66
  1
  0
VERTEX
  8
gg1
 10
0.500000
 20
-0.765000
  0
VERTEX
  8
gg1
 10
0.713100
 20
-0.765000
  0
SEQEND
  8
gg1
  0
POLYLINE
  8
gg1
 62
1
 40
0.000000
 41
0.000000
 66
  1
  0
VERTEX
  8
gg1
 10
1.054900
 20
-0.765000
  0
VERTEX
  8
gg1
 10
1.300000
 20
-0.765000
  0
SEQEND
  8
gg1
  0
POLYLINE
  8
gg1
 62
1
 40
0.000000
 41
0.000000
 66
  1
  0
VERTEX
  8
gg1
 10
0.500000
 20
-0.775000
  0
VERTEX
  8
gg1
 10
0.500000
 20
-0.704000
  0
SEQEND
  8
gg1
  0
POLYLINE
  8
gg1
 62
1
 40
0.000000
 41
0.000000
 66
  1
  0
VERTEX
  8
gg1
 10
1.300000
 20
-0.775000
  0
VERTEX
  8
gg1
 10
1.300000
 20
-0.704000
  0
SEQEND
  8
gg1
  0
POLYLINE
  8
gg1
 62
1
 40
0.000000
 41
0.000000
 66
  1
  0
VERTEX
  8
gg1
 10
0.401000
 20
-0.511000
  0
VERTEX
  8
gg1
 10
0.401000
 20
-0.471000
  0
VERTEX
  8
gg1
 10
0.411000
 20
-0.471000
  0
VERTEX
  8
gg1
 10
0.451000
 20
-0.511000
  0
VERTEX
  8
gg1
 10
0.461000
 20
-0.511000
  0
SEQEND
  8
gg1
  0
POLYLINE
  8
gg1
 62
1
 40
0.000000
 41
0.000000
 66
  1
  0
VERTEX
  8
gg1
 10
0.411000
 20
-0.451000
  0
VERTEX
  8
gg1
 10
0.401000
 20
-0.441000
  0
VERTEX
  8
gg1
 10
0.401000
 20
-0.421000
  0
VERTEX
  8
gg1
 10
0.411000
 20
-0.411000
  0
VERTEX
  8
gg1
 10
0.451000
 20
-0.411000
  0
VERTEX
  8
gg1
 10
0.461000
 20
-0.421000
  0
VERTEX
  8
gg1
 10
0.461000
 20
-0.441000
  0
VERTEX
  8
gg1
 10
0.451000
 20
-0.451000
  0
VERTEX
  8
gg1
 10
0.411000
 20
-0.451000
  0
SEQEND
  8
gg1
  0
POLYLINE
  8
gg1
 62
1
 40
0.000000
 41
0.000000
 66
  1
  0
VERTEX
  8
gg1
 10
0.411000
 20
-0.391000
  0
VERTEX
  8
gg1
 10
0.401000
 20
-0.381000
  0
VERTEX
  8
gg1
 10
0.401000
 20
-0.361000
  0
VERTEX
  8
gg1
 10
0.411000
 20
-0.351000
  0
VERTEX
  8
gg1
 10
0.451000
 20
-0.351000
  0
VERTEX
  8
gg1
 10
0.461000
 20
-0.361000
  0
VERTEX
  8
gg1
 10
0.461000
 20
-0.381000
  0
VERTEX
  8
gg1
 10
0.451000
 20
-0.391000
  0
VERTEX
  8
gg1
 10
0.411000
 20
-0.391000
  0
SEQEND
  8
gg1
  0
POLYLINE
  8
gg1
 62
1
 40
0.000000
 41
0.000000
 66
  1
  0
VERTEX
  8
gg1
 10
0.461000
 20
-0.331000
  0
VERTEX
  8
gg1
 10
0.421000
 20
-0.331000
  0
VERTEX
  8
gg1
 10
0.421000
 20
-0.321000
  0
VERTEX
  8
gg1
 10
0.431000
 20
-0.311000
  0
VERTEX
  8
gg1
 10
0.461000
 20
-0.311000
  0
VERTEX
  8
gg1
 10
0.431000
 20
-0.311000
  0
VERTEX
  8
gg1
 10
0.421000
 20
-0.301000
  0
VERTEX
  8
gg1
 10
0.431000
 20
-0.291000
  0
VERTEX
  8
gg1
 10
0.461000
 20
-0.291000
  0
SEQEND
  8
gg1
  0
POLYLINE
  8
gg1
 62
1
 40
0.000000
 41
0.000000
 66
  1
  0
VERTEX
  8
gg1
 10
0.461000
 20
-0.271000
  0
VERTEX
  8
gg1
 10
0.461000
 20
-0.251000
  0
VERTEX
  8
gg1
 10
0.461000
 20
-0.261000
  0
VERTEX
  8
gg1
 10
0.421000
 20
-0.261000
  0
VERTEX
  8
gg1
 10
0.421000
 20
-0.271000
  0
SEQEND
  8
gg1
  0
POLYLINE
  8
gg1
 62
1
 40
0.000000
 41
0.000000
 66
  1
  0
VERTEX
  8
gg1
 10
0.461000
 20
-0.221000
  0
VERTEX
  8
gg1
 10
0.461000
 20
-0.201000
  0
VERTEX
  8
gg1
 10
0.461000
 20
-0.211000
  0
VERTEX
  8
gg1
 10
0.401000
 20
-0.211000
  0
VERTEX
  8
gg1
 10
0.401000
 20
-0.221000
  0
SEQEND
  8
gg1
  0
POLYLINE
  8
gg1
 62
1
 40
0.000000
 41
0.000000
 66
  1
  0
VERTEX
  8
gg1
 10
0.729000
 20
-0.751000
  0
VERTEX
  8
gg1
 10
0.739000
 20
-0.741000
  0
VERTEX
  8
gg1
 10
0.759000
 20
-0.741000
  0
VERTEX
  8
gg1
 10
0.769000
 20
-0.751000
  0
VERTEX
  8
gg1
 10
0.769000
 20
-0.761000
  0
VERTEX
  8
gg1
 10
0.759000
 20
-0.771000
  0
VERTEX
  8
gg1
 10
0.769000
 20
-0.781000
  0
VERTEX
  8
gg1
 10
0.769000
 20
-0.791000
  0
VERTEX
  8
gg1
 10
0.759000
 20
-0.801000
  0
VERTEX
  8
gg1
 10
0.739000
 20
-0.801000
  0
VERTEX
  8
gg1
 10
0.729000
 20
-0.791000
  0
VERTEX
  8
gg1
 10
0.729000
 20
-0.781000
  0
VERTEX
  8
gg1
 10
0.739000
 20
-0.771000
  0
VERTEX
  8
gg1
 10
0.729000
 20
-0.761000
  0
VERTEX
  8
gg1
 10
0.729000
 20
-0.751000
  0
SEQEND
  8
gg1
  0
POLYLINE
  8
gg1
 62
1
 40
0.000000
 41
0.000000
 66
  1
  0
VERTEX
  8
gg1
 10
0.739000
 20
-0.771000
  0
VERTEX
  8
gg1
 10
0.759000
 20
-0.771000
  0
SEQEND
  8
gg1
  0
POLYLINE
  8
gg1
 62
1
 40
0.000000
 41
0.000000
 66
  1
  0
VERTEX
  8
gg1
 10
0.789000
 20
-0.751000
  0
VERTEX
  8
gg1
 10
0.799000
 20
-0.741000
  0
VERTEX
  8
gg1
 10
0.819000
 20
-0.741000
  0
VERTEX
  8
gg1
 10
0.829000
 20
-0.751000
  0
VERTEX
  8
gg1
 10
0.829000
 20
-0.791000
  0
VERTEX
  8
gg1
 10
0.819000
 20
-0.801000
  0
VERTEX
  8
gg1
 10
0.799000
 20
-0.801000
  0
VERTEX
  8
gg1
 10
0.789000
 20
-0.791000
  0
VERTEX
  8
gg1
 10
0.789000
 20
-0.751000
  0
SEQEND
  8
gg1
  0
POLYLINE
  8
gg1
 62
1
 40
0.000000
 41
0.000000
 66
  1
  0
VERTEX
  8
gg1
 10
0.849000
 20
-0.751000
  0
VERTEX
  8
gg1
 10
0.859000
 20
-0.741000
  0
VERTEX
  8
gg1
 10
0.879000
 20
-0.741000
  0
VERTEX
  8
gg1
 10
0.889000
 20
-0.751000
  0
VERTEX
  8
gg1
 10
0.889000
 20
-0.791000
  0
VERTEX
  8
gg1
 10
0.879000
 20
-0.801000
  0
VERTEX
  8
gg1
 10
0.859000
 20
-0.801000
  0
VERTEX
  8
gg1
 10
0.849000
 20
-0.791000
  0
VERTEX
  8
gg1
 10
0.849000
 20
-0.751000
  0
SEQEND
  8
gg1
  0
POLYLINE
  8
gg1
 62
1
 40
0.000000
 41
0.000000
 66
  1
  0
VERTEX
  8
gg1
 10
0.909000
 20
-0.801000
  0
VERTEX
  8
gg1
 10
0.909000
 20
-0.761000
  0
VERTEX
  8
gg1
 10
0.919000
 20
-0.761000
  0
VERTEX
  8
gg1
 10
0.929000
 20
-0.771000
  0
VERTEX
  8
gg1
 10
0.929000
 20
-0.801000
  0
VERTEX
  8
gg1
 10
0.929000
 20
-0.771000
  0
VERTEX
  8
gg1
 10
0.939000
 20
-0.761000
  0
VERTEX
  8
gg1
 10
0.949000
 20
-0.771000
  0
VERTEX
  8
gg1
 10
0.949000
 20
-0.801000
  0
SEQEND
  8
gg1
  0
POLYLINE
  8
gg1
 62
1
 40
0.000000
 41
0.000000
 66
  1
  0
VERTEX
  8
gg1
 10
0.969000
 20
-0.801000
  0
VERTEX
  8
gg1
 10
0.989000
 20
-0.801000
  0
VERTEX
  8
gg1
 10
0.979000
 20
-0.801000
  0
VERTEX
  8
gg1
 10
0.979000
 20
-0.761000
  0
VERTEX
  8
gg1
 10
0.969000
 20
-0.761000
  0
SEQEND
  8
gg1
  0
POLYLINE
  8
gg1
 62
1
 40
0.000000
 41
0.000000
 66
  1
  0
VERTEX
  8
gg1
 10
1.019000
 20
-0.801000
  0
VERTEX
  8
gg1
 10
1.038900
 20
-0.801000
  0
VERTEX
  8
gg1
 10
1.029000
 20
-0.801000
  0
VERTEX
  8
gg1
 10
1.029000
 20
-0.741000
  0
VERTEX
  8
gg1
 10
1.019000
 20
-0.741000
  0
SEQEND
  8
gg1
  0
POLYLINE
  8
gg1
 62
1
 40
0.000000
 41
0.000000
 66
  1
  0
VERTEX
  8
gg1
 10
0.545000
 20
-0.240000
  0
VERTEX
  8
gg1
 10
0.595000
 20
-0.240000
  0
SEQEND
  8
gg1
  0
POLYLINE
  8
gg1
 62
1
 40
0.000000
 41
0.000000
 66
  1
  0
VERTEX
  8
gg1
 10
0.570000
 20
-0.265000
  0
VERTEX
  8
gg1
 10
0.570000
 20
-0.215000
  0
SEQEND
  8
gg1
  0
POLYLINE
  8
gg1
 62
1
 40
0.000000
 41
0.000000
 66
  1
  0
VERTEX
  8
gg1
 10
0.545000
 20
-0.440000
  0
VERTEX
  8
gg1
 10
0.595000
 20
-0.440000
  0
SEQEND
  8
gg1
  0
POLYLINE
  8
gg1
 62
1
 40
0.000000
 41
0.000000
 66
  1
  0
VERTEX
  8
gg1
 10
0.570000
 20
-0.465000
  0
VERTEX
  8
gg1
 10
0.570000
 20
-0.415000
  0
SEQEND
  8
gg1
  0
POLYLINE
  8
gg1
 62
1
 40
0.000000
 41
0.000000
 66
  1
  0
VERTEX
  8
gg1
 10
1.220000
 20
-0.440000
  0
VERTEX
  8
gg1
 10
1.260000
 20
-0.440000
  0
SEQEND
  8
gg1
  0
POLYLINE
  8
gg1
 62
1
 40
0.000000
 41
0.000000
 66
  1
  0
VERTEX
  8
gg1
 10
1.240000
 20
-0.460000
  0
VERTEX
  8
gg1
 10
1.240000
 20
-0.420000
  0
SEQEND
  8
gg1
  0
POLYLINE
  8
gg1
 62
1
 40
0.000000
 41
0.000000
 66
  1
  0
VERTEX
  8
gg1
 10
1.220000
 20
-0.340000
  0
VERTEX
  8
gg1
 10
1.260000
 20
-0.340000
  0
SEQEND
  8
gg1
  0
POLYLINE
  8
gg1
 62
1
 40
0.000000
 41
0.000000
 66
  1
  0
VERTEX
  8
gg1
 10
1.240000
 20
-0.360000
  0
VERTEX
  8
gg1
 10
1.240000
 20
-0.320000
  0
SEQEND
  8
gg1
  0
POLYLINE
  8
gg1
 62
1
 40
0.000000
 41
0.000000
 66
  1
  0
VERTEX
  8
gg1
 10
1.220000
 20
-0.240000
  0
VERTEX
  8
gg1
 10
1.260000
 20
-0.240000
  0
SEQEND
  8
gg1
  0
POLYLINE
  8
gg1
 62
1
 40
0.000000
 41
0.000000
 66
  1
  0
VERTEX
  8
gg1
 10
1.240000
 20
-0.260000
  0
VERTEX
  8
gg1
 10
1.240000
 20
-0.220000
  0
SEQEND
  8
gg1
  0
POLYLINE
  8
gg1
 62
1
 40
0.000000
 41
0.000000
 66
  1
  0
VERTEX
  8
gg1
 10
0.625000
 20
-0.270000
  0
VERTEX
  8
gg1
 10
0.675000
 20
-0.270000
  0
SEQEND
  8
gg1
  0
POLYLINE
  8
gg1
 62
1
 40
0.000000
 41
0.000000
 66
  1
  0
VERTEX
  8
gg1
 10
0.650000
 20
-0.295000
  0
VERTEX
  8
gg1
 10
0.650000
 20
-0.245000
  0
SEQEND
  8
gg1
  0
POLYLINE
  8
gg1
 62
1
 40
0.000000
 41
0.000000
 66
  1
  0
VERTEX
  8
gg1
 10
0.625000
 20
-0.410000
  0
VERTEX
  8
gg1
 10
0.675000
 20
-0.410000
  0
SEQEND
  8
gg1
  0
POLYLINE
  8
gg1
 62
1
 40
0.000000
 41
0.000000
 66
  1
  0
VERTEX
  8
gg1
 10
0.650000
 20
-0.435000
  0
VERTEX
  8
gg1
 10
0.650000
 20
-0.385000
  0
SEQEND
  8
gg1
  0
POLYLINE
  8
gg1
 62
1
 40
0.000000
 41
0.000000
 66
  1
  0
VERTEX
  8
gg1
 10
0.580000
 20
-0.140000
  0
VERTEX
  8
gg1
 10
0.720000
 20
-0.140000
  0
SEQEND
  8
gg1
  0
POLYLINE
  8
gg1
 62
1
 40
0.000000
 41
0.000000
 66
  1
  0
VERTEX
  8
gg1
 10
0.650000
 20
-0.210000
  0
VERTEX
  8
gg1
 10
0.650000
 20
-0.070000
  0
SEQEND
  8
gg1
  0
POLYLINE
  8
gg1
 62
1
 40
0.000000
 41
0.000000
 66
  1
  0
VERTEX
  8
gg1
 10
0.580000
 20
-0.540000
  0
VERTEX
  8
gg1
 10
0.720000
 20
-0.540000
  0
SEQEND
  8
gg1
  0
POLYLINE
  8
gg1
 62
1
 40
0.000000
 41
0.000000
 66
  1
  0
VERTEX
  8
gg1
 10
0.650000
 20
-0.610000
  0
VERTEX
  8
gg1
 10
0.650000
 20
-0.470000
  0
SEQEND
  8
gg1
  0
POLYLINE
  8
gg1
 62
1
 40
0.000000
 41
0.000000
 66
  1
  0
VERTEX
  8
gg1
 10
1.157000
 20
-0.090000
  0
VERTEX
  8
gg1
 10
1.243000
 20
-0.090000
  0
SEQEND
  8
gg1
  0
POLYLINE
  8
gg1
 62
1
 40
0.000000
 41
0.000000
 66
  1
  0
VERTEX
  8
gg1
 10
1.200000
 20
-0.133000
  0
VERTEX
  8
gg1
 10
1.200000
 20
-0.047000
  0
SEQEND
  8
gg1
  0
POLYLINE
  8
gg1
 62
1
 40
0.000000
 41
0.000000
 66
  1
  0
VERTEX
  8
gg1
 10
1.157000
 20
-0.590000
  0
VERTEX
  8
gg1
 10
1.243000
 20
-0.590000
  0
SEQEND
  8
gg1
  0
POLYLINE
  8
gg1
 62
1
 40
0.000000
 41
0.000000
 66
  1
  0
VERTEX
  8
gg1
 10
1.200000
 20
-0.633000
  0
VERTEX
  8
gg1
 10
1.200000
 20
-0.547000
  0
SEQEND
  8
gg1
  0
POLYLINE
  8
gg1
 62
1
 40
0.000000
 41
0.000000
 66
  1
  0
VERTEX
  8
gg1
 10
0.720000
 20
-0.290000
  0
VERTEX
  8
gg1
 10
0.760000
 20
-0.290000
  0
SEQEND
  8
gg1
  0
POLYLINE
  8
gg1
 62
1
 40
0.000000
 41
0.000000
 66
  1
  0
VERTEX
  8
gg1
 10
0.740000
 20
-0.310000
  0
VERTEX
  8
gg1
 10
0.740000
 20
-0.270000
  0
SEQEND
  8
gg1
  0
POLYLINE
  8
gg1
 62
1
 40
0.000000
 41
0.000000
 66
  1
  0
VERTEX
  8
gg1
 10
0.720000
 20
-0.390000
  0
VERTEX
  8
gg1
 10
0.760000
 20
-0.390000
  0
SEQEND
  8
gg1
  0
POLYLINE
  8
gg1
 62
1
 40
0.000000
 41
0.000000
 66
  1
  0
VERTEX
  8
gg1
 10
0.740000
 20
-0.410000
  0
VERTEX
  8
gg1
 10
0.740000
 20
-0.370000
  0
SEQEND
  8
gg1
  0
POLYLINE
  8
gg1
 62
1
 40
0.000000
 41
0.000000
 66
  1
  0
VERTEX
  8
gg1
 10
0.782000
 20
-0.115000
  0
VERTEX
  8
gg1
 10
0.868000
 20
-0.115000
  0
SEQEND
  8
gg1
  0
POLYLINE
  8
gg1
 62
1
 40
0.000000
 41
0.000000
 66
  1
  0
VERTEX
  8
gg1
 10
0.825000
 20
-0.158000
  0
VERTEX
  8
gg1
 10
0.825000
 20
-0.072000
  0
SEQEND
  8
gg1
  0
POLYLINE
  8
gg1
 62
1
 40
0.000000
 41
0.000000
 66
  1
  0
VERTEX
  8
gg1
 10
0.782000
 20
-0.565000
  0
VERTEX
  8
gg1
 10
0.868000
 20
-0.565000
  0
SEQEND
  8
gg1
  0
POLYLINE
  8
gg1
 62
1
 40
0.000000
 41
0.000000
 66
  1
  0
VERTEX
  8
gg1
 10
0.825000
 20
-0.608000
  0
VERTEX
  8
gg1
 10
0.825000
 20
-0.522000
  0
SEQEND
  8
gg1
  0
ENDSEC
  0
EOF
