  0
SECTION
  2
HEADER
  9
$EXTMIN
 10
7.373000
 20
14.847000
  9
$EXTMAX
 10
7.905000
 20
15.605000
  9
$LIMMIN
 10
7.373000
 20
14.847000
  9
$LIMMAX
 10
7.905000
 20
15.605000
  9
$FILLMODE
 70
  1
  0
ENDSEC
  0
SECTION
  2
TABLES
  0
TABLE
  2
LTYPE
 70
  1
  0
LTYPE
  2
CONTINUOUS
 70
 64
  3
Solid line
 72
 65
 73
  0
 40
0.0
  0
ENDTAB
  0
TABLE
  2
LAYER
 70
 1
  0
LAYER
  2
0
 70
  0
 62
7
  6
CONTINUOUS
  0
LAYER
  2
gg1
 70
  0
 62
1
  6
CONTINUOUS
  0
ENDTAB
  0
TABLE
  2
STYLE
 70
  1
  0
STYLE
  2
STANDARD
 70
  0
 40
0.0
 41
1.0
 50
0.0
 71
  0
 42
0.2
  3
txt
  4

  0
ENDTAB
  0
ENDSEC
  0
SECTION
  2
BLOCKS
  0
BLOCK
  8
0
  2
D10
 70
64
 10
0.0
 20
0.0
  3
D10
  0
CIRCLE
  8
0
 10
0.000000
 20
0.000000
 40
0.002500
 0
ENDBLK
  8
0
  0
BLOCK
  8
0
  2
D11
 70
64
 10
0.0
 20
0.0
  3
D11
  0
CIRCLE
  8
0
 10
0.000000
 20
0.000000
 40
0.005000
 0
ENDBLK
  8
0
  0
BLOCK
  8
0
  2
D12
 70
64
 10
0.0
 20
0.0
  3
D12
  0
CIRCLE
  8
0
 10
0.000000
 20
0.000000
 40
0.003000
 0
ENDBLK
  8
0
  0
ENDSEC
  0
SECTION
  2
ENTITIES
  0
POLYLINE
  8
gg1
 62
1
 40
0.000000
 41
0.000000
 66
  1
  0
VERTEX
  8
gg1
 10
7.500000
 20
15.000000
  0
VERTEX
  8
gg1
 10
7.900000
 20
15.000000
  0
VERTEX
  8
gg1
 10
7.900000
 20
15.600000
  0
SEQEND
  8
gg1
  0
POLYLINE
  8
gg1
 62
1
 40
0.000000
 41
0.000000
 66
  1
  0
VERTEX
  8
gg1
 10
7.500000
 20
15.600000
  0
VERTEX
  8
gg1
 10
7.900000
 20
15.600000
  0
SEQEND
  8
gg1
  0
POLYLINE
  8
gg1
 62
1
 40
0.000000
 41
0.000000
 66
  1
  0
VERTEX
  8
gg1
 10
7.500000
 20
15.000000
  0
VERTEX
  8
gg1
 10
7.500000
 20
15.600000
  0
SEQEND
  8
gg1
  0
POLYLINE
  8
gg1
 62
1
 40
0.000000
 41
0.000000
 66
  1
  0
VERTEX
  8
gg1
 10
7.665000
 20
15.085000
  0
VERTEX
  8
gg1
 10
7.685000
 20
15.085000
  0
SEQEND
  8
gg1
  0
POLYLINE
  8
gg1
 62
1
 40
0.000000
 41
0.000000
 66
  1
  0
VERTEX
  8
gg1
 10
7.675000
 20
15.075000
  0
VERTEX
  8
gg1
 10
7.675000
 20
15.095000
  0
SEQEND
  8
gg1
  0
POLYLINE
  8
gg1
 62
1
 40
0.000000
 41
0.000000
 66
  1
  0
VERTEX
  8
gg1
 10
7.830000
 20
15.550000
  0
VERTEX
  8
gg1
 10
7.870000
 20
15.550000
  0
SEQEND
  8
gg1
  0
POLYLINE
  8
gg1
 62
1
 40
0.000000
 41
0.000000
 66
  1
  0
VERTEX
  8
gg1
 10
7.850000
 20
15.530000
  0
VERTEX
  8
gg1
 10
7.850000
 20
15.570000
  0
SEQEND
  8
gg1
  0
POLYLINE
  8
gg1
 62
1
 40
0.000000
 41
0.000000
 66
  1
  0
VERTEX
  8
gg1
 10
7.830000
 20
15.450000
  0
VERTEX
  8
gg1
 10
7.870000
 20
15.450000
  0
SEQEND
  8
gg1
  0
POLYLINE
  8
gg1
 62
1
 40
0.000000
 41
0.000000
 66
  1
  0
VERTEX
  8
gg1
 10
7.850000
 20
15.430000
  0
VERTEX
  8
gg1
 10
7.850000
 20
15.470000
  0
SEQEND
  8
gg1
  0
POLYLINE
  8
gg1
 62
1
 40
0.000000
 41
0.000000
 66
  1
  0
VERTEX
  8
gg1
 10
7.530000
 20
15.550000
  0
VERTEX
  8
gg1
 10
7.570000
 20
15.550000
  0
SEQEND
  8
gg1
  0
POLYLINE
  8
gg1
 62
1
 40
0.000000
 41
0.000000
 66
  1
  0
VERTEX
  8
gg1
 10
7.550000
 20
15.530000
  0
VERTEX
  8
gg1
 10
7.550000
 20
15.570000
  0
SEQEND
  8
gg1
  0
POLYLINE
  8
gg1
 62
1
 40
0.000000
 41
0.000000
 66
  1
  0
VERTEX
  8
gg1
 10
7.530000
 20
15.450000
  0
VERTEX
  8
gg1
 10
7.570000
 20
15.450000
  0
SEQEND
  8
gg1
  0
POLYLINE
  8
gg1
 62
1
 40
0.000000
 41
0.000000
 66
  1
  0
VERTEX
  8
gg1
 10
7.550000
 20
15.430000
  0
VERTEX
  8
gg1
 10
7.550000
 20
15.470000
  0
SEQEND
  8
gg1
  0
POLYLINE
  8
gg1
 62
1
 40
0.000000
 41
0.000000
 66
  1
  0
VERTEX
  8
gg1
 10
7.530000
 20
15.050000
  0
VERTEX
  8
gg1
 10
7.570000
 20
15.050000
  0
SEQEND
  8
gg1
  0
POLYLINE
  8
gg1
 62
1
 40
0.000000
 41
0.000000
 66
  1
  0
VERTEX
  8
gg1
 10
7.550000
 20
15.030000
  0
VERTEX
  8
gg1
 10
7.550000
 20
15.070000
  0
SEQEND
  8
gg1
  0
POLYLINE
  8
gg1
 62
1
 40
0.000000
 41
0.000000
 66
  1
  0
VERTEX
  8
gg1
 10
7.530000
 20
15.150000
  0
VERTEX
  8
gg1
 10
7.570000
 20
15.150000
  0
SEQEND
  8
gg1
  0
POLYLINE
  8
gg1
 62
1
 40
0.000000
 41
0.000000
 66
  1
  0
VERTEX
  8
gg1
 10
7.550000
 20
15.130000
  0
VERTEX
  8
gg1
 10
7.550000
 20
15.170000
  0
SEQEND
  8
gg1
  0
POLYLINE
  8
gg1
 62
1
 40
0.000000
 41
0.000000
 66
  1
  0
VERTEX
  8
gg1
 10
7.530000
 20
15.250000
  0
VERTEX
  8
gg1
 10
7.570000
 20
15.250000
  0
SEQEND
  8
gg1
  0
POLYLINE
  8
gg1
 62
1
 40
0.000000
 41
0.000000
 66
  1
  0
VERTEX
  8
gg1
 10
7.550000
 20
15.230000
  0
VERTEX
  8
gg1
 10
7.550000
 20
15.270000
  0
SEQEND
  8
gg1
  0
POLYLINE
  8
gg1
 62
1
 40
0.000000
 41
0.000000
 66
  1
  0
VERTEX
  8
gg1
 10
7.695000
 20
15.365000
  0
VERTEX
  8
gg1
 10
7.715000
 20
15.365000
  0
SEQEND
  8
gg1
  0
POLYLINE
  8
gg1
 62
1
 40
0.000000
 41
0.000000
 66
  1
  0
VERTEX
  8
gg1
 10
7.705000
 20
15.355000
  0
VERTEX
  8
gg1
 10
7.705000
 20
15.375000
  0
SEQEND
  8
gg1
  0
POLYLINE
  8
gg1
 62
1
 40
0.000000
 41
0.000000
 66
  1
  0
VERTEX
  8
gg1
 10
7.830000
 20
15.050000
  0
VERTEX
  8
gg1
 10
7.870000
 20
15.050000
  0
SEQEND
  8
gg1
  0
POLYLINE
  8
gg1
 62
1
 40
0.000000
 41
0.000000
 66
  1
  0
VERTEX
  8
gg1
 10
7.850000
 20
15.030000
  0
VERTEX
  8
gg1
 10
7.850000
 20
15.070000
  0
SEQEND
  8
gg1
  0
POLYLINE
  8
gg1
 62
1
 40
0.000000
 41
0.000000
 66
  1
  0
VERTEX
  8
gg1
 10
7.830000
 20
15.150000
  0
VERTEX
  8
gg1
 10
7.870000
 20
15.150000
  0
SEQEND
  8
gg1
  0
POLYLINE
  8
gg1
 62
1
 40
0.000000
 41
0.000000
 66
  1
  0
VERTEX
  8
gg1
 10
7.850000
 20
15.130000
  0
VERTEX
  8
gg1
 10
7.850000
 20
15.170000
  0
SEQEND
  8
gg1
  0
POLYLINE
  8
gg1
 62
1
 40
0.000000
 41
0.000000
 66
  1
  0
VERTEX
  8
gg1
 10
7.830000
 20
15.250000
  0
VERTEX
  8
gg1
 10
7.870000
 20
15.250000
  0
SEQEND
  8
gg1
  0
POLYLINE
  8
gg1
 62
1
 40
0.000000
 41
0.000000
 66
  1
  0
VERTEX
  8
gg1
 10
7.850000
 20
15.230000
  0
VERTEX
  8
gg1
 10
7.850000
 20
15.270000
  0
SEQEND
  8
gg1
  0
POLYLINE
  8
gg1
 62
1
 40
0.000000
 41
0.000000
 66
  1
  0
VERTEX
  8
gg1
 10
7.830000
 20
15.350000
  0
VERTEX
  8
gg1
 10
7.870000
 20
15.350000
  0
SEQEND
  8
gg1
  0
POLYLINE
  8
gg1
 62
1
 40
0.000000
 41
0.000000
 66
  1
  0
VERTEX
  8
gg1
 10
7.850000
 20
15.330000
  0
VERTEX
  8
gg1
 10
7.850000
 20
15.370000
  0
SEQEND
  8
gg1
  0
POLYLINE
  8
gg1
 62
1
 40
0.000000
 41
0.000000
 66
  1
  0
VERTEX
  8
gg1
 10
7.500000
 20
14.900000
  0
VERTEX
  8
gg1
 10
7.560000
 20
14.920000
  0
SEQEND
  8
gg1
  0
POLYLINE
  8
gg1
 62
1
 40
0.000000
 41
0.000000
 66
  1
  0
VERTEX
  8
gg1
 10
7.500000
 20
14.900000
  0
VERTEX
  8
gg1
 10
7.560000
 20
14.880000
  0
SEQEND
  8
gg1
  0
POLYLINE
  8
gg1
 62
1
 40
0.000000
 41
0.000000
 66
  1
  0
VERTEX
  8
gg1
 10
7.840000
 20
14.880000
  0
VERTEX
  8
gg1
 10
7.900000
 20
14.900000
  0
SEQEND
  8
gg1
  0
POLYLINE
  8
gg1
 62
1
 40
0.000000
 41
0.000000
 66
  1
  0
VERTEX
  8
gg1
 10
7.840000
 20
14.920000
  0
VERTEX
  8
gg1
 10
7.900000
 20
14.900000
  0
SEQEND
  8
gg1
  0
POLYLINE
  8
gg1
 62
1
 40
0.000000
 41
0.000000
 66
  1
  0
VERTEX
  8
gg1
 10
7.500000
 20
14.900000
  0
VERTEX
  8
gg1
 10
7.534000
 20
14.900000
  0
SEQEND
  8
gg1
  0
POLYLINE
  8
gg1
 62
1
 40
0.000000
 41
0.000000
 66
  1
  0
VERTEX
  8
gg1
 10
7.875900
 20
14.900000
  0
VERTEX
  8
gg1
 10
7.900000
 20
14.900000
  0
SEQEND
  8
gg1
  0
POLYLINE
  8
gg1
 62
1
 40
0.000000
 41
0.000000
 66
  1
  0
VERTEX
  8
gg1
 10
7.500000
 20
14.890000
  0
VERTEX
  8
gg1
 10
7.500000
 20
14.987500
  0
SEQEND
  8
gg1
  0
POLYLINE
  8
gg1
 62
1
 40
0.000000
 41
0.000000
 66
  1
  0
VERTEX
  8
gg1
 10
7.900000
 20
14.890000
  0
VERTEX
  8
gg1
 10
7.900000
 20
14.987500
  0
SEQEND
  8
gg1
  0
POLYLINE
  8
gg1
 62
1
 40
0.000000
 41
0.000000
 66
  1
  0
VERTEX
  8
gg1
 10
7.400000
 20
15.600000
  0
VERTEX
  8
gg1
 10
7.420000
 20
15.540000
  0
SEQEND
  8
gg1
  0
POLYLINE
  8
gg1
 62
1
 40
0.000000
 41
0.000000
 66
  1
  0
VERTEX
  8
gg1
 10
7.380000
 20
15.540000
  0
VERTEX
  8
gg1
 10
7.400000
 20
15.600000
  0
SEQEND
  8
gg1
  0
POLYLINE
  8
gg1
 62
1
 40
0.000000
 41
0.000000
 66
  1
  0
VERTEX
  8
gg1
 10
7.380000
 20
15.060000
  0
VERTEX
  8
gg1
 10
7.400000
 20
15.000000
  0
VERTEX
  8
gg1
 10
7.420000
 20
15.060000
  0
SEQEND
  8
gg1
  0
POLYLINE
  8
gg1
 62
1
 40
0.000000
 41
0.000000
 66
  1
  0
VERTEX
  8
gg1
 10
7.400000
 20
15.454950
  0
VERTEX
  8
gg1
 10
7.400000
 20
15.600000
  0
SEQEND
  8
gg1
  0
POLYLINE
  8
gg1
 62
1
 40
0.000000
 41
0.000000
 66
  1
  0
VERTEX
  8
gg1
 10
7.400000
 20
15.000000
  0
VERTEX
  8
gg1
 10
7.400000
 20
15.113050
  0
SEQEND
  8
gg1
  0
POLYLINE
  8
gg1
 62
1
 40
0.000000
 41
0.000000
 66
  1
  0
VERTEX
  8
gg1
 10
7.390000
 20
15.600000
  0
VERTEX
  8
gg1
 10
7.487500
 20
15.600000
  0
SEQEND
  8
gg1
  0
POLYLINE
  8
gg1
 62
1
 40
0.000000
 41
0.000000
 66
  1
  0
VERTEX
  8
gg1
 10
7.390000
 20
15.000000
  0
VERTEX
  8
gg1
 10
7.487500
 20
15.000000
  0
SEQEND
  8
gg1
  0
POLYLINE
  8
gg1
 62
1
 40
0.000000
 41
0.000000
 66
  1
  0
VERTEX
  8
gg1
 10
7.579990
 20
14.850000
  0
VERTEX
  8
gg1
 10
7.579990
 20
14.909980
  0
VERTEX
  8
gg1
 10
7.550000
 20
14.879990
  0
VERTEX
  8
gg1
 10
7.589990
 20
14.879990
  0
SEQEND
  8
gg1
  0
POLYLINE
  8
gg1
 62
1
 40
0.000000
 41
0.000000
 66
  1
  0
VERTEX
  8
gg1
 10
7.609980
 20
14.899980
  0
VERTEX
  8
gg1
 10
7.619980
 20
14.909980
  0
VERTEX
  8
gg1
 10
7.639970
 20
14.909980
  0
VERTEX
  8
gg1
 10
7.649970
 20
14.899980
  0
VERTEX
  8
gg1
 10
7.649970
 20
14.860000
  0
VERTEX
  8
gg1
 10
7.639970
 20
14.850000
  0
VERTEX
  8
gg1
 10
7.619980
 20
14.850000
  0
VERTEX
  8
gg1
 10
7.609980
 20
14.860000
  0
VERTEX
  8
gg1
 10
7.609980
 20
14.899980
  0
SEQEND
  8
gg1
  0
POLYLINE
  8
gg1
 62
1
 40
0.000000
 41
0.000000
 66
  1
  0
VERTEX
  8
gg1
 10
7.669960
 20
14.899980
  0
VERTEX
  8
gg1
 10
7.679960
 20
14.909980
  0
VERTEX
  8
gg1
 10
7.699950
 20
14.909980
  0
VERTEX
  8
gg1
 10
7.709950
 20
14.899980
  0
VERTEX
  8
gg1
 10
7.709950
 20
14.860000
  0
VERTEX
  8
gg1
 10
7.699950
 20
14.850000
  0
VERTEX
  8
gg1
 10
7.679960
 20
14.850000
  0
VERTEX
  8
gg1
 10
7.669960
 20
14.860000
  0
VERTEX
  8
gg1
 10
7.669960
 20
14.899980
  0
SEQEND
  8
gg1
  0
POLYLINE
  8
gg1
 62
1
 40
0.000000
 41
0.000000
 66
  1
  0
VERTEX
  8
gg1
 10
7.729940
 20
14.850000
  0
VERTEX
  8
gg1
 10
7.729940
 20
14.889990
  0
VERTEX
  8
gg1
 10
7.739940
 20
14.889990
  0
VERTEX
  8
gg1
 10
7.749940
 20
14.879990
  0
VERTEX
  8
gg1
 10
7.749940
 20
14.850000
  0
VERTEX
  8
gg1
 10
7.749940
 20
14.879990
  0
VERTEX
  8
gg1
 10
7.759930
 20
14.889990
  0
VERTEX
  8
gg1
 10
7.769930
 20
14.879990
  0
VERTEX
  8
gg1
 10
7.769930
 20
14.850000
  0
SEQEND
  8
gg1
  0
POLYLINE
  8
gg1
 62
1
 40
0.000000
 41
0.000000
 66
  1
  0
VERTEX
  8
gg1
 10
7.789920
 20
14.850000
  0
VERTEX
  8
gg1
 10
7.809920
 20
14.850000
  0
VERTEX
  8
gg1
 10
7.799920
 20
14.850000
  0
VERTEX
  8
gg1
 10
7.799920
 20
14.889990
  0
VERTEX
  8
gg1
 10
7.789920
 20
14.889990
  0
SEQEND
  8
gg1
  0
POLYLINE
  8
gg1
 62
1
 40
0.000000
 41
0.000000
 66
  1
  0
VERTEX
  8
gg1
 10
7.839910
 20
14.850000
  0
VERTEX
  8
gg1
 10
7.859900
 20
14.850000
  0
VERTEX
  8
gg1
 10
7.849900
 20
14.850000
  0
VERTEX
  8
gg1
 10
7.849900
 20
14.909980
  0
VERTEX
  8
gg1
 10
7.839910
 20
14.909980
  0
SEQEND
  8
gg1
  0
POLYLINE
  8
gg1
 62
1
 40
0.000000
 41
0.000000
 66
  1
  0
VERTEX
  8
gg1
 10
7.376010
 20
15.169040
  0
VERTEX
  8
gg1
 10
7.386010
 20
15.149040
  0
VERTEX
  8
gg1
 10
7.406000
 20
15.129050
  0
VERTEX
  8
gg1
 10
7.425990
 20
15.129050
  0
VERTEX
  8
gg1
 10
7.435990
 20
15.139050
  0
VERTEX
  8
gg1
 10
7.435990
 20
15.159040
  0
VERTEX
  8
gg1
 10
7.425990
 20
15.169040
  0
VERTEX
  8
gg1
 10
7.416000
 20
15.169040
  0
VERTEX
  8
gg1
 10
7.406000
 20
15.159040
  0
VERTEX
  8
gg1
 10
7.406000
 20
15.129050
  0
SEQEND
  8
gg1
  0
POLYLINE
  8
gg1
 62
1
 40
0.000000
 41
0.000000
 66
  1
  0
VERTEX
  8
gg1
 10
7.386010
 20
15.189030
  0
VERTEX
  8
gg1
 10
7.376010
 20
15.199030
  0
VERTEX
  8
gg1
 10
7.376010
 20
15.219020
  0
VERTEX
  8
gg1
 10
7.386010
 20
15.229020
  0
VERTEX
  8
gg1
 10
7.425990
 20
15.229020
  0
VERTEX
  8
gg1
 10
7.435990
 20
15.219020
  0
VERTEX
  8
gg1
 10
7.435990
 20
15.199030
  0
VERTEX
  8
gg1
 10
7.425990
 20
15.189030
  0
VERTEX
  8
gg1
 10
7.386010
 20
15.189030
  0
SEQEND
  8
gg1
  0
POLYLINE
  8
gg1
 62
1
 40
0.000000
 41
0.000000
 66
  1
  0
VERTEX
  8
gg1
 10
7.386010
 20
15.249010
  0
VERTEX
  8
gg1
 10
7.376010
 20
15.259010
  0
VERTEX
  8
gg1
 10
7.376010
 20
15.279000
  0
VERTEX
  8
gg1
 10
7.386010
 20
15.289000
  0
VERTEX
  8
gg1
 10
7.425990
 20
15.289000
  0
VERTEX
  8
gg1
 10
7.435990
 20
15.279000
  0
VERTEX
  8
gg1
 10
7.435990
 20
15.259010
  0
VERTEX
  8
gg1
 10
7.425990
 20
15.249010
  0
VERTEX
  8
gg1
 10
7.386010
 20
15.249010
  0
SEQEND
  8
gg1
  0
POLYLINE
  8
gg1
 62
1
 40
0.000000
 41
0.000000
 66
  1
  0
VERTEX
  8
gg1
 10
7.435990
 20
15.308990
  0
VERTEX
  8
gg1
 10
7.396000
 20
15.308990
  0
VERTEX
  8
gg1
 10
7.396000
 20
15.318990
  0
VERTEX
  8
gg1
 10
7.406000
 20
15.328990
  0
VERTEX
  8
gg1
 10
7.435990
 20
15.328990
  0
VERTEX
  8
gg1
 10
7.406000
 20
15.328990
  0
VERTEX
  8
gg1
 10
7.396000
 20
15.338980
  0
VERTEX
  8
gg1
 10
7.406000
 20
15.348980
  0
VERTEX
  8
gg1
 10
7.435990
 20
15.348980
  0
SEQEND
  8
gg1
  0
POLYLINE
  8
gg1
 62
1
 40
0.000000
 41
0.000000
 66
  1
  0
VERTEX
  8
gg1
 10
7.435990
 20
15.368970
  0
VERTEX
  8
gg1
 10
7.435990
 20
15.388970
  0
VERTEX
  8
gg1
 10
7.435990
 20
15.378970
  0
VERTEX
  8
gg1
 10
7.396000
 20
15.378970
  0
VERTEX
  8
gg1
 10
7.396000
 20
15.368970
  0
SEQEND
  8
gg1
  0
POLYLINE
  8
gg1
 62
1
 40
0.000000
 41
0.000000
 66
  1
  0
VERTEX
  8
gg1
 10
7.435990
 20
15.418960
  0
VERTEX
  8
gg1
 10
7.435990
 20
15.438950
  0
VERTEX
  8
gg1
 10
7.435990
 20
15.428950
  0
VERTEX
  8
gg1
 10
7.376010
 20
15.428950
  0
VERTEX
  8
gg1
 10
7.376010
 20
15.418960
  0
SEQEND
  8
gg1
  0
ENDSEC
  0
EOF
