  0
SECTION
  2
HEADER
  9
$EXTMIN
 10
7.373000
 20
14.793000
  9
$EXTMAX
 10
7.905000
 20
15.505000
  9
$LIMMIN
 10
7.373000
 20
14.793000
  9
$LIMMAX
 10
7.905000
 20
15.505000
  9
$FILLMODE
 70
  1
  0
ENDSEC
  0
SECTION
  2
TABLES
  0
TABLE
  2
LTYPE
 70
  1
  0
LTYPE
  2
CONTINUOUS
 70
 64
  3
Solid line
 72
 65
 73
  0
 40
0.0
  0
ENDTAB
  0
TABLE
  2
LAYER
 70
 1
  0
LAYER
  2
0
 70
  0
 62
7
  6
CONTINUOUS
  0
LAYER
  2
gg1
 70
  0
 62
1
  6
CONTINUOUS
  0
LAYER
  2
gm
 70
  0
 62
1
  6
CONTINUOUS
  0
ENDTAB
  0
TABLE
  2
STYLE
 70
  1
  0
STYLE
  2
STANDARD
 70
  0
 40
0.0
 41
1.0
 50
0.0
 71
  0
 42
0.2
  3
txt
  4

  0
ENDTAB
  0
ENDSEC
  0
SECTION
  2
BLOCKS
  0
BLOCK
  8
0
  2
D10
 70
64
 10
0.0
 20
0.0
  3
D10
  0
CIRCLE
  8
0
 10
0.000000
 20
0.000000
 40
0.005000
 0
ENDBLK
  8
0
  0
BLOCK
  8
0
  2
D11
 70
64
 10
0.0
 20
0.0
  3
D11
  0
CIRCLE
  8
0
 10
0.000000
 20
0.000000
 40
0.002500
 0
ENDBLK
  8
0
  0
BLOCK
  8
0
  2
D12
 70
64
 10
0.0
 20
0.0
  3
D12
  0
CIRCLE
  8
0
 10
0.000000
 20
0.000000
 40
0.003000
 0
ENDBLK
  8
0
  0
BLOCK
  8
0
  2
D13
 70
64
 10
0.0
 20
0.0
  3
D13
  0
CIRCLE
  8
0
 10
0.000000
 20
0.000000
 40
0.000500
 0
ENDBLK
  8
0
  0
ENDSEC
  0
SECTION
  2
ENTITIES
  0
POLYLINE
  8
gg1
 62
1
 40
0.000000
 41
0.000000
 66
  1
  0
VERTEX
  8
gg1
 10
7.500000
 20
14.890000
  0
VERTEX
  8
gg1
 10
7.500000
 20
15.000000
  0
SEQEND
  8
gg1
  0
POLYLINE
  8
gg1
 62
1
 40
0.000000
 41
0.000000
 66
  1
  0
VERTEX
  8
gg1
 10
7.900000
 20
14.890000
  0
VERTEX
  8
gg1
 10
7.900000
 20
15.000000
  0
SEQEND
  8
gg1
  0
POLYLINE
  8
gg1
 62
1
 40
0.000000
 41
0.000000
 66
  1
  0
VERTEX
  8
gg1
 10
7.500000
 20
14.900000
  0
VERTEX
  8
gg1
 10
7.700000
 20
14.900000
  0
VERTEX
  8
gg1
 10
7.900000
 20
14.900000
  0
SEQEND
  8
gg1
  0
POLYLINE
  8
gg1
 62
1
 40
0.000000
 41
0.000000
 66
  1
  0
VERTEX
  8
gg1
 10
7.500000
 20
14.900000
  0
VERTEX
  8
gg1
 10
7.560000
 20
14.880000
  0
SEQEND
  8
gg1
  0
POLYLINE
  8
gg1
 62
1
 40
0.000000
 41
0.000000
 66
  1
  0
VERTEX
  8
gg1
 10
7.500000
 20
14.900000
  0
VERTEX
  8
gg1
 10
7.560000
 20
14.920000
  0
SEQEND
  8
gg1
  0
POLYLINE
  8
gg1
 62
1
 40
0.000000
 41
0.000000
 66
  1
  0
VERTEX
  8
gg1
 10
7.840000
 20
14.920000
  0
VERTEX
  8
gg1
 10
7.900000
 20
14.900000
  0
SEQEND
  8
gg1
  0
POLYLINE
  8
gg1
 62
1
 40
0.000000
 41
0.000000
 66
  1
  0
VERTEX
  8
gg1
 10
7.840000
 20
14.880000
  0
VERTEX
  8
gg1
 10
7.900000
 20
14.900000
  0
SEQEND
  8
gg1
  0
POLYLINE
  8
gg1
 62
1
 40
0.000000
 41
0.000000
 66
  1
  0
VERTEX
  8
gg1
 10
7.390000
 20
15.000000
  0
VERTEX
  8
gg1
 10
7.487500
 20
15.000000
  0
SEQEND
  8
gg1
  0
POLYLINE
  8
gg1
 62
1
 40
0.000000
 41
0.000000
 66
  1
  0
VERTEX
  8
gg1
 10
7.390000
 20
15.500000
  0
VERTEX
  8
gg1
 10
7.500000
 20
15.500000
  0
SEQEND
  8
gg1
  0
POLYLINE
  8
gg1
 62
1
 40
0.000000
 41
0.000000
 66
  1
  0
VERTEX
  8
gg1
 10
7.400000
 20
15.000000
  0
VERTEX
  8
gg1
 10
7.400000
 20
15.063050
  0
SEQEND
  8
gg1
  0
POLYLINE
  8
gg1
 62
1
 40
0.000000
 41
0.000000
 66
  1
  0
VERTEX
  8
gg1
 10
7.400000
 20
15.404950
  0
VERTEX
  8
gg1
 10
7.400000
 20
15.500000
  0
SEQEND
  8
gg1
  0
POLYLINE
  8
gg1
 62
1
 40
0.000000
 41
0.000000
 66
  1
  0
VERTEX
  8
gg1
 10
7.400000
 20
15.000000
  0
VERTEX
  8
gg1
 10
7.420000
 20
15.060000
  0
SEQEND
  8
gg1
  0
POLYLINE
  8
gg1
 62
1
 40
0.000000
 41
0.000000
 66
  1
  0
VERTEX
  8
gg1
 10
7.380000
 20
15.060000
  0
VERTEX
  8
gg1
 10
7.400000
 20
15.000000
  0
SEQEND
  8
gg1
  0
POLYLINE
  8
gg1
 62
1
 40
0.000000
 41
0.000000
 66
  1
  0
VERTEX
  8
gg1
 10
7.380000
 20
15.440000
  0
VERTEX
  8
gg1
 10
7.400000
 20
15.500000
  0
VERTEX
  8
gg1
 10
7.420000
 20
15.440000
  0
SEQEND
  8
gg1
  0
POLYLINE
  8
gg1
 62
1
 40
0.000000
 41
0.000000
 66
  1
  0
VERTEX
  8
gg1
 10
7.500000
 20
15.000000
  0
VERTEX
  8
gg1
 10
7.500000
 20
15.500000
  0
SEQEND
  8
gg1
  0
POLYLINE
  8
gg1
 62
1
 40
0.000000
 41
0.000000
 66
  1
  0
VERTEX
  8
gg1
 10
7.500000
 20
15.000000
  0
VERTEX
  8
gg1
 10
7.900000
 20
15.000000
  0
VERTEX
  8
gg1
 10
7.900000
 20
15.500000
  0
SEQEND
  8
gg1
  0
POLYLINE
  8
gg1
 62
1
 40
0.000000
 41
0.000000
 66
  1
  0
VERTEX
  8
gg1
 10
7.500000
 20
15.500000
  0
VERTEX
  8
gg1
 10
7.900000
 20
15.500000
  0
SEQEND
  8
gg1
  0
POLYLINE
  8
gg1
 62
1
 40
0.000000
 41
0.000000
 66
  1
  0
VERTEX
  8
gg1
 10
7.530000
 20
15.450000
  0
VERTEX
  8
gg1
 10
7.570000
 20
15.450000
  0
SEQEND
  8
gg1
  0
POLYLINE
  8
gg1
 62
1
 40
0.000000
 41
0.000000
 66
  1
  0
VERTEX
  8
gg1
 10
7.550000
 20
15.430000
  0
VERTEX
  8
gg1
 10
7.550000
 20
15.470000
  0
SEQEND
  8
gg1
  0
POLYLINE
  8
gg1
 62
1
 40
0.000000
 41
0.000000
 66
  1
  0
VERTEX
  8
gg1
 10
7.530000
 20
15.350000
  0
VERTEX
  8
gg1
 10
7.570000
 20
15.350000
  0
SEQEND
  8
gg1
  0
POLYLINE
  8
gg1
 62
1
 40
0.000000
 41
0.000000
 66
  1
  0
VERTEX
  8
gg1
 10
7.550000
 20
15.330000
  0
VERTEX
  8
gg1
 10
7.550000
 20
15.370000
  0
SEQEND
  8
gg1
  0
POLYLINE
  8
gg1
 62
1
 40
0.000000
 41
0.000000
 66
  1
  0
VERTEX
  8
gg1
 10
7.530000
 20
15.250000
  0
VERTEX
  8
gg1
 10
7.570000
 20
15.250000
  0
SEQEND
  8
gg1
  0
POLYLINE
  8
gg1
 62
1
 40
0.000000
 41
0.000000
 66
  1
  0
VERTEX
  8
gg1
 10
7.550000
 20
15.230000
  0
VERTEX
  8
gg1
 10
7.550000
 20
15.270000
  0
SEQEND
  8
gg1
  0
POLYLINE
  8
gg1
 62
1
 40
0.000000
 41
0.000000
 66
  1
  0
VERTEX
  8
gg1
 10
7.530000
 20
15.150000
  0
VERTEX
  8
gg1
 10
7.570000
 20
15.150000
  0
SEQEND
  8
gg1
  0
POLYLINE
  8
gg1
 62
1
 40
0.000000
 41
0.000000
 66
  1
  0
VERTEX
  8
gg1
 10
7.550000
 20
15.130000
  0
VERTEX
  8
gg1
 10
7.550000
 20
15.170000
  0
SEQEND
  8
gg1
  0
POLYLINE
  8
gg1
 62
1
 40
0.000000
 41
0.000000
 66
  1
  0
VERTEX
  8
gg1
 10
7.530000
 20
15.050000
  0
VERTEX
  8
gg1
 10
7.570000
 20
15.050000
  0
SEQEND
  8
gg1
  0
POLYLINE
  8
gg1
 62
1
 40
0.000000
 41
0.000000
 66
  1
  0
VERTEX
  8
gg1
 10
7.550000
 20
15.030000
  0
VERTEX
  8
gg1
 10
7.550000
 20
15.070000
  0
SEQEND
  8
gg1
  0
POLYLINE
  8
gg1
 62
1
 40
0.000000
 41
0.000000
 66
  1
  0
VERTEX
  8
gg1
 10
7.830000
 20
15.450000
  0
VERTEX
  8
gg1
 10
7.870000
 20
15.450000
  0
SEQEND
  8
gg1
  0
POLYLINE
  8
gg1
 62
1
 40
0.000000
 41
0.000000
 66
  1
  0
VERTEX
  8
gg1
 10
7.850000
 20
15.430000
  0
VERTEX
  8
gg1
 10
7.850000
 20
15.470000
  0
SEQEND
  8
gg1
  0
POLYLINE
  8
gg1
 62
1
 40
0.000000
 41
0.000000
 66
  1
  0
VERTEX
  8
gg1
 10
7.830000
 20
15.350000
  0
VERTEX
  8
gg1
 10
7.870000
 20
15.350000
  0
SEQEND
  8
gg1
  0
POLYLINE
  8
gg1
 62
1
 40
0.000000
 41
0.000000
 66
  1
  0
VERTEX
  8
gg1
 10
7.850000
 20
15.330000
  0
VERTEX
  8
gg1
 10
7.850000
 20
15.370000
  0
SEQEND
  8
gg1
  0
POLYLINE
  8
gg1
 62
1
 40
0.000000
 41
0.000000
 66
  1
  0
VERTEX
  8
gg1
 10
7.830000
 20
15.250000
  0
VERTEX
  8
gg1
 10
7.870000
 20
15.250000
  0
SEQEND
  8
gg1
  0
POLYLINE
  8
gg1
 62
1
 40
0.000000
 41
0.000000
 66
  1
  0
VERTEX
  8
gg1
 10
7.850000
 20
15.230000
  0
VERTEX
  8
gg1
 10
7.850000
 20
15.270000
  0
SEQEND
  8
gg1
  0
POLYLINE
  8
gg1
 62
1
 40
0.000000
 41
0.000000
 66
  1
  0
VERTEX
  8
gg1
 10
7.830000
 20
15.150000
  0
VERTEX
  8
gg1
 10
7.870000
 20
15.150000
  0
SEQEND
  8
gg1
  0
POLYLINE
  8
gg1
 62
1
 40
0.000000
 41
0.000000
 66
  1
  0
VERTEX
  8
gg1
 10
7.850000
 20
15.130000
  0
VERTEX
  8
gg1
 10
7.850000
 20
15.170000
  0
SEQEND
  8
gg1
  0
POLYLINE
  8
gg1
 62
1
 40
0.000000
 41
0.000000
 66
  1
  0
VERTEX
  8
gg1
 10
7.830000
 20
15.050000
  0
VERTEX
  8
gg1
 10
7.870000
 20
15.050000
  0
SEQEND
  8
gg1
  0
POLYLINE
  8
gg1
 62
1
 40
0.000000
 41
0.000000
 66
  1
  0
VERTEX
  8
gg1
 10
7.850000
 20
15.030000
  0
VERTEX
  8
gg1
 10
7.850000
 20
15.070000
  0
SEQEND
  8
gg1
  0
POLYLINE
  8
gg1
 62
1
 40
0.000000
 41
0.000000
 66
  1
  0
VERTEX
  8
gg1
 10
7.575990
 20
14.796000
  0
VERTEX
  8
gg1
 10
7.575990
 20
14.855980
  0
VERTEX
  8
gg1
 10
7.546000
 20
14.825990
  0
VERTEX
  8
gg1
 10
7.585990
 20
14.825990
  0
SEQEND
  8
gg1
  0
POLYLINE
  8
gg1
 62
1
 40
0.000000
 41
0.000000
 66
  1
  0
VERTEX
  8
gg1
 10
7.605980
 20
14.845980
  0
VERTEX
  8
gg1
 10
7.615980
 20
14.855980
  0
VERTEX
  8
gg1
 10
7.635970
 20
14.855980
  0
VERTEX
  8
gg1
 10
7.645970
 20
14.845980
  0
VERTEX
  8
gg1
 10
7.645970
 20
14.806000
  0
VERTEX
  8
gg1
 10
7.635970
 20
14.796000
  0
VERTEX
  8
gg1
 10
7.615980
 20
14.796000
  0
VERTEX
  8
gg1
 10
7.605980
 20
14.806000
  0
VERTEX
  8
gg1
 10
7.605980
 20
14.845980
  0
SEQEND
  8
gg1
  0
POLYLINE
  8
gg1
 62
1
 40
0.000000
 41
0.000000
 66
  1
  0
VERTEX
  8
gg1
 10
7.665960
 20
14.845980
  0
VERTEX
  8
gg1
 10
7.675960
 20
14.855980
  0
VERTEX
  8
gg1
 10
7.695950
 20
14.855980
  0
VERTEX
  8
gg1
 10
7.705950
 20
14.845980
  0
VERTEX
  8
gg1
 10
7.705950
 20
14.806000
  0
VERTEX
  8
gg1
 10
7.695950
 20
14.796000
  0
VERTEX
  8
gg1
 10
7.675960
 20
14.796000
  0
VERTEX
  8
gg1
 10
7.665960
 20
14.806000
  0
VERTEX
  8
gg1
 10
7.665960
 20
14.845980
  0
SEQEND
  8
gg1
  0
POLYLINE
  8
gg1
 62
1
 40
0.000000
 41
0.000000
 66
  1
  0
VERTEX
  8
gg1
 10
7.725940
 20
14.796000
  0
VERTEX
  8
gg1
 10
7.725940
 20
14.835990
  0
VERTEX
  8
gg1
 10
7.735940
 20
14.835990
  0
VERTEX
  8
gg1
 10
7.745930
 20
14.825990
  0
VERTEX
  8
gg1
 10
7.745930
 20
14.796000
  0
VERTEX
  8
gg1
 10
7.745930
 20
14.825990
  0
VERTEX
  8
gg1
 10
7.755930
 20
14.835990
  0
VERTEX
  8
gg1
 10
7.765930
 20
14.825990
  0
VERTEX
  8
gg1
 10
7.765930
 20
14.796000
  0
SEQEND
  8
gg1
  0
POLYLINE
  8
gg1
 62
1
 40
0.000000
 41
0.000000
 66
  1
  0
VERTEX
  8
gg1
 10
7.785920
 20
14.796000
  0
VERTEX
  8
gg1
 10
7.805920
 20
14.796000
  0
VERTEX
  8
gg1
 10
7.795920
 20
14.796000
  0
VERTEX
  8
gg1
 10
7.795920
 20
14.835990
  0
VERTEX
  8
gg1
 10
7.785920
 20
14.835990
  0
SEQEND
  8
gg1
  0
POLYLINE
  8
gg1
 62
1
 40
0.000000
 41
0.000000
 66
  1
  0
VERTEX
  8
gg1
 10
7.835910
 20
14.796000
  0
VERTEX
  8
gg1
 10
7.855900
 20
14.796000
  0
VERTEX
  8
gg1
 10
7.845900
 20
14.796000
  0
VERTEX
  8
gg1
 10
7.845900
 20
14.855980
  0
VERTEX
  8
gg1
 10
7.835910
 20
14.855980
  0
SEQEND
  8
gg1
  0
POLYLINE
  8
gg1
 62
1
 40
0.000000
 41
0.000000
 66
  1
  0
VERTEX
  8
gg1
 10
7.376010
 20
15.119040
  0
VERTEX
  8
gg1
 10
7.376010
 20
15.079050
  0
VERTEX
  8
gg1
 10
7.406000
 20
15.079050
  0
VERTEX
  8
gg1
 10
7.396000
 20
15.099040
  0
VERTEX
  8
gg1
 10
7.396000
 20
15.109040
  0
VERTEX
  8
gg1
 10
7.406000
 20
15.119040
  0
VERTEX
  8
gg1
 10
7.425990
 20
15.119040
  0
VERTEX
  8
gg1
 10
7.435990
 20
15.109040
  0
VERTEX
  8
gg1
 10
7.435990
 20
15.089050
  0
VERTEX
  8
gg1
 10
7.425990
 20
15.079050
  0
SEQEND
  8
gg1
  0
POLYLINE
  8
gg1
 62
1
 40
0.000000
 41
0.000000
 66
  1
  0
VERTEX
  8
gg1
 10
7.386010
 20
15.139030
  0
VERTEX
  8
gg1
 10
7.376010
 20
15.149030
  0
VERTEX
  8
gg1
 10
7.376010
 20
15.169020
  0
VERTEX
  8
gg1
 10
7.386010
 20
15.179020
  0
VERTEX
  8
gg1
 10
7.425990
 20
15.179020
  0
VERTEX
  8
gg1
 10
7.435990
 20
15.169020
  0
VERTEX
  8
gg1
 10
7.435990
 20
15.149030
  0
VERTEX
  8
gg1
 10
7.425990
 20
15.139030
  0
VERTEX
  8
gg1
 10
7.386010
 20
15.139030
  0
SEQEND
  8
gg1
  0
POLYLINE
  8
gg1
 62
1
 40
0.000000
 41
0.000000
 66
  1
  0
VERTEX
  8
gg1
 10
7.386010
 20
15.199010
  0
VERTEX
  8
gg1
 10
7.376010
 20
15.209010
  0
VERTEX
  8
gg1
 10
7.376010
 20
15.229000
  0
VERTEX
  8
gg1
 10
7.386010
 20
15.239000
  0
VERTEX
  8
gg1
 10
7.425990
 20
15.239000
  0
VERTEX
  8
gg1
 10
7.435990
 20
15.229000
  0
VERTEX
  8
gg1
 10
7.435990
 20
15.209010
  0
VERTEX
  8
gg1
 10
7.425990
 20
15.199010
  0
VERTEX
  8
gg1
 10
7.386010
 20
15.199010
  0
SEQEND
  8
gg1
  0
POLYLINE
  8
gg1
 62
1
 40
0.000000
 41
0.000000
 66
  1
  0
VERTEX
  8
gg1
 10
7.435990
 20
15.258990
  0
VERTEX
  8
gg1
 10
7.396000
 20
15.258990
  0
VERTEX
  8
gg1
 10
7.396000
 20
15.268990
  0
VERTEX
  8
gg1
 10
7.406000
 20
15.278990
  0
VERTEX
  8
gg1
 10
7.435990
 20
15.278990
  0
VERTEX
  8
gg1
 10
7.406000
 20
15.278990
  0
VERTEX
  8
gg1
 10
7.396000
 20
15.288980
  0
VERTEX
  8
gg1
 10
7.406000
 20
15.298980
  0
VERTEX
  8
gg1
 10
7.435990
 20
15.298980
  0
SEQEND
  8
gg1
  0
POLYLINE
  8
gg1
 62
1
 40
0.000000
 41
0.000000
 66
  1
  0
VERTEX
  8
gg1
 10
7.435990
 20
15.318970
  0
VERTEX
  8
gg1
 10
7.435990
 20
15.338970
  0
VERTEX
  8
gg1
 10
7.435990
 20
15.328970
  0
VERTEX
  8
gg1
 10
7.396000
 20
15.328970
  0
VERTEX
  8
gg1
 10
7.396000
 20
15.318970
  0
SEQEND
  8
gg1
  0
POLYLINE
  8
gg1
 62
1
 40
0.000000
 41
0.000000
 66
  1
  0
VERTEX
  8
gg1
 10
7.435990
 20
15.368960
  0
VERTEX
  8
gg1
 10
7.435990
 20
15.388950
  0
VERTEX
  8
gg1
 10
7.435990
 20
15.378950
  0
VERTEX
  8
gg1
 10
7.376010
 20
15.378950
  0
VERTEX
  8
gg1
 10
7.376010
 20
15.368960
  0
SEQEND
  8
gg1
  0
POLYLINE
  8
gm
 62
1
 40
0.000000
 41
0.000000
 66
  1
  0
VERTEX
  8
gm
 10
7.500000
 20
15.000000
  0
VERTEX
  8
gm
 10
7.900000
 20
15.000000
  0
VERTEX
  8
gm
 10
7.900000
 20
15.500000
  0
VERTEX
  8
gm
 10
7.500000
 20
15.500000
  0
VERTEX
  8
gm
 10
7.500000
 20
15.000000
  0
SEQEND
  8
gm
  0
ENDSEC
  0
EOF
