  0
SECTION
  2
HEADER
  9
$EXTMIN
 10
5.098000
 20
14.786000
  9
$EXTMAX
 10
9.355000
 20
15.680000
  9
$LIMMIN
 10
5.098000
 20
14.786000
  9
$LIMMAX
 10
9.355000
 20
15.680000
  9
$FILLMODE
 70
  1
  0
ENDSEC
  0
SECTION
  2
TABLES
  0
TABLE
  2
LTYPE
 70
  1
  0
LTYPE
  2
CONTINUOUS
 70
 64
  3
Solid line
 72
 65
 73
  0
 40
0.0
  0
ENDTAB
  0
TABLE
  2
LAYER
 70
 1
  0
LAYER
  2
0
 70
  0
 62
7
  6
CONTINUOUS
  0
LAYER
  2
gg1
 70
  0
 62
1
  6
CONTINUOUS
  0
ENDTAB
  0
TABLE
  2
STYLE
 70
  1
  0
STYLE
  2
STANDARD
 70
  0
 40
0.0
 41
1.0
 50
0.0
 71
  0
 42
0.2
  3
txt
  4

  0
ENDTAB
  0
ENDSEC
  0
SECTION
  2
BLOCKS
  0
BLOCK
  8
0
  2
D10
 70
64
 10
0.0
 20
0.0
  3
D10
  0
CIRCLE
  8
0
 10
0.000000
 20
0.000000
 40
0.002500
 0
ENDBLK
  8
0
  0
BLOCK
  8
0
  2
D11
 70
64
 10
0.0
 20
0.0
  3
D11
  0
CIRCLE
  8
0
 10
0.000000
 20
0.000000
 40
0.005000
 0
ENDBLK
  8
0
  0
BLOCK
  8
0
  2
D12
 70
64
 10
0.0
 20
0.0
  3
D12
  0
CIRCLE
  8
0
 10
0.000000
 20
0.000000
 40
0.003000
 0
ENDBLK
  8
0
  0
BLOCK
  8
0
  2
D13
 70
64
 10
0.0
 20
0.0
  3
D13
  0
CIRCLE
  8
0
 10
0.000000
 20
0.000000
 40
0.001000
 0
ENDBLK
  8
0
  0
ENDSEC
  0
SECTION
  2
ENTITIES
  0
POLYLINE
  8
gg1
 62
1
 40
0.000000
 41
0.000000
 66
  1
  0
VERTEX
  8
gg1
 10
8.832000
 20
15.375000
  0
VERTEX
  8
gg1
 10
8.832000
 20
15.375000
  0
VERTEX
  8
gg1
 10
8.832000
 20
15.375000
 42
0.414214
  0
VERTEX
  8
gg1
 10
8.800000
 20
15.343000
  0
VERTEX
  8
gg1
 10
8.800000
 20
15.343000
  0
SEQEND
  8
gg1
  0
POLYLINE
  8
gg1
 62
1
 40
0.000000
 41
0.000000
 66
  1
  0
VERTEX
  8
gg1
 10
6.200000
 20
15.343000
  0
VERTEX
  8
gg1
 10
6.200000
 20
15.343000
  0
VERTEX
  8
gg1
 10
6.200000
 20
15.343000
 42
0.414214
  0
VERTEX
  8
gg1
 10
6.168000
 20
15.375000
  0
VERTEX
  8
gg1
 10
6.168000
 20
15.375000
  0
SEQEND
  8
gg1
  0
POLYLINE
  8
gg1
 62
1
 40
0.000000
 41
0.000000
 66
  1
  0
VERTEX
  8
gg1
 10
5.650000
 20
15.375000
  0
VERTEX
  8
gg1
 10
6.168000
 20
15.375000
  0
SEQEND
  8
gg1
  0
POLYLINE
  8
gg1
 62
1
 40
0.000000
 41
0.000000
 66
  1
  0
VERTEX
  8
gg1
 10
6.200000
 20
15.000000
  0
VERTEX
  8
gg1
 10
6.200000
 20
15.343000
  0
SEQEND
  8
gg1
  0
POLYLINE
  8
gg1
 62
1
 40
0.000000
 41
0.000000
 66
  1
  0
VERTEX
  8
gg1
 10
8.832000
 20
15.375000
  0
VERTEX
  8
gg1
 10
9.350000
 20
15.375000
  0
SEQEND
  8
gg1
  0
POLYLINE
  8
gg1
 62
1
 40
0.000000
 41
0.000000
 66
  1
  0
VERTEX
  8
gg1
 10
8.800000
 20
15.000000
  0
VERTEX
  8
gg1
 10
8.800000
 20
15.343000
  0
SEQEND
  8
gg1
  0
POLYLINE
  8
gg1
 62
1
 40
0.000000
 41
0.000000
 66
  1
  0
VERTEX
  8
gg1
 10
9.350000
 20
15.375000
  0
VERTEX
  8
gg1
 10
9.350000
 20
15.675000
  0
SEQEND
  8
gg1
  0
POLYLINE
  8
gg1
 62
1
 40
0.000000
 41
0.000000
 66
  1
  0
VERTEX
  8
gg1
 10
6.200000
 20
15.000000
  0
VERTEX
  8
gg1
 10
8.800000
 20
15.000000
  0
SEQEND
  8
gg1
  0
POLYLINE
  8
gg1
 62
1
 40
0.000000
 41
0.000000
 66
  1
  0
VERTEX
  8
gg1
 10
5.650000
 20
15.375000
  0
VERTEX
  8
gg1
 10
5.650000
 20
15.675000
  0
VERTEX
  8
gg1
 10
9.350000
 20
15.675000
  0
SEQEND
  8
gg1
  0
POLYLINE
  8
gg1
 62
1
 40
0.000000
 41
0.000000
 66
  1
  0
VERTEX
  8
gg1
 10
9.290000
 20
14.805000
  0
VERTEX
  8
gg1
 10
9.350000
 20
14.825000
  0
SEQEND
  8
gg1
  0
POLYLINE
  8
gg1
 62
1
 40
0.000000
 41
0.000000
 66
  1
  0
VERTEX
  8
gg1
 10
9.290000
 20
14.845000
  0
VERTEX
  8
gg1
 10
9.350000
 20
14.825000
  0
SEQEND
  8
gg1
  0
POLYLINE
  8
gg1
 62
1
 40
0.000000
 41
0.000000
 66
  1
  0
VERTEX
  8
gg1
 10
5.650000
 20
14.825000
  0
VERTEX
  8
gg1
 10
5.710000
 20
14.845000
  0
SEQEND
  8
gg1
  0
POLYLINE
  8
gg1
 62
1
 40
0.000000
 41
0.000000
 66
  1
  0
VERTEX
  8
gg1
 10
5.650000
 20
14.825000
  0
VERTEX
  8
gg1
 10
5.710000
 20
14.805000
  0
SEQEND
  8
gg1
  0
POLYLINE
  8
gg1
 62
1
 40
0.000000
 41
0.000000
 66
  1
  0
VERTEX
  8
gg1
 10
7.684900
 20
14.825000
  0
VERTEX
  8
gg1
 10
9.350000
 20
14.825000
  0
SEQEND
  8
gg1
  0
POLYLINE
  8
gg1
 62
1
 40
0.000000
 41
0.000000
 66
  1
  0
VERTEX
  8
gg1
 10
5.650000
 20
14.825000
  0
VERTEX
  8
gg1
 10
7.283100
 20
14.825000
  0
SEQEND
  8
gg1
  0
POLYLINE
  8
gg1
 62
1
 40
0.000000
 41
0.000000
 66
  1
  0
VERTEX
  8
gg1
 10
9.350000
 20
14.815000
  0
VERTEX
  8
gg1
 10
9.350000
 20
15.362500
  0
SEQEND
  8
gg1
  0
POLYLINE
  8
gg1
 62
1
 40
0.000000
 41
0.000000
 66
  1
  0
VERTEX
  8
gg1
 10
5.650000
 20
14.815000
  0
VERTEX
  8
gg1
 10
5.650000
 20
15.362500
  0
SEQEND
  8
gg1
  0
POLYLINE
  8
gg1
 62
1
 40
0.000000
 41
0.000000
 66
  1
  0
VERTEX
  8
gg1
 10
5.125000
 20
15.675000
  0
VERTEX
  8
gg1
 10
5.145000
 20
15.615000
  0
SEQEND
  8
gg1
  0
POLYLINE
  8
gg1
 62
1
 40
0.000000
 41
0.000000
 66
  1
  0
VERTEX
  8
gg1
 10
5.105000
 20
15.615000
  0
VERTEX
  8
gg1
 10
5.125000
 20
15.675000
  0
SEQEND
  8
gg1
  0
POLYLINE
  8
gg1
 62
1
 40
0.000000
 41
0.000000
 66
  1
  0
VERTEX
  8
gg1
 10
5.105000
 20
15.060000
  0
VERTEX
  8
gg1
 10
5.125000
 20
15.000000
  0
VERTEX
  8
gg1
 10
5.145000
 20
15.060000
  0
SEQEND
  8
gg1
  0
POLYLINE
  8
gg1
 62
1
 40
0.000000
 41
0.000000
 66
  1
  0
VERTEX
  8
gg1
 10
5.125000
 20
15.492400
  0
VERTEX
  8
gg1
 10
5.125000
 20
15.675000
  0
SEQEND
  8
gg1
  0
POLYLINE
  8
gg1
 62
1
 40
0.000000
 41
0.000000
 66
  1
  0
VERTEX
  8
gg1
 10
5.125000
 20
15.000000
  0
VERTEX
  8
gg1
 10
5.125000
 20
15.150500
  0
SEQEND
  8
gg1
  0
POLYLINE
  8
gg1
 62
1
 40
0.000000
 41
0.000000
 66
  1
  0
VERTEX
  8
gg1
 10
5.115000
 20
15.675000
  0
VERTEX
  8
gg1
 10
5.637500
 20
15.675000
  0
SEQEND
  8
gg1
  0
POLYLINE
  8
gg1
 62
1
 40
0.000000
 41
0.000000
 66
  1
  0
VERTEX
  8
gg1
 10
5.115000
 20
15.000000
  0
VERTEX
  8
gg1
 10
6.187500
 20
15.000000
  0
SEQEND
  8
gg1
  0
POLYLINE
  8
gg1
 62
1
 40
0.000000
 41
0.000000
 66
  1
  0
VERTEX
  8
gg1
 10
5.325000
 20
15.675000
  0
VERTEX
  8
gg1
 10
5.345000
 20
15.615000
  0
SEQEND
  8
gg1
  0
POLYLINE
  8
gg1
 62
1
 40
0.000000
 41
0.000000
 66
  1
  0
VERTEX
  8
gg1
 10
5.305000
 20
15.615000
  0
VERTEX
  8
gg1
 10
5.325000
 20
15.675000
  0
SEQEND
  8
gg1
  0
POLYLINE
  8
gg1
 62
1
 40
0.000000
 41
0.000000
 66
  1
  0
VERTEX
  8
gg1
 10
5.305000
 20
15.435000
  0
VERTEX
  8
gg1
 10
5.325000
 20
15.375000
  0
VERTEX
  8
gg1
 10
5.345000
 20
15.435000
  0
SEQEND
  8
gg1
  0
POLYLINE
  8
gg1
 62
1
 40
0.000000
 41
0.000000
 66
  1
  0
VERTEX
  8
gg1
 10
5.325000
 20
15.525000
  0
VERTEX
  8
gg1
 10
5.325000
 20
15.675000
  0
SEQEND
  8
gg1
  0
POLYLINE
  8
gg1
 62
1
 40
0.000000
 41
0.000000
 66
  1
  0
VERTEX
  8
gg1
 10
5.325000
 20
15.375000
  0
VERTEX
  8
gg1
 10
5.325000
 20
15.525000
  0
SEQEND
  8
gg1
  0
POLYLINE
  8
gg1
 62
1
 40
0.000000
 41
0.000000
 66
  1
  0
VERTEX
  8
gg1
 10
5.315000
 20
15.675000
  0
VERTEX
  8
gg1
 10
5.637500
 20
15.675000
  0
SEQEND
  8
gg1
  0
POLYLINE
  8
gg1
 62
1
 40
0.000000
 41
0.000000
 66
  1
  0
VERTEX
  8
gg1
 10
5.315000
 20
15.375000
  0
VERTEX
  8
gg1
 10
5.637500
 20
15.375000
  0
SEQEND
  8
gg1
  0
POLYLINE
  8
gg1
 62
1
 40
0.000000
 41
0.000000
 66
  1
  0
VERTEX
  8
gg1
 10
5.325000
 20
15.375000
  0
VERTEX
  8
gg1
 10
5.345000
 20
15.315000
  0
SEQEND
  8
gg1
  0
POLYLINE
  8
gg1
 62
1
 40
0.000000
 41
0.000000
 66
  1
  0
VERTEX
  8
gg1
 10
5.305000
 20
15.315000
  0
VERTEX
  8
gg1
 10
5.325000
 20
15.375000
  0
SEQEND
  8
gg1
  0
POLYLINE
  8
gg1
 62
1
 40
0.000000
 41
0.000000
 66
  1
  0
VERTEX
  8
gg1
 10
5.305000
 20
15.060000
  0
VERTEX
  8
gg1
 10
5.325000
 20
15.000000
  0
VERTEX
  8
gg1
 10
5.345000
 20
15.060000
  0
SEQEND
  8
gg1
  0
POLYLINE
  8
gg1
 62
1
 40
0.000000
 41
0.000000
 66
  1
  0
VERTEX
  8
gg1
 10
5.325000
 20
15.187500
  0
VERTEX
  8
gg1
 10
5.325000
 20
15.375000
  0
SEQEND
  8
gg1
  0
POLYLINE
  8
gg1
 62
1
 40
0.000000
 41
0.000000
 66
  1
  0
VERTEX
  8
gg1
 10
5.325000
 20
15.000000
  0
VERTEX
  8
gg1
 10
5.325000
 20
15.187500
  0
SEQEND
  8
gg1
  0
POLYLINE
  8
gg1
 62
1
 40
0.000000
 41
0.000000
 66
  1
  0
VERTEX
  8
gg1
 10
5.315000
 20
15.375000
  0
VERTEX
  8
gg1
 10
5.637500
 20
15.375000
  0
SEQEND
  8
gg1
  0
POLYLINE
  8
gg1
 62
1
 40
0.000000
 41
0.000000
 66
  1
  0
VERTEX
  8
gg1
 10
5.315000
 20
15.000000
  0
VERTEX
  8
gg1
 10
6.187500
 20
15.000000
  0
SEQEND
  8
gg1
  0
POLYLINE
  8
gg1
 62
1
 40
0.000000
 41
0.000000
 66
  1
  0
VERTEX
  8
gg1
 10
6.140000
 20
14.915000
  0
VERTEX
  8
gg1
 10
6.200000
 20
14.935000
  0
SEQEND
  8
gg1
  0
POLYLINE
  8
gg1
 62
1
 40
0.000000
 41
0.000000
 66
  1
  0
VERTEX
  8
gg1
 10
6.140000
 20
14.955000
  0
VERTEX
  8
gg1
 10
6.200000
 20
14.935000
  0
SEQEND
  8
gg1
  0
POLYLINE
  8
gg1
 62
1
 40
0.000000
 41
0.000000
 66
  1
  0
VERTEX
  8
gg1
 10
5.650000
 20
14.935000
  0
VERTEX
  8
gg1
 10
5.710000
 20
14.955000
  0
SEQEND
  8
gg1
  0
POLYLINE
  8
gg1
 62
1
 40
0.000000
 41
0.000000
 66
  1
  0
VERTEX
  8
gg1
 10
5.650000
 20
14.935000
  0
VERTEX
  8
gg1
 10
5.710000
 20
14.915000
  0
SEQEND
  8
gg1
  0
POLYLINE
  8
gg1
 62
1
 40
0.000000
 41
0.000000
 66
  1
  0
VERTEX
  8
gg1
 10
6.028300
 20
14.935000
  0
VERTEX
  8
gg1
 10
6.200000
 20
14.935000
  0
SEQEND
  8
gg1
  0
POLYLINE
  8
gg1
 62
1
 40
0.000000
 41
0.000000
 66
  1
  0
VERTEX
  8
gg1
 10
5.650000
 20
14.935000
  0
VERTEX
  8
gg1
 10
5.789700
 20
14.935000
  0
SEQEND
  8
gg1
  0
POLYLINE
  8
gg1
 62
1
 40
0.000000
 41
0.000000
 66
  1
  0
VERTEX
  8
gg1
 10
6.200000
 20
14.925000
  0
VERTEX
  8
gg1
 10
6.200000
 20
14.987500
  0
SEQEND
  8
gg1
  0
POLYLINE
  8
gg1
 62
1
 40
0.000000
 41
0.000000
 66
  1
  0
VERTEX
  8
gg1
 10
5.650000
 20
14.925000
  0
VERTEX
  8
gg1
 10
5.650000
 20
15.362500
  0
SEQEND
  8
gg1
  0
POLYLINE
  8
gg1
 62
1
 40
0.000000
 41
0.000000
 66
  1
  0
VERTEX
  8
gg1
 10
7.299100
 20
14.839000
  0
VERTEX
  8
gg1
 10
7.309100
 20
14.849000
  0
VERTEX
  8
gg1
 10
7.329100
 20
14.849000
  0
VERTEX
  8
gg1
 10
7.339000
 20
14.839000
  0
VERTEX
  8
gg1
 10
7.339000
 20
14.829000
  0
VERTEX
  8
gg1
 10
7.329100
 20
14.819000
  0
VERTEX
  8
gg1
 10
7.319100
 20
14.819000
  0
VERTEX
  8
gg1
 10
7.329100
 20
14.819000
  0
VERTEX
  8
gg1
 10
7.339000
 20
14.809000
  0
VERTEX
  8
gg1
 10
7.339000
 20
14.799000
  0
VERTEX
  8
gg1
 10
7.329100
 20
14.789000
  0
VERTEX
  8
gg1
 10
7.309100
 20
14.789000
  0
VERTEX
  8
gg1
 10
7.299100
 20
14.799000
  0
SEQEND
  8
gg1
  0
POLYLINE
  8
gg1
 62
1
 40
0.000000
 41
0.000000
 66
  1
  0
VERTEX
  8
gg1
 10
7.359000
 20
14.849000
  0
VERTEX
  8
gg1
 10
7.399000
 20
14.849000
  0
VERTEX
  8
gg1
 10
7.399000
 20
14.839000
  0
VERTEX
  8
gg1
 10
7.359000
 20
14.799000
  0
VERTEX
  8
gg1
 10
7.359000
 20
14.789000
  0
SEQEND
  8
gg1
  0
POLYLINE
  8
gg1
 62
1
 40
0.000000
 41
0.000000
 66
  1
  0
VERTEX
  8
gg1
 10
7.419000
 20
14.839000
  0
VERTEX
  8
gg1
 10
7.429000
 20
14.849000
  0
VERTEX
  8
gg1
 10
7.449000
 20
14.849000
  0
VERTEX
  8
gg1
 10
7.459000
 20
14.839000
  0
VERTEX
  8
gg1
 10
7.459000
 20
14.799000
  0
VERTEX
  8
gg1
 10
7.449000
 20
14.789000
  0
VERTEX
  8
gg1
 10
7.429000
 20
14.789000
  0
VERTEX
  8
gg1
 10
7.419000
 20
14.799000
  0
VERTEX
  8
gg1
 10
7.419000
 20
14.839000
  0
SEQEND
  8
gg1
  0
POLYLINE
  8
gg1
 62
1
 40
0.000000
 41
0.000000
 66
  1
  0
VERTEX
  8
gg1
 10
7.479000
 20
14.839000
  0
VERTEX
  8
gg1
 10
7.489000
 20
14.849000
  0
VERTEX
  8
gg1
 10
7.509000
 20
14.849000
  0
VERTEX
  8
gg1
 10
7.519000
 20
14.839000
  0
VERTEX
  8
gg1
 10
7.519000
 20
14.799000
  0
VERTEX
  8
gg1
 10
7.509000
 20
14.789000
  0
VERTEX
  8
gg1
 10
7.489000
 20
14.789000
  0
VERTEX
  8
gg1
 10
7.479000
 20
14.799000
  0
VERTEX
  8
gg1
 10
7.479000
 20
14.839000
  0
SEQEND
  8
gg1
  0
POLYLINE
  8
gg1
 62
1
 40
0.000000
 41
0.000000
 66
  1
  0
VERTEX
  8
gg1
 10
7.539000
 20
14.789000
  0
VERTEX
  8
gg1
 10
7.539000
 20
14.829000
  0
VERTEX
  8
gg1
 10
7.549000
 20
14.829000
  0
VERTEX
  8
gg1
 10
7.559000
 20
14.819000
  0
VERTEX
  8
gg1
 10
7.559000
 20
14.789000
  0
VERTEX
  8
gg1
 10
7.559000
 20
14.819000
  0
VERTEX
  8
gg1
 10
7.569000
 20
14.829000
  0
VERTEX
  8
gg1
 10
7.579000
 20
14.819000
  0
VERTEX
  8
gg1
 10
7.579000
 20
14.789000
  0
SEQEND
  8
gg1
  0
POLYLINE
  8
gg1
 62
1
 40
0.000000
 41
0.000000
 66
  1
  0
VERTEX
  8
gg1
 10
7.599000
 20
14.789000
  0
VERTEX
  8
gg1
 10
7.619000
 20
14.789000
  0
VERTEX
  8
gg1
 10
7.609000
 20
14.789000
  0
VERTEX
  8
gg1
 10
7.609000
 20
14.829000
  0
VERTEX
  8
gg1
 10
7.599000
 20
14.829000
  0
SEQEND
  8
gg1
  0
POLYLINE
  8
gg1
 62
1
 40
0.000000
 41
0.000000
 66
  1
  0
VERTEX
  8
gg1
 10
7.648900
 20
14.789000
  0
VERTEX
  8
gg1
 10
7.668900
 20
14.789000
  0
VERTEX
  8
gg1
 10
7.658900
 20
14.789000
  0
VERTEX
  8
gg1
 10
7.658900
 20
14.849000
  0
VERTEX
  8
gg1
 10
7.648900
 20
14.849000
  0
SEQEND
  8
gg1
  0
POLYLINE
  8
gg1
 62
1
 40
0.000000
 41
0.000000
 66
  1
  0
VERTEX
  8
gg1
 10
5.101000
 20
15.206500
  0
VERTEX
  8
gg1
 10
5.111000
 20
15.186500
  0
VERTEX
  8
gg1
 10
5.131000
 20
15.166500
  0
VERTEX
  8
gg1
 10
5.151000
 20
15.166500
  0
VERTEX
  8
gg1
 10
5.161000
 20
15.176500
  0
VERTEX
  8
gg1
 10
5.161000
 20
15.196500
  0
VERTEX
  8
gg1
 10
5.151000
 20
15.206500
  0
VERTEX
  8
gg1
 10
5.141000
 20
15.206500
  0
VERTEX
  8
gg1
 10
5.131000
 20
15.196500
  0
VERTEX
  8
gg1
 10
5.131000
 20
15.166500
  0
SEQEND
  8
gg1
  0
POLYLINE
  8
gg1
 62
1
 40
0.000000
 41
0.000000
 66
  1
  0
VERTEX
  8
gg1
 10
5.101000
 20
15.226500
  0
VERTEX
  8
gg1
 10
5.101000
 20
15.266500
  0
VERTEX
  8
gg1
 10
5.111000
 20
15.266500
  0
VERTEX
  8
gg1
 10
5.151000
 20
15.226500
  0
VERTEX
  8
gg1
 10
5.161000
 20
15.226500
  0
SEQEND
  8
gg1
  0
POLYLINE
  8
gg1
 62
1
 40
0.000000
 41
0.000000
 66
  1
  0
VERTEX
  8
gg1
 10
5.101000
 20
15.326500
  0
VERTEX
  8
gg1
 10
5.101000
 20
15.286500
  0
VERTEX
  8
gg1
 10
5.131000
 20
15.286500
  0
VERTEX
  8
gg1
 10
5.121000
 20
15.306500
  0
VERTEX
  8
gg1
 10
5.121000
 20
15.316500
  0
VERTEX
  8
gg1
 10
5.131000
 20
15.326500
  0
VERTEX
  8
gg1
 10
5.151000
 20
15.326500
  0
VERTEX
  8
gg1
 10
5.161000
 20
15.316500
  0
VERTEX
  8
gg1
 10
5.161000
 20
15.296500
  0
VERTEX
  8
gg1
 10
5.151000
 20
15.286500
  0
SEQEND
  8
gg1
  0
POLYLINE
  8
gg1
 62
1
 40
0.000000
 41
0.000000
 66
  1
  0
VERTEX
  8
gg1
 10
5.161000
 20
15.346500
  0
VERTEX
  8
gg1
 10
5.121000
 20
15.346500
  0
VERTEX
  8
gg1
 10
5.121000
 20
15.356500
  0
VERTEX
  8
gg1
 10
5.131000
 20
15.366500
  0
VERTEX
  8
gg1
 10
5.161000
 20
15.366500
  0
VERTEX
  8
gg1
 10
5.131000
 20
15.366500
  0
VERTEX
  8
gg1
 10
5.121000
 20
15.376500
  0
VERTEX
  8
gg1
 10
5.131000
 20
15.386500
  0
VERTEX
  8
gg1
 10
5.161000
 20
15.386500
  0
SEQEND
  8
gg1
  0
POLYLINE
  8
gg1
 62
1
 40
0.000000
 41
0.000000
 66
  1
  0
VERTEX
  8
gg1
 10
5.161000
 20
15.406500
  0
VERTEX
  8
gg1
 10
5.161000
 20
15.426500
  0
VERTEX
  8
gg1
 10
5.161000
 20
15.416500
  0
VERTEX
  8
gg1
 10
5.121000
 20
15.416500
  0
VERTEX
  8
gg1
 10
5.121000
 20
15.406500
  0
SEQEND
  8
gg1
  0
POLYLINE
  8
gg1
 62
1
 40
0.000000
 41
0.000000
 66
  1
  0
VERTEX
  8
gg1
 10
5.161000
 20
15.456500
  0
VERTEX
  8
gg1
 10
5.161000
 20
15.476400
  0
VERTEX
  8
gg1
 10
5.161000
 20
15.466500
  0
VERTEX
  8
gg1
 10
5.101000
 20
15.466500
  0
VERTEX
  8
gg1
 10
5.101000
 20
15.456500
  0
SEQEND
  8
gg1
  0
POLYLINE
  8
gg1
 62
1
 40
0.000000
 41
0.000000
 66
  1
  0
VERTEX
  8
gg1
 10
5.239700
 20
15.405700
  0
VERTEX
  8
gg1
 10
5.233000
 20
15.412400
  0
VERTEX
  8
gg1
 10
5.233000
 20
15.425700
  0
VERTEX
  8
gg1
 10
5.239700
 20
15.432400
  0
VERTEX
  8
gg1
 10
5.246400
 20
15.432400
  0
VERTEX
  8
gg1
 10
5.253000
 20
15.425700
  0
VERTEX
  8
gg1
 10
5.253000
 20
15.419000
  0
VERTEX
  8
gg1
 10
5.253000
 20
15.425700
  0
VERTEX
  8
gg1
 10
5.259700
 20
15.432400
  0
VERTEX
  8
gg1
 10
5.266300
 20
15.432400
  0
VERTEX
  8
gg1
 10
5.273000
 20
15.425700
  0
VERTEX
  8
gg1
 10
5.273000
 20
15.412400
  0
VERTEX
  8
gg1
 10
5.266300
 20
15.405700
  0
SEQEND
  8
gg1
  0
POLYLINE
  8
gg1
 62
1
 40
0.000000
 41
0.000000
 66
  1
  0
VERTEX
  8
gg1
 10
5.239700
 20
15.445700
  0
VERTEX
  8
gg1
 10
5.233000
 20
15.452400
  0
VERTEX
  8
gg1
 10
5.233000
 20
15.465700
  0
VERTEX
  8
gg1
 10
5.239700
 20
15.472300
  0
VERTEX
  8
gg1
 10
5.266300
 20
15.472300
  0
VERTEX
  8
gg1
 10
5.273000
 20
15.465700
  0
VERTEX
  8
gg1
 10
5.273000
 20
15.452400
  0
VERTEX
  8
gg1
 10
5.266300
 20
15.445700
  0
VERTEX
  8
gg1
 10
5.239700
 20
15.445700
  0
SEQEND
  8
gg1
  0
POLYLINE
  8
gg1
 62
1
 40
0.000000
 41
0.000000
 66
  1
  0
VERTEX
  8
gg1
 10
5.239700
 20
15.485700
  0
VERTEX
  8
gg1
 10
5.233000
 20
15.492300
  0
VERTEX
  8
gg1
 10
5.233000
 20
15.505700
  0
VERTEX
  8
gg1
 10
5.239700
 20
15.512300
  0
VERTEX
  8
gg1
 10
5.266300
 20
15.512300
  0
VERTEX
  8
gg1
 10
5.273000
 20
15.505700
  0
VERTEX
  8
gg1
 10
5.273000
 20
15.492300
  0
VERTEX
  8
gg1
 10
5.266300
 20
15.485700
  0
VERTEX
  8
gg1
 10
5.239700
 20
15.485700
  0
SEQEND
  8
gg1
  0
POLYLINE
  8
gg1
 62
1
 40
0.000000
 41
0.000000
 66
  1
  0
VERTEX
  8
gg1
 10
5.273000
 20
15.525700
  0
VERTEX
  8
gg1
 10
5.246400
 20
15.525700
  0
VERTEX
  8
gg1
 10
5.246400
 20
15.532300
  0
VERTEX
  8
gg1
 10
5.253000
 20
15.539000
  0
VERTEX
  8
gg1
 10
5.273000
 20
15.539000
  0
VERTEX
  8
gg1
 10
5.253000
 20
15.539000
  0
VERTEX
  8
gg1
 10
5.246400
 20
15.545700
  0
VERTEX
  8
gg1
 10
5.253000
 20
15.552300
  0
VERTEX
  8
gg1
 10
5.273000
 20
15.552300
  0
SEQEND
  8
gg1
  0
POLYLINE
  8
gg1
 62
1
 40
0.000000
 41
0.000000
 66
  1
  0
VERTEX
  8
gg1
 10
5.273000
 20
15.565600
  0
VERTEX
  8
gg1
 10
5.273000
 20
15.579000
  0
VERTEX
  8
gg1
 10
5.273000
 20
15.572300
  0
VERTEX
  8
gg1
 10
5.246400
 20
15.572300
  0
VERTEX
  8
gg1
 10
5.246400
 20
15.565600
  0
SEQEND
  8
gg1
  0
POLYLINE
  8
gg1
 62
1
 40
0.000000
 41
0.000000
 66
  1
  0
VERTEX
  8
gg1
 10
5.273000
 20
15.599000
  0
VERTEX
  8
gg1
 10
5.273000
 20
15.612300
  0
VERTEX
  8
gg1
 10
5.273000
 20
15.605600
  0
VERTEX
  8
gg1
 10
5.233000
 20
15.605600
  0
VERTEX
  8
gg1
 10
5.233000
 20
15.599000
  0
SEQEND
  8
gg1
  0
POLYLINE
  8
gg1
 62
1
 40
0.000000
 41
0.000000
 66
  1
  0
VERTEX
  8
gg1
 10
5.239700
 20
15.068200
  0
VERTEX
  8
gg1
 10
5.233000
 20
15.074900
  0
VERTEX
  8
gg1
 10
5.233000
 20
15.088200
  0
VERTEX
  8
gg1
 10
5.239700
 20
15.094900
  0
VERTEX
  8
gg1
 10
5.246400
 20
15.094900
  0
VERTEX
  8
gg1
 10
5.253000
 20
15.088200
  0
VERTEX
  8
gg1
 10
5.253000
 20
15.081500
  0
VERTEX
  8
gg1
 10
5.253000
 20
15.088200
  0
VERTEX
  8
gg1
 10
5.259700
 20
15.094900
  0
VERTEX
  8
gg1
 10
5.266300
 20
15.094900
  0
VERTEX
  8
gg1
 10
5.273000
 20
15.088200
  0
VERTEX
  8
gg1
 10
5.273000
 20
15.074900
  0
VERTEX
  8
gg1
 10
5.266300
 20
15.068200
  0
SEQEND
  8
gg1
  0
POLYLINE
  8
gg1
 62
1
 40
0.000000
 41
0.000000
 66
  1
  0
VERTEX
  8
gg1
 10
5.233000
 20
15.108200
  0
VERTEX
  8
gg1
 10
5.233000
 20
15.134800
  0
VERTEX
  8
gg1
 10
5.239700
 20
15.134800
  0
VERTEX
  8
gg1
 10
5.266300
 20
15.108200
  0
VERTEX
  8
gg1
 10
5.273000
 20
15.108200
  0
SEQEND
  8
gg1
  0
POLYLINE
  8
gg1
 62
1
 40
0.000000
 41
0.000000
 66
  1
  0
VERTEX
  8
gg1
 10
5.233000
 20
15.174800
  0
VERTEX
  8
gg1
 10
5.233000
 20
15.148200
  0
VERTEX
  8
gg1
 10
5.253000
 20
15.148200
  0
VERTEX
  8
gg1
 10
5.246400
 20
15.161500
  0
VERTEX
  8
gg1
 10
5.246400
 20
15.168200
  0
VERTEX
  8
gg1
 10
5.253000
 20
15.174800
  0
VERTEX
  8
gg1
 10
5.266300
 20
15.174800
  0
VERTEX
  8
gg1
 10
5.273000
 20
15.168200
  0
VERTEX
  8
gg1
 10
5.273000
 20
15.154800
  0
VERTEX
  8
gg1
 10
5.266300
 20
15.148200
  0
SEQEND
  8
gg1
  0
POLYLINE
  8
gg1
 62
1
 40
0.000000
 41
0.000000
 66
  1
  0
VERTEX
  8
gg1
 10
5.273000
 20
15.188200
  0
VERTEX
  8
gg1
 10
5.246400
 20
15.188200
  0
VERTEX
  8
gg1
 10
5.246400
 20
15.194800
  0
VERTEX
  8
gg1
 10
5.253000
 20
15.201500
  0
VERTEX
  8
gg1
 10
5.273000
 20
15.201500
  0
VERTEX
  8
gg1
 10
5.253000
 20
15.201500
  0
VERTEX
  8
gg1
 10
5.246400
 20
15.208200
  0
VERTEX
  8
gg1
 10
5.253000
 20
15.214800
  0
VERTEX
  8
gg1
 10
5.273000
 20
15.214800
  0
SEQEND
  8
gg1
  0
POLYLINE
  8
gg1
 62
1
 40
0.000000
 41
0.000000
 66
  1
  0
VERTEX
  8
gg1
 10
5.273000
 20
15.228100
  0
VERTEX
  8
gg1
 10
5.273000
 20
15.241500
  0
VERTEX
  8
gg1
 10
5.273000
 20
15.234800
  0
VERTEX
  8
gg1
 10
5.246400
 20
15.234800
  0
VERTEX
  8
gg1
 10
5.246400
 20
15.228100
  0
SEQEND
  8
gg1
  0
POLYLINE
  8
gg1
 62
1
 40
0.000000
 41
0.000000
 66
  1
  0
VERTEX
  8
gg1
 10
5.273000
 20
15.261500
  0
VERTEX
  8
gg1
 10
5.273000
 20
15.274800
  0
VERTEX
  8
gg1
 10
5.273000
 20
15.268100
  0
VERTEX
  8
gg1
 10
5.233000
 20
15.268100
  0
VERTEX
  8
gg1
 10
5.233000
 20
15.261500
  0
SEQEND
  8
gg1
  0
POLYLINE
  8
gg1
 62
1
 40
0.000000
 41
0.000000
 66
  1
  0
VERTEX
  8
gg1
 10
5.832400
 20
14.949000
  0
VERTEX
  8
gg1
 10
5.805700
 20
14.949000
  0
VERTEX
  8
gg1
 10
5.805700
 20
14.929000
  0
VERTEX
  8
gg1
 10
5.819000
 20
14.935700
  0
VERTEX
  8
gg1
 10
5.825700
 20
14.935700
  0
VERTEX
  8
gg1
 10
5.832400
 20
14.929000
  0
VERTEX
  8
gg1
 10
5.832400
 20
14.915700
  0
VERTEX
  8
gg1
 10
5.825700
 20
14.909000
  0
VERTEX
  8
gg1
 10
5.812400
 20
14.909000
  0
VERTEX
  8
gg1
 10
5.805700
 20
14.915700
  0
SEQEND
  8
gg1
  0
POLYLINE
  8
gg1
 62
1
 40
0.000000
 41
0.000000
 66
  1
  0
VERTEX
  8
gg1
 10
5.872300
 20
14.949000
  0
VERTEX
  8
gg1
 10
5.845700
 20
14.949000
  0
VERTEX
  8
gg1
 10
5.845700
 20
14.929000
  0
VERTEX
  8
gg1
 10
5.859000
 20
14.935700
  0
VERTEX
  8
gg1
 10
5.865700
 20
14.935700
  0
VERTEX
  8
gg1
 10
5.872300
 20
14.929000
  0
VERTEX
  8
gg1
 10
5.872300
 20
14.915700
  0
VERTEX
  8
gg1
 10
5.865700
 20
14.909000
  0
VERTEX
  8
gg1
 10
5.852400
 20
14.909000
  0
VERTEX
  8
gg1
 10
5.845700
 20
14.915700
  0
SEQEND
  8
gg1
  0
POLYLINE
  8
gg1
 62
1
 40
0.000000
 41
0.000000
 66
  1
  0
VERTEX
  8
gg1
 10
5.885700
 20
14.942300
  0
VERTEX
  8
gg1
 10
5.892300
 20
14.949000
  0
VERTEX
  8
gg1
 10
5.905700
 20
14.949000
  0
VERTEX
  8
gg1
 10
5.912300
 20
14.942300
  0
VERTEX
  8
gg1
 10
5.912300
 20
14.915700
  0
VERTEX
  8
gg1
 10
5.905700
 20
14.909000
  0
VERTEX
  8
gg1
 10
5.892300
 20
14.909000
  0
VERTEX
  8
gg1
 10
5.885700
 20
14.915700
  0
VERTEX
  8
gg1
 10
5.885700
 20
14.942300
  0
SEQEND
  8
gg1
  0
POLYLINE
  8
gg1
 62
1
 40
0.000000
 41
0.000000
 66
  1
  0
VERTEX
  8
gg1
 10
5.925700
 20
14.909000
  0
VERTEX
  8
gg1
 10
5.925700
 20
14.935700
  0
VERTEX
  8
gg1
 10
5.932300
 20
14.935700
  0
VERTEX
  8
gg1
 10
5.939000
 20
14.929000
  0
VERTEX
  8
gg1
 10
5.939000
 20
14.909000
  0
VERTEX
  8
gg1
 10
5.939000
 20
14.929000
  0
VERTEX
  8
gg1
 10
5.945700
 20
14.935700
  0
VERTEX
  8
gg1
 10
5.952300
 20
14.929000
  0
VERTEX
  8
gg1
 10
5.952300
 20
14.909000
  0
SEQEND
  8
gg1
  0
POLYLINE
  8
gg1
 62
1
 40
0.000000
 41
0.000000
 66
  1
  0
VERTEX
  8
gg1
 10
5.965600
 20
14.909000
  0
VERTEX
  8
gg1
 10
5.979000
 20
14.909000
  0
VERTEX
  8
gg1
 10
5.972300
 20
14.909000
  0
VERTEX
  8
gg1
 10
5.972300
 20
14.935700
  0
VERTEX
  8
gg1
 10
5.965600
 20
14.935700
  0
SEQEND
  8
gg1
  0
POLYLINE
  8
gg1
 62
1
 40
0.000000
 41
0.000000
 66
  1
  0
VERTEX
  8
gg1
 10
5.999000
 20
14.909000
  0
VERTEX
  8
gg1
 10
6.012300
 20
14.909000
  0
VERTEX
  8
gg1
 10
6.005600
 20
14.909000
  0
VERTEX
  8
gg1
 10
6.005600
 20
14.949000
  0
VERTEX
  8
gg1
 10
5.999000
 20
14.949000
  0
SEQEND
  8
gg1
  0
POLYLINE
  8
gg1
 62
1
 40
0.000000
 41
0.000000
 66
  1
  0
VERTEX
  8
gg1
 10
7.130000
 20
15.050000
  0
VERTEX
  8
gg1
 10
7.170000
 20
15.050000
  0
SEQEND
  8
gg1
  0
POLYLINE
  8
gg1
 62
1
 40
0.000000
 41
0.000000
 66
  1
  0
VERTEX
  8
gg1
 10
7.150000
 20
15.030000
  0
VERTEX
  8
gg1
 10
7.150000
 20
15.070000
  0
SEQEND
  8
gg1
  0
POLYLINE
  8
gg1
 62
1
 40
0.000000
 41
0.000000
 66
  1
  0
VERTEX
  8
gg1
 10
7.230000
 20
15.050000
  0
VERTEX
  8
gg1
 10
7.270000
 20
15.050000
  0
SEQEND
  8
gg1
  0
POLYLINE
  8
gg1
 62
1
 40
0.000000
 41
0.000000
 66
  1
  0
VERTEX
  8
gg1
 10
7.250000
 20
15.030000
  0
VERTEX
  8
gg1
 10
7.250000
 20
15.070000
  0
SEQEND
  8
gg1
  0
POLYLINE
  8
gg1
 62
1
 40
0.000000
 41
0.000000
 66
  1
  0
VERTEX
  8
gg1
 10
7.630000
 20
15.150000
  0
VERTEX
  8
gg1
 10
7.670000
 20
15.150000
  0
SEQEND
  8
gg1
  0
POLYLINE
  8
gg1
 62
1
 40
0.000000
 41
0.000000
 66
  1
  0
VERTEX
  8
gg1
 10
7.650000
 20
15.130000
  0
VERTEX
  8
gg1
 10
7.650000
 20
15.170000
  0
SEQEND
  8
gg1
  0
POLYLINE
  8
gg1
 62
1
 40
0.000000
 41
0.000000
 66
  1
  0
VERTEX
  8
gg1
 10
7.730000
 20
15.150000
  0
VERTEX
  8
gg1
 10
7.770000
 20
15.150000
  0
SEQEND
  8
gg1
  0
POLYLINE
  8
gg1
 62
1
 40
0.000000
 41
0.000000
 66
  1
  0
VERTEX
  8
gg1
 10
7.750000
 20
15.130000
  0
VERTEX
  8
gg1
 10
7.750000
 20
15.170000
  0
SEQEND
  8
gg1
  0
POLYLINE
  8
gg1
 62
1
 40
0.000000
 41
0.000000
 66
  1
  0
VERTEX
  8
gg1
 10
7.930000
 20
15.050000
  0
VERTEX
  8
gg1
 10
7.970000
 20
15.050000
  0
SEQEND
  8
gg1
  0
POLYLINE
  8
gg1
 62
1
 40
0.000000
 41
0.000000
 66
  1
  0
VERTEX
  8
gg1
 10
7.950000
 20
15.030000
  0
VERTEX
  8
gg1
 10
7.950000
 20
15.070000
  0
SEQEND
  8
gg1
  0
POLYLINE
  8
gg1
 62
1
 40
0.000000
 41
0.000000
 66
  1
  0
VERTEX
  8
gg1
 10
8.330000
 20
15.425000
  0
VERTEX
  8
gg1
 10
8.370000
 20
15.425000
  0
SEQEND
  8
gg1
  0
POLYLINE
  8
gg1
 62
1
 40
0.000000
 41
0.000000
 66
  1
  0
VERTEX
  8
gg1
 10
8.350000
 20
15.405000
  0
VERTEX
  8
gg1
 10
8.350000
 20
15.445000
  0
SEQEND
  8
gg1
  0
POLYLINE
  8
gg1
 62
1
 40
0.000000
 41
0.000000
 66
  1
  0
VERTEX
  8
gg1
 10
6.930000
 20
15.050000
  0
VERTEX
  8
gg1
 10
6.970000
 20
15.050000
  0
SEQEND
  8
gg1
  0
POLYLINE
  8
gg1
 62
1
 40
0.000000
 41
0.000000
 66
  1
  0
VERTEX
  8
gg1
 10
6.950000
 20
15.030000
  0
VERTEX
  8
gg1
 10
6.950000
 20
15.070000
  0
SEQEND
  8
gg1
  0
POLYLINE
  8
gg1
 62
1
 40
0.000000
 41
0.000000
 66
  1
  0
VERTEX
  8
gg1
 10
8.330000
 20
15.600000
  0
VERTEX
  8
gg1
 10
8.370000
 20
15.600000
  0
SEQEND
  8
gg1
  0
POLYLINE
  8
gg1
 62
1
 40
0.000000
 41
0.000000
 66
  1
  0
VERTEX
  8
gg1
 10
8.350000
 20
15.580000
  0
VERTEX
  8
gg1
 10
8.350000
 20
15.620000
  0
SEQEND
  8
gg1
  0
POLYLINE
  8
gg1
 62
1
 40
0.000000
 41
0.000000
 66
  1
  0
VERTEX
  8
gg1
 10
7.330000
 20
15.050000
  0
VERTEX
  8
gg1
 10
7.370000
 20
15.050000
  0
SEQEND
  8
gg1
  0
POLYLINE
  8
gg1
 62
1
 40
0.000000
 41
0.000000
 66
  1
  0
VERTEX
  8
gg1
 10
7.350000
 20
15.030000
  0
VERTEX
  8
gg1
 10
7.350000
 20
15.070000
  0
SEQEND
  8
gg1
  0
POLYLINE
  8
gg1
 62
1
 40
0.000000
 41
0.000000
 66
  1
  0
VERTEX
  8
gg1
 10
7.130000
 20
15.425000
  0
VERTEX
  8
gg1
 10
7.170000
 20
15.425000
  0
SEQEND
  8
gg1
  0
POLYLINE
  8
gg1
 62
1
 40
0.000000
 41
0.000000
 66
  1
  0
VERTEX
  8
gg1
 10
7.150000
 20
15.405000
  0
VERTEX
  8
gg1
 10
7.150000
 20
15.445000
  0
SEQEND
  8
gg1
  0
POLYLINE
  8
gg1
 62
1
 40
0.000000
 41
0.000000
 66
  1
  0
VERTEX
  8
gg1
 10
6.930000
 20
15.150000
  0
VERTEX
  8
gg1
 10
6.970000
 20
15.150000
  0
SEQEND
  8
gg1
  0
POLYLINE
  8
gg1
 62
1
 40
0.000000
 41
0.000000
 66
  1
  0
VERTEX
  8
gg1
 10
6.950000
 20
15.130000
  0
VERTEX
  8
gg1
 10
6.950000
 20
15.170000
  0
SEQEND
  8
gg1
  0
POLYLINE
  8
gg1
 62
1
 40
0.000000
 41
0.000000
 66
  1
  0
VERTEX
  8
gg1
 10
6.730000
 20
15.600000
  0
VERTEX
  8
gg1
 10
6.770000
 20
15.600000
  0
SEQEND
  8
gg1
  0
POLYLINE
  8
gg1
 62
1
 40
0.000000
 41
0.000000
 66
  1
  0
VERTEX
  8
gg1
 10
6.750000
 20
15.580000
  0
VERTEX
  8
gg1
 10
6.750000
 20
15.620000
  0
SEQEND
  8
gg1
  0
POLYLINE
  8
gg1
 62
1
 40
0.000000
 41
0.000000
 66
  1
  0
VERTEX
  8
gg1
 10
7.030000
 20
15.050000
  0
VERTEX
  8
gg1
 10
7.070000
 20
15.050000
  0
SEQEND
  8
gg1
  0
POLYLINE
  8
gg1
 62
1
 40
0.000000
 41
0.000000
 66
  1
  0
VERTEX
  8
gg1
 10
7.050000
 20
15.030000
  0
VERTEX
  8
gg1
 10
7.050000
 20
15.070000
  0
SEQEND
  8
gg1
  0
POLYLINE
  8
gg1
 62
1
 40
0.000000
 41
0.000000
 66
  1
  0
VERTEX
  8
gg1
 10
6.730000
 20
15.425000
  0
VERTEX
  8
gg1
 10
6.770000
 20
15.425000
  0
SEQEND
  8
gg1
  0
POLYLINE
  8
gg1
 62
1
 40
0.000000
 41
0.000000
 66
  1
  0
VERTEX
  8
gg1
 10
6.750000
 20
15.405000
  0
VERTEX
  8
gg1
 10
6.750000
 20
15.445000
  0
SEQEND
  8
gg1
  0
POLYLINE
  8
gg1
 62
1
 40
0.000000
 41
0.000000
 66
  1
  0
VERTEX
  8
gg1
 10
7.030000
 20
15.150000
  0
VERTEX
  8
gg1
 10
7.070000
 20
15.150000
  0
SEQEND
  8
gg1
  0
POLYLINE
  8
gg1
 62
1
 40
0.000000
 41
0.000000
 66
  1
  0
VERTEX
  8
gg1
 10
7.050000
 20
15.130000
  0
VERTEX
  8
gg1
 10
7.050000
 20
15.170000
  0
SEQEND
  8
gg1
  0
POLYLINE
  8
gg1
 62
1
 40
0.000000
 41
0.000000
 66
  1
  0
VERTEX
  8
gg1
 10
6.230000
 20
15.150000
  0
VERTEX
  8
gg1
 10
6.270000
 20
15.150000
  0
SEQEND
  8
gg1
  0
POLYLINE
  8
gg1
 62
1
 40
0.000000
 41
0.000000
 66
  1
  0
VERTEX
  8
gg1
 10
6.250000
 20
15.130000
  0
VERTEX
  8
gg1
 10
6.250000
 20
15.170000
  0
SEQEND
  8
gg1
  0
POLYLINE
  8
gg1
 62
1
 40
0.000000
 41
0.000000
 66
  1
  0
VERTEX
  8
gg1
 10
7.930000
 20
15.150000
  0
VERTEX
  8
gg1
 10
7.970000
 20
15.150000
  0
SEQEND
  8
gg1
  0
POLYLINE
  8
gg1
 62
1
 40
0.000000
 41
0.000000
 66
  1
  0
VERTEX
  8
gg1
 10
7.950000
 20
15.130000
  0
VERTEX
  8
gg1
 10
7.950000
 20
15.170000
  0
SEQEND
  8
gg1
  0
POLYLINE
  8
gg1
 62
1
 40
0.000000
 41
0.000000
 66
  1
  0
VERTEX
  8
gg1
 10
8.730000
 20
15.150000
  0
VERTEX
  8
gg1
 10
8.770000
 20
15.150000
  0
SEQEND
  8
gg1
  0
POLYLINE
  8
gg1
 62
1
 40
0.000000
 41
0.000000
 66
  1
  0
VERTEX
  8
gg1
 10
8.750000
 20
15.130000
  0
VERTEX
  8
gg1
 10
8.750000
 20
15.170000
  0
SEQEND
  8
gg1
  0
POLYLINE
  8
gg1
 62
1
 40
0.000000
 41
0.000000
 66
  1
  0
VERTEX
  8
gg1
 10
7.130000
 20
15.150000
  0
VERTEX
  8
gg1
 10
7.170000
 20
15.150000
  0
SEQEND
  8
gg1
  0
POLYLINE
  8
gg1
 62
1
 40
0.000000
 41
0.000000
 66
  1
  0
VERTEX
  8
gg1
 10
7.150000
 20
15.130000
  0
VERTEX
  8
gg1
 10
7.150000
 20
15.170000
  0
SEQEND
  8
gg1
  0
POLYLINE
  8
gg1
 62
1
 40
0.000000
 41
0.000000
 66
  1
  0
VERTEX
  8
gg1
 10
7.230000
 20
15.150000
  0
VERTEX
  8
gg1
 10
7.270000
 20
15.150000
  0
SEQEND
  8
gg1
  0
POLYLINE
  8
gg1
 62
1
 40
0.000000
 41
0.000000
 66
  1
  0
VERTEX
  8
gg1
 10
7.250000
 20
15.130000
  0
VERTEX
  8
gg1
 10
7.250000
 20
15.170000
  0
SEQEND
  8
gg1
  0
POLYLINE
  8
gg1
 62
1
 40
0.000000
 41
0.000000
 66
  1
  0
VERTEX
  8
gg1
 10
7.330000
 20
15.150000
  0
VERTEX
  8
gg1
 10
7.370000
 20
15.150000
  0
SEQEND
  8
gg1
  0
POLYLINE
  8
gg1
 62
1
 40
0.000000
 41
0.000000
 66
  1
  0
VERTEX
  8
gg1
 10
7.350000
 20
15.130000
  0
VERTEX
  8
gg1
 10
7.350000
 20
15.170000
  0
SEQEND
  8
gg1
  0
POLYLINE
  8
gg1
 62
1
 40
0.000000
 41
0.000000
 66
  1
  0
VERTEX
  8
gg1
 10
7.630000
 20
15.050000
  0
VERTEX
  8
gg1
 10
7.670000
 20
15.050000
  0
SEQEND
  8
gg1
  0
POLYLINE
  8
gg1
 62
1
 40
0.000000
 41
0.000000
 66
  1
  0
VERTEX
  8
gg1
 10
7.650000
 20
15.030000
  0
VERTEX
  8
gg1
 10
7.650000
 20
15.070000
  0
SEQEND
  8
gg1
  0
POLYLINE
  8
gg1
 62
1
 40
0.000000
 41
0.000000
 66
  1
  0
VERTEX
  8
gg1
 10
6.630000
 20
15.600000
  0
VERTEX
  8
gg1
 10
6.670000
 20
15.600000
  0
SEQEND
  8
gg1
  0
POLYLINE
  8
gg1
 62
1
 40
0.000000
 41
0.000000
 66
  1
  0
VERTEX
  8
gg1
 10
6.650000
 20
15.580000
  0
VERTEX
  8
gg1
 10
6.650000
 20
15.620000
  0
SEQEND
  8
gg1
  0
POLYLINE
  8
gg1
 62
1
 40
0.000000
 41
0.000000
 66
  1
  0
VERTEX
  8
gg1
 10
8.230000
 20
15.600000
  0
VERTEX
  8
gg1
 10
8.270000
 20
15.600000
  0
SEQEND
  8
gg1
  0
POLYLINE
  8
gg1
 62
1
 40
0.000000
 41
0.000000
 66
  1
  0
VERTEX
  8
gg1
 10
8.250000
 20
15.580000
  0
VERTEX
  8
gg1
 10
8.250000
 20
15.620000
  0
SEQEND
  8
gg1
  0
POLYLINE
  8
gg1
 62
1
 40
0.000000
 41
0.000000
 66
  1
  0
VERTEX
  8
gg1
 10
6.230000
 20
15.050000
  0
VERTEX
  8
gg1
 10
6.270000
 20
15.050000
  0
SEQEND
  8
gg1
  0
POLYLINE
  8
gg1
 62
1
 40
0.000000
 41
0.000000
 66
  1
  0
VERTEX
  8
gg1
 10
6.250000
 20
15.030000
  0
VERTEX
  8
gg1
 10
6.250000
 20
15.070000
  0
SEQEND
  8
gg1
  0
POLYLINE
  8
gg1
 62
1
 40
0.000000
 41
0.000000
 66
  1
  0
VERTEX
  8
gg1
 10
6.230000
 20
15.250000
  0
VERTEX
  8
gg1
 10
6.270000
 20
15.250000
  0
SEQEND
  8
gg1
  0
POLYLINE
  8
gg1
 62
1
 40
0.000000
 41
0.000000
 66
  1
  0
VERTEX
  8
gg1
 10
6.250000
 20
15.230000
  0
VERTEX
  8
gg1
 10
6.250000
 20
15.270000
  0
SEQEND
  8
gg1
  0
POLYLINE
  8
gg1
 62
1
 40
0.000000
 41
0.000000
 66
  1
  0
VERTEX
  8
gg1
 10
8.730000
 20
15.050000
  0
VERTEX
  8
gg1
 10
8.770000
 20
15.050000
  0
SEQEND
  8
gg1
  0
POLYLINE
  8
gg1
 62
1
 40
0.000000
 41
0.000000
 66
  1
  0
VERTEX
  8
gg1
 10
8.750000
 20
15.030000
  0
VERTEX
  8
gg1
 10
8.750000
 20
15.070000
  0
SEQEND
  8
gg1
  0
POLYLINE
  8
gg1
 62
1
 40
0.000000
 41
0.000000
 66
  1
  0
VERTEX
  8
gg1
 10
8.730000
 20
15.250000
  0
VERTEX
  8
gg1
 10
8.770000
 20
15.250000
  0
SEQEND
  8
gg1
  0
POLYLINE
  8
gg1
 62
1
 40
0.000000
 41
0.000000
 66
  1
  0
VERTEX
  8
gg1
 10
8.750000
 20
15.230000
  0
VERTEX
  8
gg1
 10
8.750000
 20
15.270000
  0
SEQEND
  8
gg1
  0
POLYLINE
  8
gg1
 62
1
 40
0.000000
 41
0.000000
 66
  1
  0
VERTEX
  8
gg1
 10
7.030000
 20
15.425000
  0
VERTEX
  8
gg1
 10
7.070000
 20
15.425000
  0
SEQEND
  8
gg1
  0
POLYLINE
  8
gg1
 62
1
 40
0.000000
 41
0.000000
 66
  1
  0
VERTEX
  8
gg1
 10
7.050000
 20
15.405000
  0
VERTEX
  8
gg1
 10
7.050000
 20
15.445000
  0
SEQEND
  8
gg1
  0
POLYLINE
  8
gg1
 62
1
 40
0.000000
 41
0.000000
 66
  1
  0
VERTEX
  8
gg1
 10
7.830000
 20
15.150000
  0
VERTEX
  8
gg1
 10
7.870000
 20
15.150000
  0
SEQEND
  8
gg1
  0
POLYLINE
  8
gg1
 62
1
 40
0.000000
 41
0.000000
 66
  1
  0
VERTEX
  8
gg1
 10
7.850000
 20
15.130000
  0
VERTEX
  8
gg1
 10
7.850000
 20
15.170000
  0
SEQEND
  8
gg1
  0
POLYLINE
  8
gg1
 62
1
 40
0.000000
 41
0.000000
 66
  1
  0
VERTEX
  8
gg1
 10
8.030000
 20
15.150000
  0
VERTEX
  8
gg1
 10
8.070000
 20
15.150000
  0
SEQEND
  8
gg1
  0
POLYLINE
  8
gg1
 62
1
 40
0.000000
 41
0.000000
 66
  1
  0
VERTEX
  8
gg1
 10
8.050000
 20
15.130000
  0
VERTEX
  8
gg1
 10
8.050000
 20
15.170000
  0
SEQEND
  8
gg1
  0
POLYLINE
  8
gg1
 62
1
 40
0.000000
 41
0.000000
 66
  1
  0
VERTEX
  8
gg1
 10
7.530000
 20
15.150000
  0
VERTEX
  8
gg1
 10
7.570000
 20
15.150000
  0
SEQEND
  8
gg1
  0
POLYLINE
  8
gg1
 62
1
 40
0.000000
 41
0.000000
 66
  1
  0
VERTEX
  8
gg1
 10
7.550000
 20
15.130000
  0
VERTEX
  8
gg1
 10
7.550000
 20
15.170000
  0
SEQEND
  8
gg1
  0
POLYLINE
  8
gg1
 62
1
 40
0.000000
 41
0.000000
 66
  1
  0
VERTEX
  8
gg1
 10
7.430000
 20
15.150000
  0
VERTEX
  8
gg1
 10
7.470000
 20
15.150000
  0
SEQEND
  8
gg1
  0
POLYLINE
  8
gg1
 62
1
 40
0.000000
 41
0.000000
 66
  1
  0
VERTEX
  8
gg1
 10
7.450000
 20
15.130000
  0
VERTEX
  8
gg1
 10
7.450000
 20
15.170000
  0
SEQEND
  8
gg1
  0
POLYLINE
  8
gg1
 62
1
 40
0.000000
 41
0.000000
 66
  1
  0
VERTEX
  8
gg1
 10
7.730000
 20
15.050000
  0
VERTEX
  8
gg1
 10
7.770000
 20
15.050000
  0
SEQEND
  8
gg1
  0
POLYLINE
  8
gg1
 62
1
 40
0.000000
 41
0.000000
 66
  1
  0
VERTEX
  8
gg1
 10
7.750000
 20
15.030000
  0
VERTEX
  8
gg1
 10
7.750000
 20
15.070000
  0
SEQEND
  8
gg1
  0
POLYLINE
  8
gg1
 62
1
 40
0.000000
 41
0.000000
 66
  1
  0
VERTEX
  8
gg1
 10
7.830000
 20
15.050000
  0
VERTEX
  8
gg1
 10
7.870000
 20
15.050000
  0
SEQEND
  8
gg1
  0
POLYLINE
  8
gg1
 62
1
 40
0.000000
 41
0.000000
 66
  1
  0
VERTEX
  8
gg1
 10
7.850000
 20
15.030000
  0
VERTEX
  8
gg1
 10
7.850000
 20
15.070000
  0
SEQEND
  8
gg1
  0
POLYLINE
  8
gg1
 62
1
 40
0.000000
 41
0.000000
 66
  1
  0
VERTEX
  8
gg1
 10
8.030000
 20
15.050000
  0
VERTEX
  8
gg1
 10
8.070000
 20
15.050000
  0
SEQEND
  8
gg1
  0
POLYLINE
  8
gg1
 62
1
 40
0.000000
 41
0.000000
 66
  1
  0
VERTEX
  8
gg1
 10
8.050000
 20
15.030000
  0
VERTEX
  8
gg1
 10
8.050000
 20
15.070000
  0
SEQEND
  8
gg1
  0
POLYLINE
  8
gg1
 62
1
 40
0.000000
 41
0.000000
 66
  1
  0
VERTEX
  8
gg1
 10
7.530000
 20
15.050000
  0
VERTEX
  8
gg1
 10
7.570000
 20
15.050000
  0
SEQEND
  8
gg1
  0
POLYLINE
  8
gg1
 62
1
 40
0.000000
 41
0.000000
 66
  1
  0
VERTEX
  8
gg1
 10
7.550000
 20
15.030000
  0
VERTEX
  8
gg1
 10
7.550000
 20
15.070000
  0
SEQEND
  8
gg1
  0
POLYLINE
  8
gg1
 62
1
 40
0.000000
 41
0.000000
 66
  1
  0
VERTEX
  8
gg1
 10
7.430000
 20
15.050000
  0
VERTEX
  8
gg1
 10
7.470000
 20
15.050000
  0
SEQEND
  8
gg1
  0
POLYLINE
  8
gg1
 62
1
 40
0.000000
 41
0.000000
 66
  1
  0
VERTEX
  8
gg1
 10
7.450000
 20
15.030000
  0
VERTEX
  8
gg1
 10
7.450000
 20
15.070000
  0
SEQEND
  8
gg1
  0
POLYLINE
  8
gg1
 62
1
 40
0.000000
 41
0.000000
 66
  1
  0
VERTEX
  8
gg1
 10
8.230000
 20
15.425000
  0
VERTEX
  8
gg1
 10
8.270000
 20
15.425000
  0
SEQEND
  8
gg1
  0
POLYLINE
  8
gg1
 62
1
 40
0.000000
 41
0.000000
 66
  1
  0
VERTEX
  8
gg1
 10
8.250000
 20
15.405000
  0
VERTEX
  8
gg1
 10
8.250000
 20
15.445000
  0
SEQEND
  8
gg1
  0
POLYLINE
  8
gg1
 62
1
 40
0.000000
 41
0.000000
 66
  1
  0
VERTEX
  8
gg1
 10
7.930000
 20
15.425000
  0
VERTEX
  8
gg1
 10
7.970000
 20
15.425000
  0
SEQEND
  8
gg1
  0
POLYLINE
  8
gg1
 62
1
 40
0.000000
 41
0.000000
 66
  1
  0
VERTEX
  8
gg1
 10
7.950000
 20
15.405000
  0
VERTEX
  8
gg1
 10
7.950000
 20
15.445000
  0
SEQEND
  8
gg1
  0
POLYLINE
  8
gg1
 62
1
 40
0.000000
 41
0.000000
 66
  1
  0
VERTEX
  8
gg1
 10
7.830000
 20
15.425000
  0
VERTEX
  8
gg1
 10
7.870000
 20
15.425000
  0
SEQEND
  8
gg1
  0
POLYLINE
  8
gg1
 62
1
 40
0.000000
 41
0.000000
 66
  1
  0
VERTEX
  8
gg1
 10
7.850000
 20
15.405000
  0
VERTEX
  8
gg1
 10
7.850000
 20
15.445000
  0
SEQEND
  8
gg1
  0
POLYLINE
  8
gg1
 62
1
 40
0.000000
 41
0.000000
 66
  1
  0
VERTEX
  8
gg1
 10
6.630000
 20
15.425000
  0
VERTEX
  8
gg1
 10
6.670000
 20
15.425000
  0
SEQEND
  8
gg1
  0
POLYLINE
  8
gg1
 62
1
 40
0.000000
 41
0.000000
 66
  1
  0
VERTEX
  8
gg1
 10
6.650000
 20
15.405000
  0
VERTEX
  8
gg1
 10
6.650000
 20
15.445000
  0
SEQEND
  8
gg1
  0
POLYLINE
  8
gg1
 62
1
 40
0.000000
 41
0.000000
 66
  1
  0
VERTEX
  8
gg1
 10
6.457000
 20
15.100000
  0
VERTEX
  8
gg1
 10
6.543000
 20
15.100000
  0
SEQEND
  8
gg1
  0
POLYLINE
  8
gg1
 62
1
 40
0.000000
 41
0.000000
 66
  1
  0
VERTEX
  8
gg1
 10
6.500000
 20
15.057000
  0
VERTEX
  8
gg1
 10
6.500000
 20
15.143000
  0
SEQEND
  8
gg1
  0
POLYLINE
  8
gg1
 62
1
 40
0.000000
 41
0.000000
 66
  1
  0
VERTEX
  8
gg1
 10
8.457000
 20
15.100000
  0
VERTEX
  8
gg1
 10
8.543000
 20
15.100000
  0
SEQEND
  8
gg1
  0
POLYLINE
  8
gg1
 62
1
 40
0.000000
 41
0.000000
 66
  1
  0
VERTEX
  8
gg1
 10
8.500000
 20
15.057000
  0
VERTEX
  8
gg1
 10
8.500000
 20
15.143000
  0
SEQEND
  8
gg1
  0
POLYLINE
  8
gg1
 62
1
 40
0.000000
 41
0.000000
 66
  1
  0
VERTEX
  8
gg1
 10
6.330000
 20
15.625000
  0
VERTEX
  8
gg1
 10
6.370000
 20
15.625000
  0
SEQEND
  8
gg1
  0
POLYLINE
  8
gg1
 62
1
 40
0.000000
 41
0.000000
 66
  1
  0
VERTEX
  8
gg1
 10
6.350000
 20
15.605000
  0
VERTEX
  8
gg1
 10
6.350000
 20
15.645000
  0
SEQEND
  8
gg1
  0
POLYLINE
  8
gg1
 62
1
 40
0.000000
 41
0.000000
 66
  1
  0
VERTEX
  8
gg1
 10
6.330000
 20
15.525000
  0
VERTEX
  8
gg1
 10
6.370000
 20
15.525000
  0
SEQEND
  8
gg1
  0
POLYLINE
  8
gg1
 62
1
 40
0.000000
 41
0.000000
 66
  1
  0
VERTEX
  8
gg1
 10
6.350000
 20
15.505000
  0
VERTEX
  8
gg1
 10
6.350000
 20
15.545000
  0
SEQEND
  8
gg1
  0
POLYLINE
  8
gg1
 62
1
 40
0.000000
 41
0.000000
 66
  1
  0
VERTEX
  8
gg1
 10
6.330000
 20
15.425000
  0
VERTEX
  8
gg1
 10
6.370000
 20
15.425000
  0
SEQEND
  8
gg1
  0
POLYLINE
  8
gg1
 62
1
 40
0.000000
 41
0.000000
 66
  1
  0
VERTEX
  8
gg1
 10
6.350000
 20
15.405000
  0
VERTEX
  8
gg1
 10
6.350000
 20
15.445000
  0
SEQEND
  8
gg1
  0
POLYLINE
  8
gg1
 62
1
 40
0.000000
 41
0.000000
 66
  1
  0
VERTEX
  8
gg1
 10
7.380000
 20
15.300000
  0
VERTEX
  8
gg1
 10
7.420000
 20
15.300000
  0
SEQEND
  8
gg1
  0
POLYLINE
  8
gg1
 62
1
 40
0.000000
 41
0.000000
 66
  1
  0
VERTEX
  8
gg1
 10
7.400000
 20
15.280000
  0
VERTEX
  8
gg1
 10
7.400000
 20
15.320000
  0
SEQEND
  8
gg1
  0
POLYLINE
  8
gg1
 62
1
 40
0.000000
 41
0.000000
 66
  1
  0
VERTEX
  8
gg1
 10
7.480000
 20
15.300000
  0
VERTEX
  8
gg1
 10
7.520000
 20
15.300000
  0
SEQEND
  8
gg1
  0
POLYLINE
  8
gg1
 62
1
 40
0.000000
 41
0.000000
 66
  1
  0
VERTEX
  8
gg1
 10
7.500000
 20
15.280000
  0
VERTEX
  8
gg1
 10
7.500000
 20
15.320000
  0
SEQEND
  8
gg1
  0
POLYLINE
  8
gg1
 62
1
 40
0.000000
 41
0.000000
 66
  1
  0
VERTEX
  8
gg1
 10
7.580000
 20
15.300000
  0
VERTEX
  8
gg1
 10
7.620000
 20
15.300000
  0
SEQEND
  8
gg1
  0
POLYLINE
  8
gg1
 62
1
 40
0.000000
 41
0.000000
 66
  1
  0
VERTEX
  8
gg1
 10
7.600000
 20
15.280000
  0
VERTEX
  8
gg1
 10
7.600000
 20
15.320000
  0
SEQEND
  8
gg1
  0
POLYLINE
  8
gg1
 62
1
 40
0.000000
 41
0.000000
 66
  1
  0
VERTEX
  8
gg1
 10
8.630000
 20
15.425000
  0
VERTEX
  8
gg1
 10
8.670000
 20
15.425000
  0
SEQEND
  8
gg1
  0
POLYLINE
  8
gg1
 62
1
 40
0.000000
 41
0.000000
 66
  1
  0
VERTEX
  8
gg1
 10
8.650000
 20
15.405000
  0
VERTEX
  8
gg1
 10
8.650000
 20
15.445000
  0
SEQEND
  8
gg1
  0
POLYLINE
  8
gg1
 62
1
 40
0.000000
 41
0.000000
 66
  1
  0
VERTEX
  8
gg1
 10
8.630000
 20
15.525000
  0
VERTEX
  8
gg1
 10
8.670000
 20
15.525000
  0
SEQEND
  8
gg1
  0
POLYLINE
  8
gg1
 62
1
 40
0.000000
 41
0.000000
 66
  1
  0
VERTEX
  8
gg1
 10
8.650000
 20
15.505000
  0
VERTEX
  8
gg1
 10
8.650000
 20
15.545000
  0
SEQEND
  8
gg1
  0
POLYLINE
  8
gg1
 62
1
 40
0.000000
 41
0.000000
 66
  1
  0
VERTEX
  8
gg1
 10
8.630000
 20
15.625000
  0
VERTEX
  8
gg1
 10
8.670000
 20
15.625000
  0
SEQEND
  8
gg1
  0
POLYLINE
  8
gg1
 62
1
 40
0.000000
 41
0.000000
 66
  1
  0
VERTEX
  8
gg1
 10
8.650000
 20
15.605000
  0
VERTEX
  8
gg1
 10
8.650000
 20
15.645000
  0
SEQEND
  8
gg1
  0
ENDSEC
  0
EOF
