  0
SECTION
  2
HEADER
  9
$EXTMIN
 10
7.398000
 20
14.886000
  9
$EXTMAX
 10
8.305000
 20
15.705000
  9
$LIMMIN
 10
7.398000
 20
14.886000
  9
$LIMMAX
 10
8.305000
 20
15.705000
  9
$FILLMODE
 70
  1
  0
ENDSEC
  0
SECTION
  2
TABLES
  0
TABLE
  2
LTYPE
 70
  1
  0
LTYPE
  2
CONTINUOUS
 70
 64
  3
Solid line
 72
 65
 73
  0
 40
0.0
  0
ENDTAB
  0
TABLE
  2
LAYER
 70
 1
  0
LAYER
  2
0
 70
  0
 62
7
  6
CONTINUOUS
  0
LAYER
  2
gg1
 70
  0
 62
1
  6
CONTINUOUS
  0
ENDTAB
  0
TABLE
  2
STYLE
 70
  1
  0
STYLE
  2
STANDARD
 70
  0
 40
0.0
 41
1.0
 50
0.0
 71
  0
 42
0.2
  3
txt
  4

  0
ENDTAB
  0
ENDSEC
  0
SECTION
  2
BLOCKS
  0
BLOCK
  8
0
  2
D10
 70
64
 10
0.0
 20
0.0
  3
D10
  0
CIRCLE
  8
0
 10
0.000000
 20
0.000000
 40
0.004000
 0
ENDBLK
  8
0
  0
BLOCK
  8
0
  2
D11
 70
64
 10
0.0
 20
0.0
  3
D11
  0
CIRCLE
  8
0
 10
0.000000
 20
0.000000
 40
0.005000
 0
ENDBLK
  8
0
  0
BLOCK
  8
0
  2
D12
 70
64
 10
0.0
 20
0.0
  3
D12
  0
CIRCLE
  8
0
 10
0.000000
 20
0.000000
 40
0.003000
 0
ENDBLK
  8
0
  0
BLOCK
  8
0
  2
D13
 70
64
 10
0.0
 20
0.0
  3
D13
  0
CIRCLE
  8
0
 10
0.000000
 20
0.000000
 40
0.001000
 0
ENDBLK
  8
0
  0
ENDSEC
  0
SECTION
  2
ENTITIES
  0
POLYLINE
  8
gg1
 62
1
 40
0.000000
 41
0.000000
 66
  1
  0
VERTEX
  8
gg1
 10
7.500000
 20
15.000000
  0
VERTEX
  8
gg1
 10
7.500000
 20
15.700000
  0
VERTEX
  8
gg1
 10
8.300000
 20
15.700000
  0
SEQEND
  8
gg1
  0
POLYLINE
  8
gg1
 62
1
 40
0.000000
 41
0.000000
 66
  1
  0
VERTEX
  8
gg1
 10
8.300000
 20
15.000000
  0
VERTEX
  8
gg1
 10
8.300000
 20
15.700000
  0
SEQEND
  8
gg1
  0
POLYLINE
  8
gg1
 62
1
 40
0.000000
 41
0.000000
 66
  1
  0
VERTEX
  8
gg1
 10
7.500000
 20
15.000000
  0
VERTEX
  8
gg1
 10
8.300000
 20
15.000000
  0
SEQEND
  8
gg1
  0
POLYLINE
  8
gg1
 62
1
 40
0.000000
 41
0.000000
 66
  1
  0
VERTEX
  8
gg1
 10
7.405000
 20
15.060000
  0
VERTEX
  8
gg1
 10
7.425000
 20
15.000000
  0
VERTEX
  8
gg1
 10
7.445000
 20
15.060000
  0
SEQEND
  8
gg1
  0
POLYLINE
  8
gg1
 62
1
 40
0.000000
 41
0.000000
 66
  1
  0
VERTEX
  8
gg1
 10
7.425000
 20
15.700000
  0
VERTEX
  8
gg1
 10
7.445000
 20
15.640000
  0
SEQEND
  8
gg1
  0
POLYLINE
  8
gg1
 62
1
 40
0.000000
 41
0.000000
 66
  1
  0
VERTEX
  8
gg1
 10
7.405000
 20
15.640000
  0
VERTEX
  8
gg1
 10
7.425000
 20
15.700000
  0
SEQEND
  8
gg1
  0
POLYLINE
  8
gg1
 62
1
 40
0.000000
 41
0.000000
 66
  1
  0
VERTEX
  8
gg1
 10
7.425000
 20
15.000000
  0
VERTEX
  8
gg1
 10
7.425000
 20
15.163000
  0
SEQEND
  8
gg1
  0
POLYLINE
  8
gg1
 62
1
 40
0.000000
 41
0.000000
 66
  1
  0
VERTEX
  8
gg1
 10
7.425000
 20
15.504900
  0
VERTEX
  8
gg1
 10
7.425000
 20
15.700000
  0
SEQEND
  8
gg1
  0
POLYLINE
  8
gg1
 62
1
 40
0.000000
 41
0.000000
 66
  1
  0
VERTEX
  8
gg1
 10
7.415000
 20
15.000000
  0
VERTEX
  8
gg1
 10
7.486000
 20
15.000000
  0
SEQEND
  8
gg1
  0
POLYLINE
  8
gg1
 62
1
 40
0.000000
 41
0.000000
 66
  1
  0
VERTEX
  8
gg1
 10
7.415000
 20
15.700000
  0
VERTEX
  8
gg1
 10
7.486000
 20
15.700000
  0
SEQEND
  8
gg1
  0
POLYLINE
  8
gg1
 62
1
 40
0.000000
 41
0.000000
 66
  1
  0
VERTEX
  8
gg1
 10
7.500000
 20
14.925000
  0
VERTEX
  8
gg1
 10
7.560000
 20
14.945000
  0
SEQEND
  8
gg1
  0
POLYLINE
  8
gg1
 62
1
 40
0.000000
 41
0.000000
 66
  1
  0
VERTEX
  8
gg1
 10
7.500000
 20
14.925000
  0
VERTEX
  8
gg1
 10
7.560000
 20
14.905000
  0
SEQEND
  8
gg1
  0
POLYLINE
  8
gg1
 62
1
 40
0.000000
 41
0.000000
 66
  1
  0
VERTEX
  8
gg1
 10
8.240000
 20
14.905000
  0
VERTEX
  8
gg1
 10
8.300000
 20
14.925000
  0
SEQEND
  8
gg1
  0
POLYLINE
  8
gg1
 62
1
 40
0.000000
 41
0.000000
 66
  1
  0
VERTEX
  8
gg1
 10
8.240000
 20
14.945000
  0
VERTEX
  8
gg1
 10
8.300000
 20
14.925000
  0
SEQEND
  8
gg1
  0
POLYLINE
  8
gg1
 62
1
 40
0.000000
 41
0.000000
 66
  1
  0
VERTEX
  8
gg1
 10
7.500000
 20
14.925000
  0
VERTEX
  8
gg1
 10
7.713000
 20
14.925000
  0
SEQEND
  8
gg1
  0
POLYLINE
  8
gg1
 62
1
 40
0.000000
 41
0.000000
 66
  1
  0
VERTEX
  8
gg1
 10
8.054900
 20
14.925000
  0
VERTEX
  8
gg1
 10
8.300000
 20
14.925000
  0
SEQEND
  8
gg1
  0
POLYLINE
  8
gg1
 62
1
 40
0.000000
 41
0.000000
 66
  1
  0
VERTEX
  8
gg1
 10
7.500000
 20
14.915000
  0
VERTEX
  8
gg1
 10
7.500000
 20
14.986000
  0
SEQEND
  8
gg1
  0
POLYLINE
  8
gg1
 62
1
 40
0.000000
 41
0.000000
 66
  1
  0
VERTEX
  8
gg1
 10
8.300000
 20
14.915000
  0
VERTEX
  8
gg1
 10
8.300000
 20
14.986000
  0
SEQEND
  8
gg1
  0
POLYLINE
  8
gg1
 62
1
 40
0.000000
 41
0.000000
 66
  1
  0
VERTEX
  8
gg1
 10
7.401000
 20
15.179100
  0
VERTEX
  8
gg1
 10
7.401000
 20
15.219000
  0
VERTEX
  8
gg1
 10
7.411000
 20
15.219000
  0
VERTEX
  8
gg1
 10
7.451000
 20
15.179100
  0
VERTEX
  8
gg1
 10
7.461000
 20
15.179100
  0
SEQEND
  8
gg1
  0
POLYLINE
  8
gg1
 62
1
 40
0.000000
 41
0.000000
 66
  1
  0
VERTEX
  8
gg1
 10
7.411000
 20
15.239000
  0
VERTEX
  8
gg1
 10
7.401000
 20
15.249000
  0
VERTEX
  8
gg1
 10
7.401000
 20
15.269000
  0
VERTEX
  8
gg1
 10
7.411000
 20
15.279000
  0
VERTEX
  8
gg1
 10
7.451000
 20
15.279000
  0
VERTEX
  8
gg1
 10
7.461000
 20
15.269000
  0
VERTEX
  8
gg1
 10
7.461000
 20
15.249000
  0
VERTEX
  8
gg1
 10
7.451000
 20
15.239000
  0
VERTEX
  8
gg1
 10
7.411000
 20
15.239000
  0
SEQEND
  8
gg1
  0
POLYLINE
  8
gg1
 62
1
 40
0.000000
 41
0.000000
 66
  1
  0
VERTEX
  8
gg1
 10
7.411000
 20
15.299000
  0
VERTEX
  8
gg1
 10
7.401000
 20
15.309000
  0
VERTEX
  8
gg1
 10
7.401000
 20
15.329000
  0
VERTEX
  8
gg1
 10
7.411000
 20
15.339000
  0
VERTEX
  8
gg1
 10
7.451000
 20
15.339000
  0
VERTEX
  8
gg1
 10
7.461000
 20
15.329000
  0
VERTEX
  8
gg1
 10
7.461000
 20
15.309000
  0
VERTEX
  8
gg1
 10
7.451000
 20
15.299000
  0
VERTEX
  8
gg1
 10
7.411000
 20
15.299000
  0
SEQEND
  8
gg1
  0
POLYLINE
  8
gg1
 62
1
 40
0.000000
 41
0.000000
 66
  1
  0
VERTEX
  8
gg1
 10
7.461000
 20
15.359000
  0
VERTEX
  8
gg1
 10
7.421000
 20
15.359000
  0
VERTEX
  8
gg1
 10
7.421000
 20
15.369000
  0
VERTEX
  8
gg1
 10
7.431000
 20
15.379000
  0
VERTEX
  8
gg1
 10
7.461000
 20
15.379000
  0
VERTEX
  8
gg1
 10
7.431000
 20
15.379000
  0
VERTEX
  8
gg1
 10
7.421000
 20
15.389000
  0
VERTEX
  8
gg1
 10
7.431000
 20
15.399000
  0
VERTEX
  8
gg1
 10
7.461000
 20
15.399000
  0
SEQEND
  8
gg1
  0
POLYLINE
  8
gg1
 62
1
 40
0.000000
 41
0.000000
 66
  1
  0
VERTEX
  8
gg1
 10
7.461000
 20
15.419000
  0
VERTEX
  8
gg1
 10
7.461000
 20
15.439000
  0
VERTEX
  8
gg1
 10
7.461000
 20
15.429000
  0
VERTEX
  8
gg1
 10
7.421000
 20
15.429000
  0
VERTEX
  8
gg1
 10
7.421000
 20
15.419000
  0
SEQEND
  8
gg1
  0
POLYLINE
  8
gg1
 62
1
 40
0.000000
 41
0.000000
 66
  1
  0
VERTEX
  8
gg1
 10
7.461000
 20
15.469000
  0
VERTEX
  8
gg1
 10
7.461000
 20
15.488900
  0
VERTEX
  8
gg1
 10
7.461000
 20
15.479000
  0
VERTEX
  8
gg1
 10
7.401000
 20
15.479000
  0
VERTEX
  8
gg1
 10
7.401000
 20
15.469000
  0
SEQEND
  8
gg1
  0
POLYLINE
  8
gg1
 62
1
 40
0.000000
 41
0.000000
 66
  1
  0
VERTEX
  8
gg1
 10
7.729100
 20
14.939000
  0
VERTEX
  8
gg1
 10
7.739000
 20
14.949000
  0
VERTEX
  8
gg1
 10
7.759000
 20
14.949000
  0
VERTEX
  8
gg1
 10
7.769000
 20
14.939000
  0
VERTEX
  8
gg1
 10
7.769000
 20
14.929000
  0
VERTEX
  8
gg1
 10
7.759000
 20
14.919000
  0
VERTEX
  8
gg1
 10
7.769000
 20
14.909000
  0
VERTEX
  8
gg1
 10
7.769000
 20
14.899000
  0
VERTEX
  8
gg1
 10
7.759000
 20
14.889000
  0
VERTEX
  8
gg1
 10
7.739000
 20
14.889000
  0
VERTEX
  8
gg1
 10
7.729100
 20
14.899000
  0
VERTEX
  8
gg1
 10
7.729100
 20
14.909000
  0
VERTEX
  8
gg1
 10
7.739000
 20
14.919000
  0
VERTEX
  8
gg1
 10
7.729100
 20
14.929000
  0
VERTEX
  8
gg1
 10
7.729100
 20
14.939000
  0
SEQEND
  8
gg1
  0
POLYLINE
  8
gg1
 62
1
 40
0.000000
 41
0.000000
 66
  1
  0
VERTEX
  8
gg1
 10
7.739000
 20
14.919000
  0
VERTEX
  8
gg1
 10
7.759000
 20
14.919000
  0
SEQEND
  8
gg1
  0
POLYLINE
  8
gg1
 62
1
 40
0.000000
 41
0.000000
 66
  1
  0
VERTEX
  8
gg1
 10
7.789000
 20
14.939000
  0
VERTEX
  8
gg1
 10
7.799000
 20
14.949000
  0
VERTEX
  8
gg1
 10
7.819000
 20
14.949000
  0
VERTEX
  8
gg1
 10
7.829000
 20
14.939000
  0
VERTEX
  8
gg1
 10
7.829000
 20
14.899000
  0
VERTEX
  8
gg1
 10
7.819000
 20
14.889000
  0
VERTEX
  8
gg1
 10
7.799000
 20
14.889000
  0
VERTEX
  8
gg1
 10
7.789000
 20
14.899000
  0
VERTEX
  8
gg1
 10
7.789000
 20
14.939000
  0
SEQEND
  8
gg1
  0
POLYLINE
  8
gg1
 62
1
 40
0.000000
 41
0.000000
 66
  1
  0
VERTEX
  8
gg1
 10
7.849000
 20
14.939000
  0
VERTEX
  8
gg1
 10
7.859000
 20
14.949000
  0
VERTEX
  8
gg1
 10
7.879000
 20
14.949000
  0
VERTEX
  8
gg1
 10
7.889000
 20
14.939000
  0
VERTEX
  8
gg1
 10
7.889000
 20
14.899000
  0
VERTEX
  8
gg1
 10
7.879000
 20
14.889000
  0
VERTEX
  8
gg1
 10
7.859000
 20
14.889000
  0
VERTEX
  8
gg1
 10
7.849000
 20
14.899000
  0
VERTEX
  8
gg1
 10
7.849000
 20
14.939000
  0
SEQEND
  8
gg1
  0
POLYLINE
  8
gg1
 62
1
 40
0.000000
 41
0.000000
 66
  1
  0
VERTEX
  8
gg1
 10
7.909000
 20
14.889000
  0
VERTEX
  8
gg1
 10
7.909000
 20
14.929000
  0
VERTEX
  8
gg1
 10
7.919000
 20
14.929000
  0
VERTEX
  8
gg1
 10
7.929000
 20
14.919000
  0
VERTEX
  8
gg1
 10
7.929000
 20
14.889000
  0
VERTEX
  8
gg1
 10
7.929000
 20
14.919000
  0
VERTEX
  8
gg1
 10
7.939000
 20
14.929000
  0
VERTEX
  8
gg1
 10
7.949000
 20
14.919000
  0
VERTEX
  8
gg1
 10
7.949000
 20
14.889000
  0
SEQEND
  8
gg1
  0
POLYLINE
  8
gg1
 62
1
 40
0.000000
 41
0.000000
 66
  1
  0
VERTEX
  8
gg1
 10
7.969000
 20
14.889000
  0
VERTEX
  8
gg1
 10
7.989000
 20
14.889000
  0
VERTEX
  8
gg1
 10
7.979000
 20
14.889000
  0
VERTEX
  8
gg1
 10
7.979000
 20
14.929000
  0
VERTEX
  8
gg1
 10
7.969000
 20
14.929000
  0
SEQEND
  8
gg1
  0
POLYLINE
  8
gg1
 62
1
 40
0.000000
 41
0.000000
 66
  1
  0
VERTEX
  8
gg1
 10
8.019000
 20
14.889000
  0
VERTEX
  8
gg1
 10
8.038900
 20
14.889000
  0
VERTEX
  8
gg1
 10
8.029000
 20
14.889000
  0
VERTEX
  8
gg1
 10
8.029000
 20
14.949000
  0
VERTEX
  8
gg1
 10
8.019000
 20
14.949000
  0
SEQEND
  8
gg1
  0
POLYLINE
  8
gg1
 62
1
 40
0.000000
 41
0.000000
 66
  1
  0
VERTEX
  8
gg1
 10
8.220000
 20
15.450000
  0
VERTEX
  8
gg1
 10
8.260000
 20
15.450000
  0
SEQEND
  8
gg1
  0
POLYLINE
  8
gg1
 62
1
 40
0.000000
 41
0.000000
 66
  1
  0
VERTEX
  8
gg1
 10
8.240000
 20
15.430000
  0
VERTEX
  8
gg1
 10
8.240000
 20
15.470000
  0
SEQEND
  8
gg1
  0
POLYLINE
  8
gg1
 62
1
 40
0.000000
 41
0.000000
 66
  1
  0
VERTEX
  8
gg1
 10
8.220000
 20
15.350000
  0
VERTEX
  8
gg1
 10
8.260000
 20
15.350000
  0
SEQEND
  8
gg1
  0
POLYLINE
  8
gg1
 62
1
 40
0.000000
 41
0.000000
 66
  1
  0
VERTEX
  8
gg1
 10
8.240000
 20
15.330000
  0
VERTEX
  8
gg1
 10
8.240000
 20
15.370000
  0
SEQEND
  8
gg1
  0
POLYLINE
  8
gg1
 62
1
 40
0.000000
 41
0.000000
 66
  1
  0
VERTEX
  8
gg1
 10
8.220000
 20
15.250000
  0
VERTEX
  8
gg1
 10
8.260000
 20
15.250000
  0
SEQEND
  8
gg1
  0
POLYLINE
  8
gg1
 62
1
 40
0.000000
 41
0.000000
 66
  1
  0
VERTEX
  8
gg1
 10
8.240000
 20
15.230000
  0
VERTEX
  8
gg1
 10
8.240000
 20
15.270000
  0
SEQEND
  8
gg1
  0
POLYLINE
  8
gg1
 62
1
 40
0.000000
 41
0.000000
 66
  1
  0
VERTEX
  8
gg1
 10
7.580000
 20
15.150000
  0
VERTEX
  8
gg1
 10
7.720000
 20
15.150000
  0
SEQEND
  8
gg1
  0
POLYLINE
  8
gg1
 62
1
 40
0.000000
 41
0.000000
 66
  1
  0
VERTEX
  8
gg1
 10
7.650000
 20
15.080000
  0
VERTEX
  8
gg1
 10
7.650000
 20
15.220000
  0
SEQEND
  8
gg1
  0
POLYLINE
  8
gg1
 62
1
 40
0.000000
 41
0.000000
 66
  1
  0
VERTEX
  8
gg1
 10
7.580000
 20
15.550000
  0
VERTEX
  8
gg1
 10
7.720000
 20
15.550000
  0
SEQEND
  8
gg1
  0
POLYLINE
  8
gg1
 62
1
 40
0.000000
 41
0.000000
 66
  1
  0
VERTEX
  8
gg1
 10
7.650000
 20
15.480000
  0
VERTEX
  8
gg1
 10
7.650000
 20
15.620000
  0
SEQEND
  8
gg1
  0
POLYLINE
  8
gg1
 62
1
 40
0.000000
 41
0.000000
 66
  1
  0
VERTEX
  8
gg1
 10
8.025000
 20
15.075000
  0
VERTEX
  8
gg1
 10
8.065000
 20
15.075000
  0
SEQEND
  8
gg1
  0
POLYLINE
  8
gg1
 62
1
 40
0.000000
 41
0.000000
 66
  1
  0
VERTEX
  8
gg1
 10
8.045000
 20
15.055000
  0
VERTEX
  8
gg1
 10
8.045000
 20
15.095000
  0
SEQEND
  8
gg1
  0
POLYLINE
  8
gg1
 62
1
 40
0.000000
 41
0.000000
 66
  1
  0
VERTEX
  8
gg1
 10
8.025000
 20
15.175000
  0
VERTEX
  8
gg1
 10
8.065000
 20
15.175000
  0
SEQEND
  8
gg1
  0
POLYLINE
  8
gg1
 62
1
 40
0.000000
 41
0.000000
 66
  1
  0
VERTEX
  8
gg1
 10
8.045000
 20
15.155000
  0
VERTEX
  8
gg1
 10
8.045000
 20
15.195000
  0
SEQEND
  8
gg1
  0
POLYLINE
  8
gg1
 62
1
 40
0.000000
 41
0.000000
 66
  1
  0
VERTEX
  8
gg1
 10
7.717500
 20
15.400000
  0
VERTEX
  8
gg1
 10
7.762500
 20
15.400000
  0
SEQEND
  8
gg1
  0
POLYLINE
  8
gg1
 62
1
 40
0.000000
 41
0.000000
 66
  1
  0
VERTEX
  8
gg1
 10
7.740000
 20
15.377500
  0
VERTEX
  8
gg1
 10
7.740000
 20
15.422500
  0
SEQEND
  8
gg1
  0
POLYLINE
  8
gg1
 62
1
 40
0.000000
 41
0.000000
 66
  1
  0
VERTEX
  8
gg1
 10
7.717500
 20
15.300000
  0
VERTEX
  8
gg1
 10
7.762500
 20
15.300000
  0
SEQEND
  8
gg1
  0
POLYLINE
  8
gg1
 62
1
 40
0.000000
 41
0.000000
 66
  1
  0
VERTEX
  8
gg1
 10
7.740000
 20
15.277500
  0
VERTEX
  8
gg1
 10
7.740000
 20
15.322500
  0
SEQEND
  8
gg1
  0
POLYLINE
  8
gg1
 62
1
 40
0.000000
 41
0.000000
 66
  1
  0
VERTEX
  8
gg1
 10
7.782000
 20
15.575000
  0
VERTEX
  8
gg1
 10
7.868000
 20
15.575000
  0
SEQEND
  8
gg1
  0
POLYLINE
  8
gg1
 62
1
 40
0.000000
 41
0.000000
 66
  1
  0
VERTEX
  8
gg1
 10
7.825000
 20
15.532000
  0
VERTEX
  8
gg1
 10
7.825000
 20
15.618000
  0
SEQEND
  8
gg1
  0
POLYLINE
  8
gg1
 62
1
 40
0.000000
 41
0.000000
 66
  1
  0
VERTEX
  8
gg1
 10
7.782000
 20
15.125000
  0
VERTEX
  8
gg1
 10
7.868000
 20
15.125000
  0
SEQEND
  8
gg1
  0
POLYLINE
  8
gg1
 62
1
 40
0.000000
 41
0.000000
 66
  1
  0
VERTEX
  8
gg1
 10
7.825000
 20
15.082000
  0
VERTEX
  8
gg1
 10
7.825000
 20
15.168000
  0
SEQEND
  8
gg1
  0
POLYLINE
  8
gg1
 62
1
 40
0.000000
 41
0.000000
 66
  1
  0
VERTEX
  8
gg1
 10
8.157000
 20
15.100000
  0
VERTEX
  8
gg1
 10
8.243000
 20
15.100000
  0
SEQEND
  8
gg1
  0
POLYLINE
  8
gg1
 62
1
 40
0.000000
 41
0.000000
 66
  1
  0
VERTEX
  8
gg1
 10
8.200000
 20
15.057000
  0
VERTEX
  8
gg1
 10
8.200000
 20
15.143000
  0
SEQEND
  8
gg1
  0
POLYLINE
  8
gg1
 62
1
 40
0.000000
 41
0.000000
 66
  1
  0
VERTEX
  8
gg1
 10
8.157000
 20
15.600000
  0
VERTEX
  8
gg1
 10
8.243000
 20
15.600000
  0
SEQEND
  8
gg1
  0
POLYLINE
  8
gg1
 62
1
 40
0.000000
 41
0.000000
 66
  1
  0
VERTEX
  8
gg1
 10
8.200000
 20
15.557000
  0
VERTEX
  8
gg1
 10
8.200000
 20
15.643000
  0
SEQEND
  8
gg1
  0
ENDSEC
  0
EOF
