  0
SECTION
  2
HEADER
  9
$EXTMIN
 10
7.323000
 20
14.811000
  9
$EXTMAX
 10
8.781000
 20
17.207000
  9
$LIMMIN
 10
7.323000
 20
14.811000
  9
$LIMMAX
 10
8.781000
 20
17.207000
  9
$FILLMODE
 70
  1
  0
ENDSEC
  0
SECTION
  2
TABLES
  0
TABLE
  2
LTYPE
 70
  1
  0
LTYPE
  2
CONTINUOUS
 70
 64
  3
Solid line
 72
 65
 73
  0
 40
0.0
  0
ENDTAB
  0
TABLE
  2
LAYER
 70
 1
  0
LAYER
  2
0
 70
  0
 62
7
  6
CONTINUOUS
  0
LAYER
  2
gg1
 70
  0
 62
1
  6
CONTINUOUS
  0
ENDTAB
  0
TABLE
  2
STYLE
 70
  1
  0
STYLE
  2
STANDARD
 70
  0
 40
0.0
 41
1.0
 50
0.0
 71
  0
 42
0.2
  3
txt
  4

  0
ENDTAB
  0
ENDSEC
  0
SECTION
  2
BLOCKS
  0
BLOCK
  8
0
  2
D10
 70
64
 10
0.0
 20
0.0
  3
D10
  0
CIRCLE
  8
0
 10
0.000000
 20
0.000000
 40
0.002500
 0
ENDBLK
  8
0
  0
BLOCK
  8
0
  2
D11
 70
64
 10
0.0
 20
0.0
  3
D11
  0
CIRCLE
  8
0
 10
0.000000
 20
0.000000
 40
0.003000
 0
ENDBLK
  8
0
  0
BLOCK
  8
0
  2
D12
 70
64
 10
0.0
 20
0.0
  3
D12
  0
CIRCLE
  8
0
 10
0.000000
 20
0.000000
 40
0.001000
 0
ENDBLK
  8
0
  0
ENDSEC
  0
SECTION
  2
ENTITIES
  0
POLYLINE
  8
gg1
 62
1
 40
0.000000
 41
0.000000
 66
  1
  0
VERTEX
  8
gg1
 10
7.500000
 20
15.000000
  0
VERTEX
  8
gg1
 10
8.779500
 20
15.000000
  0
VERTEX
  8
gg1
 10
8.779500
 20
17.204700
  0
SEQEND
  8
gg1
  0
POLYLINE
  8
gg1
 62
1
 40
0.000000
 41
0.000000
 66
  1
  0
VERTEX
  8
gg1
 10
7.500000
 20
17.204700
  0
VERTEX
  8
gg1
 10
8.779500
 20
17.204700
  0
SEQEND
  8
gg1
  0
POLYLINE
  8
gg1
 62
1
 40
0.000000
 41
0.000000
 66
  1
  0
VERTEX
  8
gg1
 10
7.500000
 20
15.000000
  0
VERTEX
  8
gg1
 10
7.500000
 20
17.204700
  0
SEQEND
  8
gg1
  0
POLYLINE
  8
gg1
 62
1
 40
0.000000
 41
0.000000
 66
  1
  0
VERTEX
  8
gg1
 10
7.500000
 20
14.850000
  0
VERTEX
  8
gg1
 10
7.560000
 20
14.870000
  0
SEQEND
  8
gg1
  0
POLYLINE
  8
gg1
 62
1
 40
0.000000
 41
0.000000
 66
  1
  0
VERTEX
  8
gg1
 10
7.500000
 20
14.850000
  0
VERTEX
  8
gg1
 10
7.560000
 20
14.830000
  0
SEQEND
  8
gg1
  0
POLYLINE
  8
gg1
 62
1
 40
0.000000
 41
0.000000
 66
  1
  0
VERTEX
  8
gg1
 10
8.719500
 20
14.830000
  0
VERTEX
  8
gg1
 10
8.779500
 20
14.850000
  0
SEQEND
  8
gg1
  0
POLYLINE
  8
gg1
 62
1
 40
0.000000
 41
0.000000
 66
  1
  0
VERTEX
  8
gg1
 10
8.719500
 20
14.870000
  0
VERTEX
  8
gg1
 10
8.779500
 20
14.850000
  0
SEQEND
  8
gg1
  0
POLYLINE
  8
gg1
 62
1
 40
0.000000
 41
0.000000
 66
  1
  0
VERTEX
  8
gg1
 10
7.500000
 20
14.850000
  0
VERTEX
  8
gg1
 10
7.942800
 20
14.850000
  0
SEQEND
  8
gg1
  0
POLYLINE
  8
gg1
 62
1
 40
0.000000
 41
0.000000
 66
  1
  0
VERTEX
  8
gg1
 10
8.304700
 20
14.850000
  0
VERTEX
  8
gg1
 10
8.779500
 20
14.850000
  0
SEQEND
  8
gg1
  0
POLYLINE
  8
gg1
 62
1
 40
0.000000
 41
0.000000
 66
  1
  0
VERTEX
  8
gg1
 10
7.500000
 20
14.840000
  0
VERTEX
  8
gg1
 10
7.500000
 20
14.972500
  0
SEQEND
  8
gg1
  0
POLYLINE
  8
gg1
 62
1
 40
0.000000
 41
0.000000
 66
  1
  0
VERTEX
  8
gg1
 10
8.779500
 20
14.840000
  0
VERTEX
  8
gg1
 10
8.779500
 20
14.972500
  0
SEQEND
  8
gg1
  0
POLYLINE
  8
gg1
 62
1
 40
0.000000
 41
0.000000
 66
  1
  0
VERTEX
  8
gg1
 10
7.330000
 20
15.060000
  0
VERTEX
  8
gg1
 10
7.350000
 20
15.000000
  0
VERTEX
  8
gg1
 10
7.370000
 20
15.060000
  0
SEQEND
  8
gg1
  0
POLYLINE
  8
gg1
 62
1
 40
0.000000
 41
0.000000
 66
  1
  0
VERTEX
  8
gg1
 10
7.350000
 20
17.204700
  0
VERTEX
  8
gg1
 10
7.370000
 20
17.144700
  0
SEQEND
  8
gg1
  0
POLYLINE
  8
gg1
 62
1
 40
0.000000
 41
0.000000
 66
  1
  0
VERTEX
  8
gg1
 10
7.330000
 20
17.144700
  0
VERTEX
  8
gg1
 10
7.350000
 20
17.204700
  0
SEQEND
  8
gg1
  0
POLYLINE
  8
gg1
 62
1
 40
0.000000
 41
0.000000
 66
  1
  0
VERTEX
  8
gg1
 10
7.350000
 20
15.000000
  0
VERTEX
  8
gg1
 10
7.350000
 20
15.905400
  0
SEQEND
  8
gg1
  0
POLYLINE
  8
gg1
 62
1
 40
0.000000
 41
0.000000
 66
  1
  0
VERTEX
  8
gg1
 10
7.350000
 20
16.267300
  0
VERTEX
  8
gg1
 10
7.350000
 20
17.204700
  0
SEQEND
  8
gg1
  0
POLYLINE
  8
gg1
 62
1
 40
0.000000
 41
0.000000
 66
  1
  0
VERTEX
  8
gg1
 10
7.340000
 20
15.000000
  0
VERTEX
  8
gg1
 10
7.472500
 20
15.000000
  0
SEQEND
  8
gg1
  0
POLYLINE
  8
gg1
 62
1
 40
0.000000
 41
0.000000
 66
  1
  0
VERTEX
  8
gg1
 10
7.340000
 20
17.204700
  0
VERTEX
  8
gg1
 10
7.472500
 20
17.204700
  0
SEQEND
  8
gg1
  0
POLYLINE
  8
gg1
 62
1
 40
0.000000
 41
0.000000
 66
  1
  0
VERTEX
  8
gg1
 10
7.958800
 20
14.864000
  0
VERTEX
  8
gg1
 10
7.968800
 20
14.874000
  0
VERTEX
  8
gg1
 10
7.988800
 20
14.874000
  0
VERTEX
  8
gg1
 10
7.998800
 20
14.864000
  0
VERTEX
  8
gg1
 10
7.998800
 20
14.854000
  0
VERTEX
  8
gg1
 10
7.988800
 20
14.844000
  0
VERTEX
  8
gg1
 10
7.978800
 20
14.844000
  0
VERTEX
  8
gg1
 10
7.988800
 20
14.844000
  0
VERTEX
  8
gg1
 10
7.998800
 20
14.834000
  0
VERTEX
  8
gg1
 10
7.998800
 20
14.824000
  0
VERTEX
  8
gg1
 10
7.988800
 20
14.814000
  0
VERTEX
  8
gg1
 10
7.968800
 20
14.814000
  0
VERTEX
  8
gg1
 10
7.958800
 20
14.824000
  0
SEQEND
  8
gg1
  0
POLYLINE
  8
gg1
 62
1
 40
0.000000
 41
0.000000
 66
  1
  0
VERTEX
  8
gg1
 10
8.058800
 20
14.814000
  0
VERTEX
  8
gg1
 10
8.018800
 20
14.814000
  0
VERTEX
  8
gg1
 10
8.058800
 20
14.854000
  0
VERTEX
  8
gg1
 10
8.058800
 20
14.864000
  0
VERTEX
  8
gg1
 10
8.048800
 20
14.874000
  0
VERTEX
  8
gg1
 10
8.028800
 20
14.874000
  0
VERTEX
  8
gg1
 10
8.018800
 20
14.864000
  0
SEQEND
  8
gg1
  0
POLYLINE
  8
gg1
 62
1
 40
0.000000
 41
0.000000
 66
  1
  0
VERTEX
  8
gg1
 10
8.078800
 20
14.814000
  0
VERTEX
  8
gg1
 10
8.078800
 20
14.824000
  0
VERTEX
  8
gg1
 10
8.088800
 20
14.824000
  0
VERTEX
  8
gg1
 10
8.088800
 20
14.814000
  0
VERTEX
  8
gg1
 10
8.078800
 20
14.814000
  0
SEQEND
  8
gg1
  0
POLYLINE
  8
gg1
 62
1
 40
0.000000
 41
0.000000
 66
  1
  0
VERTEX
  8
gg1
 10
8.168700
 20
14.874000
  0
VERTEX
  8
gg1
 10
8.128800
 20
14.874000
  0
VERTEX
  8
gg1
 10
8.128800
 20
14.844000
  0
VERTEX
  8
gg1
 10
8.148800
 20
14.854000
  0
VERTEX
  8
gg1
 10
8.158800
 20
14.854000
  0
VERTEX
  8
gg1
 10
8.168700
 20
14.844000
  0
VERTEX
  8
gg1
 10
8.168700
 20
14.824000
  0
VERTEX
  8
gg1
 10
8.158800
 20
14.814000
  0
VERTEX
  8
gg1
 10
8.138800
 20
14.814000
  0
VERTEX
  8
gg1
 10
8.128800
 20
14.824000
  0
SEQEND
  8
gg1
  0
POLYLINE
  8
gg1
 62
1
 40
0.000000
 41
0.000000
 66
  1
  0
VERTEX
  8
gg1
 10
8.188700
 20
14.814000
  0
VERTEX
  8
gg1
 10
8.188700
 20
14.854000
  0
VERTEX
  8
gg1
 10
8.198700
 20
14.854000
  0
VERTEX
  8
gg1
 10
8.208700
 20
14.844000
  0
VERTEX
  8
gg1
 10
8.208700
 20
14.814000
  0
VERTEX
  8
gg1
 10
8.208700
 20
14.844000
  0
VERTEX
  8
gg1
 10
8.218700
 20
14.854000
  0
VERTEX
  8
gg1
 10
8.228700
 20
14.844000
  0
VERTEX
  8
gg1
 10
8.228700
 20
14.814000
  0
SEQEND
  8
gg1
  0
POLYLINE
  8
gg1
 62
1
 40
0.000000
 41
0.000000
 66
  1
  0
VERTEX
  8
gg1
 10
8.248700
 20
14.814000
  0
VERTEX
  8
gg1
 10
8.248700
 20
14.854000
  0
VERTEX
  8
gg1
 10
8.258700
 20
14.854000
  0
VERTEX
  8
gg1
 10
8.268700
 20
14.844000
  0
VERTEX
  8
gg1
 10
8.268700
 20
14.814000
  0
VERTEX
  8
gg1
 10
8.268700
 20
14.844000
  0
VERTEX
  8
gg1
 10
8.278700
 20
14.854000
  0
VERTEX
  8
gg1
 10
8.288700
 20
14.844000
  0
VERTEX
  8
gg1
 10
8.288700
 20
14.814000
  0
SEQEND
  8
gg1
  0
POLYLINE
  8
gg1
 62
1
 40
0.000000
 41
0.000000
 66
  1
  0
VERTEX
  8
gg1
 10
7.326000
 20
15.961400
  0
VERTEX
  8
gg1
 10
7.326000
 20
15.921400
  0
VERTEX
  8
gg1
 10
7.356000
 20
15.921400
  0
VERTEX
  8
gg1
 10
7.346000
 20
15.941400
  0
VERTEX
  8
gg1
 10
7.346000
 20
15.951400
  0
VERTEX
  8
gg1
 10
7.356000
 20
15.961400
  0
VERTEX
  8
gg1
 10
7.376000
 20
15.961400
  0
VERTEX
  8
gg1
 10
7.386000
 20
15.951400
  0
VERTEX
  8
gg1
 10
7.386000
 20
15.931400
  0
VERTEX
  8
gg1
 10
7.376000
 20
15.921400
  0
SEQEND
  8
gg1
  0
POLYLINE
  8
gg1
 62
1
 40
0.000000
 41
0.000000
 66
  1
  0
VERTEX
  8
gg1
 10
7.326000
 20
16.021400
  0
VERTEX
  8
gg1
 10
7.336000
 20
16.001400
  0
VERTEX
  8
gg1
 10
7.356000
 20
15.981400
  0
VERTEX
  8
gg1
 10
7.376000
 20
15.981400
  0
VERTEX
  8
gg1
 10
7.386000
 20
15.991400
  0
VERTEX
  8
gg1
 10
7.386000
 20
16.011400
  0
VERTEX
  8
gg1
 10
7.376000
 20
16.021400
  0
VERTEX
  8
gg1
 10
7.366000
 20
16.021400
  0
VERTEX
  8
gg1
 10
7.356000
 20
16.011400
  0
VERTEX
  8
gg1
 10
7.356000
 20
15.981400
  0
SEQEND
  8
gg1
  0
POLYLINE
  8
gg1
 62
1
 40
0.000000
 41
0.000000
 66
  1
  0
VERTEX
  8
gg1
 10
7.386000
 20
16.041400
  0
VERTEX
  8
gg1
 10
7.376000
 20
16.041400
  0
VERTEX
  8
gg1
 10
7.376000
 20
16.051400
  0
VERTEX
  8
gg1
 10
7.386000
 20
16.051400
  0
VERTEX
  8
gg1
 10
7.386000
 20
16.041400
  0
SEQEND
  8
gg1
  0
POLYLINE
  8
gg1
 62
1
 40
0.000000
 41
0.000000
 66
  1
  0
VERTEX
  8
gg1
 10
7.336000
 20
16.091400
  0
VERTEX
  8
gg1
 10
7.326000
 20
16.101400
  0
VERTEX
  8
gg1
 10
7.326000
 20
16.121400
  0
VERTEX
  8
gg1
 10
7.336000
 20
16.131300
  0
VERTEX
  8
gg1
 10
7.376000
 20
16.131300
  0
VERTEX
  8
gg1
 10
7.386000
 20
16.121400
  0
VERTEX
  8
gg1
 10
7.386000
 20
16.101400
  0
VERTEX
  8
gg1
 10
7.376000
 20
16.091400
  0
VERTEX
  8
gg1
 10
7.336000
 20
16.091400
  0
SEQEND
  8
gg1
  0
POLYLINE
  8
gg1
 62
1
 40
0.000000
 41
0.000000
 66
  1
  0
VERTEX
  8
gg1
 10
7.386000
 20
16.151300
  0
VERTEX
  8
gg1
 10
7.346000
 20
16.151300
  0
VERTEX
  8
gg1
 10
7.346000
 20
16.161300
  0
VERTEX
  8
gg1
 10
7.356000
 20
16.171300
  0
VERTEX
  8
gg1
 10
7.386000
 20
16.171300
  0
VERTEX
  8
gg1
 10
7.356000
 20
16.171300
  0
VERTEX
  8
gg1
 10
7.346000
 20
16.181300
  0
VERTEX
  8
gg1
 10
7.356000
 20
16.191300
  0
VERTEX
  8
gg1
 10
7.386000
 20
16.191300
  0
SEQEND
  8
gg1
  0
POLYLINE
  8
gg1
 62
1
 40
0.000000
 41
0.000000
 66
  1
  0
VERTEX
  8
gg1
 10
7.386000
 20
16.211300
  0
VERTEX
  8
gg1
 10
7.346000
 20
16.211300
  0
VERTEX
  8
gg1
 10
7.346000
 20
16.221300
  0
VERTEX
  8
gg1
 10
7.356000
 20
16.231300
  0
VERTEX
  8
gg1
 10
7.386000
 20
16.231300
  0
VERTEX
  8
gg1
 10
7.356000
 20
16.231300
  0
VERTEX
  8
gg1
 10
7.346000
 20
16.241300
  0
VERTEX
  8
gg1
 10
7.356000
 20
16.251300
  0
VERTEX
  8
gg1
 10
7.386000
 20
16.251300
  0
SEQEND
  8
gg1
  0
POLYLINE
  8
gg1
 62
1
 40
0.000000
 41
0.000000
 66
  1
  0
VERTEX
  8
gg1
 10
7.991900
 20
16.305600
  0
VERTEX
  8
gg1
 10
8.011900
 20
16.305600
  0
SEQEND
  8
gg1
  0
POLYLINE
  8
gg1
 62
1
 40
0.000000
 41
0.000000
 66
  1
  0
VERTEX
  8
gg1
 10
8.001900
 20
16.295600
  0
VERTEX
  8
gg1
 10
8.001900
 20
16.315600
  0
SEQEND
  8
gg1
  0
POLYLINE
  8
gg1
 62
1
 40
0.000000
 41
0.000000
 66
  1
  0
VERTEX
  8
gg1
 10
7.991900
 20
16.658400
  0
VERTEX
  8
gg1
 10
8.011900
 20
16.658400
  0
SEQEND
  8
gg1
  0
POLYLINE
  8
gg1
 62
1
 40
0.000000
 41
0.000000
 66
  1
  0
VERTEX
  8
gg1
 10
8.001900
 20
16.648400
  0
VERTEX
  8
gg1
 10
8.001900
 20
16.668400
  0
SEQEND
  8
gg1
  0
POLYLINE
  8
gg1
 62
1
 40
0.000000
 41
0.000000
 66
  1
  0
VERTEX
  8
gg1
 10
8.197500
 20
15.793100
  0
VERTEX
  8
gg1
 10
8.217500
 20
15.793100
  0
SEQEND
  8
gg1
  0
POLYLINE
  8
gg1
 62
1
 40
0.000000
 41
0.000000
 66
  1
  0
VERTEX
  8
gg1
 10
8.207500
 20
15.783100
  0
VERTEX
  8
gg1
 10
8.207500
 20
15.803100
  0
SEQEND
  8
gg1
  0
POLYLINE
  8
gg1
 62
1
 40
0.000000
 41
0.000000
 66
  1
  0
VERTEX
  8
gg1
 10
7.991900
 20
15.482500
  0
VERTEX
  8
gg1
 10
8.011900
 20
15.482500
  0
SEQEND
  8
gg1
  0
POLYLINE
  8
gg1
 62
1
 40
0.000000
 41
0.000000
 66
  1
  0
VERTEX
  8
gg1
 10
8.001900
 20
15.472500
  0
VERTEX
  8
gg1
 10
8.001900
 20
15.492500
  0
SEQEND
  8
gg1
  0
POLYLINE
  8
gg1
 62
1
 40
0.000000
 41
0.000000
 66
  1
  0
VERTEX
  8
gg1
 10
8.709500
 20
16.552400
  0
VERTEX
  8
gg1
 10
8.749500
 20
16.552400
  0
SEQEND
  8
gg1
  0
POLYLINE
  8
gg1
 62
1
 40
0.000000
 41
0.000000
 66
  1
  0
VERTEX
  8
gg1
 10
8.729500
 20
16.532400
  0
VERTEX
  8
gg1
 10
8.729500
 20
16.572400
  0
SEQEND
  8
gg1
  0
POLYLINE
  8
gg1
 62
1
 40
0.000000
 41
0.000000
 66
  1
  0
VERTEX
  8
gg1
 10
8.709500
 20
16.652400
  0
VERTEX
  8
gg1
 10
8.749500
 20
16.652400
  0
SEQEND
  8
gg1
  0
POLYLINE
  8
gg1
 62
1
 40
0.000000
 41
0.000000
 66
  1
  0
VERTEX
  8
gg1
 10
8.729500
 20
16.632400
  0
VERTEX
  8
gg1
 10
8.729500
 20
16.672400
  0
SEQEND
  8
gg1
  0
POLYLINE
  8
gg1
 62
1
 40
0.000000
 41
0.000000
 66
  1
  0
VERTEX
  8
gg1
 10
7.809500
 20
17.016900
  0
VERTEX
  8
gg1
 10
7.849500
 20
17.016900
  0
SEQEND
  8
gg1
  0
POLYLINE
  8
gg1
 62
1
 40
0.000000
 41
0.000000
 66
  1
  0
VERTEX
  8
gg1
 10
7.829500
 20
16.996900
  0
VERTEX
  8
gg1
 10
7.829500
 20
17.036900
  0
SEQEND
  8
gg1
  0
POLYLINE
  8
gg1
 62
1
 40
0.000000
 41
0.000000
 66
  1
  0
VERTEX
  8
gg1
 10
7.809500
 20
17.116900
  0
VERTEX
  8
gg1
 10
7.849500
 20
17.116900
  0
SEQEND
  8
gg1
  0
POLYLINE
  8
gg1
 62
1
 40
0.000000
 41
0.000000
 66
  1
  0
VERTEX
  8
gg1
 10
7.829500
 20
17.096900
  0
VERTEX
  8
gg1
 10
7.829500
 20
17.136900
  0
SEQEND
  8
gg1
  0
POLYLINE
  8
gg1
 62
1
 40
0.000000
 41
0.000000
 66
  1
  0
VERTEX
  8
gg1
 10
7.909500
 20
17.016900
  0
VERTEX
  8
gg1
 10
7.949500
 20
17.016900
  0
SEQEND
  8
gg1
  0
POLYLINE
  8
gg1
 62
1
 40
0.000000
 41
0.000000
 66
  1
  0
VERTEX
  8
gg1
 10
7.929500
 20
16.996900
  0
VERTEX
  8
gg1
 10
7.929500
 20
17.036900
  0
SEQEND
  8
gg1
  0
POLYLINE
  8
gg1
 62
1
 40
0.000000
 41
0.000000
 66
  1
  0
VERTEX
  8
gg1
 10
7.909500
 20
17.116900
  0
VERTEX
  8
gg1
 10
7.949500
 20
17.116900
  0
SEQEND
  8
gg1
  0
POLYLINE
  8
gg1
 62
1
 40
0.000000
 41
0.000000
 66
  1
  0
VERTEX
  8
gg1
 10
7.929500
 20
17.096900
  0
VERTEX
  8
gg1
 10
7.929500
 20
17.136900
  0
SEQEND
  8
gg1
  0
POLYLINE
  8
gg1
 62
1
 40
0.000000
 41
0.000000
 66
  1
  0
VERTEX
  8
gg1
 10
8.009500
 20
17.016900
  0
VERTEX
  8
gg1
 10
8.049500
 20
17.016900
  0
SEQEND
  8
gg1
  0
POLYLINE
  8
gg1
 62
1
 40
0.000000
 41
0.000000
 66
  1
  0
VERTEX
  8
gg1
 10
8.029500
 20
16.996900
  0
VERTEX
  8
gg1
 10
8.029500
 20
17.036900
  0
SEQEND
  8
gg1
  0
POLYLINE
  8
gg1
 62
1
 40
0.000000
 41
0.000000
 66
  1
  0
VERTEX
  8
gg1
 10
8.009500
 20
17.116900
  0
VERTEX
  8
gg1
 10
8.049500
 20
17.116900
  0
SEQEND
  8
gg1
  0
POLYLINE
  8
gg1
 62
1
 40
0.000000
 41
0.000000
 66
  1
  0
VERTEX
  8
gg1
 10
8.029500
 20
17.096900
  0
VERTEX
  8
gg1
 10
8.029500
 20
17.136900
  0
SEQEND
  8
gg1
  0
POLYLINE
  8
gg1
 62
1
 40
0.000000
 41
0.000000
 66
  1
  0
VERTEX
  8
gg1
 10
8.109500
 20
17.016900
  0
VERTEX
  8
gg1
 10
8.149500
 20
17.016900
  0
SEQEND
  8
gg1
  0
POLYLINE
  8
gg1
 62
1
 40
0.000000
 41
0.000000
 66
  1
  0
VERTEX
  8
gg1
 10
8.129500
 20
16.996900
  0
VERTEX
  8
gg1
 10
8.129500
 20
17.036900
  0
SEQEND
  8
gg1
  0
POLYLINE
  8
gg1
 62
1
 40
0.000000
 41
0.000000
 66
  1
  0
VERTEX
  8
gg1
 10
8.109500
 20
17.116900
  0
VERTEX
  8
gg1
 10
8.149500
 20
17.116900
  0
SEQEND
  8
gg1
  0
POLYLINE
  8
gg1
 62
1
 40
0.000000
 41
0.000000
 66
  1
  0
VERTEX
  8
gg1
 10
8.129500
 20
17.096900
  0
VERTEX
  8
gg1
 10
8.129500
 20
17.136900
  0
SEQEND
  8
gg1
  0
POLYLINE
  8
gg1
 62
1
 40
0.000000
 41
0.000000
 66
  1
  0
VERTEX
  8
gg1
 10
8.209500
 20
17.016900
  0
VERTEX
  8
gg1
 10
8.249500
 20
17.016900
  0
SEQEND
  8
gg1
  0
POLYLINE
  8
gg1
 62
1
 40
0.000000
 41
0.000000
 66
  1
  0
VERTEX
  8
gg1
 10
8.229500
 20
16.996900
  0
VERTEX
  8
gg1
 10
8.229500
 20
17.036900
  0
SEQEND
  8
gg1
  0
POLYLINE
  8
gg1
 62
1
 40
0.000000
 41
0.000000
 66
  1
  0
VERTEX
  8
gg1
 10
8.209500
 20
17.116900
  0
VERTEX
  8
gg1
 10
8.249500
 20
17.116900
  0
SEQEND
  8
gg1
  0
POLYLINE
  8
gg1
 62
1
 40
0.000000
 41
0.000000
 66
  1
  0
VERTEX
  8
gg1
 10
8.229500
 20
17.096900
  0
VERTEX
  8
gg1
 10
8.229500
 20
17.136900
  0
SEQEND
  8
gg1
  0
POLYLINE
  8
gg1
 62
1
 40
0.000000
 41
0.000000
 66
  1
  0
VERTEX
  8
gg1
 10
8.309500
 20
17.016900
  0
VERTEX
  8
gg1
 10
8.349500
 20
17.016900
  0
SEQEND
  8
gg1
  0
POLYLINE
  8
gg1
 62
1
 40
0.000000
 41
0.000000
 66
  1
  0
VERTEX
  8
gg1
 10
8.329500
 20
16.996900
  0
VERTEX
  8
gg1
 10
8.329500
 20
17.036900
  0
SEQEND
  8
gg1
  0
POLYLINE
  8
gg1
 62
1
 40
0.000000
 41
0.000000
 66
  1
  0
VERTEX
  8
gg1
 10
8.309500
 20
17.116900
  0
VERTEX
  8
gg1
 10
8.349500
 20
17.116900
  0
SEQEND
  8
gg1
  0
POLYLINE
  8
gg1
 62
1
 40
0.000000
 41
0.000000
 66
  1
  0
VERTEX
  8
gg1
 10
8.329500
 20
17.096900
  0
VERTEX
  8
gg1
 10
8.329500
 20
17.136900
  0
SEQEND
  8
gg1
  0
POLYLINE
  8
gg1
 62
1
 40
0.000000
 41
0.000000
 66
  1
  0
VERTEX
  8
gg1
 10
8.409500
 20
17.016900
  0
VERTEX
  8
gg1
 10
8.449500
 20
17.016900
  0
SEQEND
  8
gg1
  0
POLYLINE
  8
gg1
 62
1
 40
0.000000
 41
0.000000
 66
  1
  0
VERTEX
  8
gg1
 10
8.429500
 20
16.996900
  0
VERTEX
  8
gg1
 10
8.429500
 20
17.036900
  0
SEQEND
  8
gg1
  0
POLYLINE
  8
gg1
 62
1
 40
0.000000
 41
0.000000
 66
  1
  0
VERTEX
  8
gg1
 10
8.409500
 20
17.116900
  0
VERTEX
  8
gg1
 10
8.449500
 20
17.116900
  0
SEQEND
  8
gg1
  0
POLYLINE
  8
gg1
 62
1
 40
0.000000
 41
0.000000
 66
  1
  0
VERTEX
  8
gg1
 10
8.429500
 20
17.096900
  0
VERTEX
  8
gg1
 10
8.429500
 20
17.136900
  0
SEQEND
  8
gg1
  0
POLYLINE
  8
gg1
 62
1
 40
0.000000
 41
0.000000
 66
  1
  0
VERTEX
  8
gg1
 10
8.509500
 20
17.016900
  0
VERTEX
  8
gg1
 10
8.549500
 20
17.016900
  0
SEQEND
  8
gg1
  0
POLYLINE
  8
gg1
 62
1
 40
0.000000
 41
0.000000
 66
  1
  0
VERTEX
  8
gg1
 10
8.529500
 20
16.996900
  0
VERTEX
  8
gg1
 10
8.529500
 20
17.036900
  0
SEQEND
  8
gg1
  0
POLYLINE
  8
gg1
 62
1
 40
0.000000
 41
0.000000
 66
  1
  0
VERTEX
  8
gg1
 10
8.509500
 20
17.116900
  0
VERTEX
  8
gg1
 10
8.549500
 20
17.116900
  0
SEQEND
  8
gg1
  0
POLYLINE
  8
gg1
 62
1
 40
0.000000
 41
0.000000
 66
  1
  0
VERTEX
  8
gg1
 10
8.529500
 20
17.096900
  0
VERTEX
  8
gg1
 10
8.529500
 20
17.136900
  0
SEQEND
  8
gg1
  0
POLYLINE
  8
gg1
 62
1
 40
0.000000
 41
0.000000
 66
  1
  0
VERTEX
  8
gg1
 10
8.609500
 20
17.016900
  0
VERTEX
  8
gg1
 10
8.649500
 20
17.016900
  0
SEQEND
  8
gg1
  0
POLYLINE
  8
gg1
 62
1
 40
0.000000
 41
0.000000
 66
  1
  0
VERTEX
  8
gg1
 10
8.629500
 20
16.996900
  0
VERTEX
  8
gg1
 10
8.629500
 20
17.036900
  0
SEQEND
  8
gg1
  0
POLYLINE
  8
gg1
 62
1
 40
0.000000
 41
0.000000
 66
  1
  0
VERTEX
  8
gg1
 10
8.609500
 20
17.116900
  0
VERTEX
  8
gg1
 10
8.649500
 20
17.116900
  0
SEQEND
  8
gg1
  0
POLYLINE
  8
gg1
 62
1
 40
0.000000
 41
0.000000
 66
  1
  0
VERTEX
  8
gg1
 10
8.629500
 20
17.096900
  0
VERTEX
  8
gg1
 10
8.629500
 20
17.136900
  0
SEQEND
  8
gg1
  0
POLYLINE
  8
gg1
 62
1
 40
0.000000
 41
0.000000
 66
  1
  0
VERTEX
  8
gg1
 10
8.709500
 20
17.016900
  0
VERTEX
  8
gg1
 10
8.749500
 20
17.016900
  0
SEQEND
  8
gg1
  0
POLYLINE
  8
gg1
 62
1
 40
0.000000
 41
0.000000
 66
  1
  0
VERTEX
  8
gg1
 10
8.729500
 20
16.996900
  0
VERTEX
  8
gg1
 10
8.729500
 20
17.036900
  0
SEQEND
  8
gg1
  0
POLYLINE
  8
gg1
 62
1
 40
0.000000
 41
0.000000
 66
  1
  0
VERTEX
  8
gg1
 10
8.709500
 20
17.116900
  0
VERTEX
  8
gg1
 10
8.749500
 20
17.116900
  0
SEQEND
  8
gg1
  0
POLYLINE
  8
gg1
 62
1
 40
0.000000
 41
0.000000
 66
  1
  0
VERTEX
  8
gg1
 10
8.729500
 20
17.096900
  0
VERTEX
  8
gg1
 10
8.729500
 20
17.136900
  0
SEQEND
  8
gg1
  0
POLYLINE
  8
gg1
 62
1
 40
0.000000
 41
0.000000
 66
  1
  0
VERTEX
  8
gg1
 10
7.583700
 20
17.066900
  0
VERTEX
  8
gg1
 10
7.691900
 20
17.066900
  0
SEQEND
  8
gg1
  0
POLYLINE
  8
gg1
 62
1
 40
0.000000
 41
0.000000
 66
  1
  0
VERTEX
  8
gg1
 10
7.637800
 20
17.012800
  0
VERTEX
  8
gg1
 10
7.637800
 20
17.121100
  0
SEQEND
  8
gg1
  0
POLYLINE
  8
gg1
 62
1
 40
0.000000
 41
0.000000
 66
  1
  0
VERTEX
  8
gg1
 10
7.583700
 20
15.137800
  0
VERTEX
  8
gg1
 10
7.691900
 20
15.137800
  0
SEQEND
  8
gg1
  0
POLYLINE
  8
gg1
 62
1
 40
0.000000
 41
0.000000
 66
  1
  0
VERTEX
  8
gg1
 10
7.637800
 20
15.083700
  0
VERTEX
  8
gg1
 10
7.637800
 20
15.191900
  0
SEQEND
  8
gg1
  0
POLYLINE
  8
gg1
 62
1
 40
0.000000
 41
0.000000
 66
  1
  0
VERTEX
  8
gg1
 10
8.587600
 20
15.137800
  0
VERTEX
  8
gg1
 10
8.695900
 20
15.137800
  0
SEQEND
  8
gg1
  0
POLYLINE
  8
gg1
 62
1
 40
0.000000
 41
0.000000
 66
  1
  0
VERTEX
  8
gg1
 10
8.641700
 20
15.083700
  0
VERTEX
  8
gg1
 10
8.641700
 20
15.191900
  0
SEQEND
  8
gg1
  0
POLYLINE
  8
gg1
 62
1
 40
0.000000
 41
0.000000
 66
  1
  0
VERTEX
  8
gg1
 10
8.709500
 20
16.252400
  0
VERTEX
  8
gg1
 10
8.749500
 20
16.252400
  0
SEQEND
  8
gg1
  0
POLYLINE
  8
gg1
 62
1
 40
0.000000
 41
0.000000
 66
  1
  0
VERTEX
  8
gg1
 10
8.729500
 20
16.232400
  0
VERTEX
  8
gg1
 10
8.729500
 20
16.272400
  0
SEQEND
  8
gg1
  0
POLYLINE
  8
gg1
 62
1
 40
0.000000
 41
0.000000
 66
  1
  0
VERTEX
  8
gg1
 10
8.709500
 20
16.352400
  0
VERTEX
  8
gg1
 10
8.749500
 20
16.352400
  0
SEQEND
  8
gg1
  0
POLYLINE
  8
gg1
 62
1
 40
0.000000
 41
0.000000
 66
  1
  0
VERTEX
  8
gg1
 10
8.729500
 20
16.332400
  0
VERTEX
  8
gg1
 10
8.729500
 20
16.372400
  0
SEQEND
  8
gg1
  0
POLYLINE
  8
gg1
 62
1
 40
0.000000
 41
0.000000
 66
  1
  0
VERTEX
  8
gg1
 10
8.709500
 20
16.452400
  0
VERTEX
  8
gg1
 10
8.749500
 20
16.452400
  0
SEQEND
  8
gg1
  0
POLYLINE
  8
gg1
 62
1
 40
0.000000
 41
0.000000
 66
  1
  0
VERTEX
  8
gg1
 10
8.729500
 20
16.432400
  0
VERTEX
  8
gg1
 10
8.729500
 20
16.472400
  0
SEQEND
  8
gg1
  0
POLYLINE
  8
gg1
 62
1
 40
0.000000
 41
0.000000
 66
  1
  0
VERTEX
  8
gg1
 10
7.594800
 20
15.610200
  0
VERTEX
  8
gg1
 10
7.680800
 20
15.610200
  0
SEQEND
  8
gg1
  0
POLYLINE
  8
gg1
 62
1
 40
0.000000
 41
0.000000
 66
  1
  0
VERTEX
  8
gg1
 10
7.637800
 20
15.567200
  0
VERTEX
  8
gg1
 10
7.637800
 20
15.653200
  0
SEQEND
  8
gg1
  0
POLYLINE
  8
gg1
 62
1
 40
0.000000
 41
0.000000
 66
  1
  0
VERTEX
  8
gg1
 10
7.594800
 20
15.413400
  0
VERTEX
  8
gg1
 10
7.680800
 20
15.413400
  0
SEQEND
  8
gg1
  0
POLYLINE
  8
gg1
 62
1
 40
0.000000
 41
0.000000
 66
  1
  0
VERTEX
  8
gg1
 10
7.637800
 20
15.370400
  0
VERTEX
  8
gg1
 10
7.637800
 20
15.456400
  0
SEQEND
  8
gg1
  0
POLYLINE
  8
gg1
 62
1
 40
0.000000
 41
0.000000
 66
  1
  0
VERTEX
  8
gg1
 10
7.594800
 20
16.003900
  0
VERTEX
  8
gg1
 10
7.680800
 20
16.003900
  0
SEQEND
  8
gg1
  0
POLYLINE
  8
gg1
 62
1
 40
0.000000
 41
0.000000
 66
  1
  0
VERTEX
  8
gg1
 10
7.637800
 20
15.960900
  0
VERTEX
  8
gg1
 10
7.637800
 20
16.046900
  0
SEQEND
  8
gg1
  0
POLYLINE
  8
gg1
 62
1
 40
0.000000
 41
0.000000
 66
  1
  0
VERTEX
  8
gg1
 10
7.594800
 20
15.807100
  0
VERTEX
  8
gg1
 10
7.680800
 20
15.807100
  0
SEQEND
  8
gg1
  0
POLYLINE
  8
gg1
 62
1
 40
0.000000
 41
0.000000
 66
  1
  0
VERTEX
  8
gg1
 10
7.637800
 20
15.764100
  0
VERTEX
  8
gg1
 10
7.637800
 20
15.850100
  0
SEQEND
  8
gg1
  0
POLYLINE
  8
gg1
 62
1
 40
0.000000
 41
0.000000
 66
  1
  0
VERTEX
  8
gg1
 10
7.594800
 20
16.397600
  0
VERTEX
  8
gg1
 10
7.680800
 20
16.397600
  0
SEQEND
  8
gg1
  0
POLYLINE
  8
gg1
 62
1
 40
0.000000
 41
0.000000
 66
  1
  0
VERTEX
  8
gg1
 10
7.637800
 20
16.354600
  0
VERTEX
  8
gg1
 10
7.637800
 20
16.440600
  0
SEQEND
  8
gg1
  0
POLYLINE
  8
gg1
 62
1
 40
0.000000
 41
0.000000
 66
  1
  0
VERTEX
  8
gg1
 10
7.594800
 20
16.200800
  0
VERTEX
  8
gg1
 10
7.680800
 20
16.200800
  0
SEQEND
  8
gg1
  0
POLYLINE
  8
gg1
 62
1
 40
0.000000
 41
0.000000
 66
  1
  0
VERTEX
  8
gg1
 10
7.637800
 20
16.157800
  0
VERTEX
  8
gg1
 10
7.637800
 20
16.243800
  0
SEQEND
  8
gg1
  0
POLYLINE
  8
gg1
 62
1
 40
0.000000
 41
0.000000
 66
  1
  0
VERTEX
  8
gg1
 10
7.594800
 20
16.791300
  0
VERTEX
  8
gg1
 10
7.680800
 20
16.791300
  0
SEQEND
  8
gg1
  0
POLYLINE
  8
gg1
 62
1
 40
0.000000
 41
0.000000
 66
  1
  0
VERTEX
  8
gg1
 10
7.637800
 20
16.748300
  0
VERTEX
  8
gg1
 10
7.637800
 20
16.834300
  0
SEQEND
  8
gg1
  0
POLYLINE
  8
gg1
 62
1
 40
0.000000
 41
0.000000
 66
  1
  0
VERTEX
  8
gg1
 10
7.594800
 20
16.594500
  0
VERTEX
  8
gg1
 10
7.680800
 20
16.594500
  0
SEQEND
  8
gg1
  0
POLYLINE
  8
gg1
 62
1
 40
0.000000
 41
0.000000
 66
  1
  0
VERTEX
  8
gg1
 10
7.637800
 20
16.551500
  0
VERTEX
  8
gg1
 10
7.637800
 20
16.637500
  0
SEQEND
  8
gg1
  0
POLYLINE
  8
gg1
 62
1
 40
0.000000
 41
0.000000
 66
  1
  0
VERTEX
  8
gg1
 10
7.709500
 20
16.852400
  0
VERTEX
  8
gg1
 10
7.749500
 20
16.852400
  0
SEQEND
  8
gg1
  0
POLYLINE
  8
gg1
 62
1
 40
0.000000
 41
0.000000
 66
  1
  0
VERTEX
  8
gg1
 10
7.729500
 20
16.832400
  0
VERTEX
  8
gg1
 10
7.729500
 20
16.872400
  0
SEQEND
  8
gg1
  0
POLYLINE
  8
gg1
 62
1
 40
0.000000
 41
0.000000
 66
  1
  0
VERTEX
  8
gg1
 10
7.709500
 20
16.752400
  0
VERTEX
  8
gg1
 10
7.749500
 20
16.752400
  0
SEQEND
  8
gg1
  0
POLYLINE
  8
gg1
 62
1
 40
0.000000
 41
0.000000
 66
  1
  0
VERTEX
  8
gg1
 10
7.729500
 20
16.732400
  0
VERTEX
  8
gg1
 10
7.729500
 20
16.772400
  0
SEQEND
  8
gg1
  0
POLYLINE
  8
gg1
 62
1
 40
0.000000
 41
0.000000
 66
  1
  0
VERTEX
  8
gg1
 10
7.709500
 20
16.652400
  0
VERTEX
  8
gg1
 10
7.749500
 20
16.652400
  0
SEQEND
  8
gg1
  0
POLYLINE
  8
gg1
 62
1
 40
0.000000
 41
0.000000
 66
  1
  0
VERTEX
  8
gg1
 10
7.729500
 20
16.632400
  0
VERTEX
  8
gg1
 10
7.729500
 20
16.672400
  0
SEQEND
  8
gg1
  0
POLYLINE
  8
gg1
 62
1
 40
0.000000
 41
0.000000
 66
  1
  0
VERTEX
  8
gg1
 10
7.709500
 20
16.552400
  0
VERTEX
  8
gg1
 10
7.749500
 20
16.552400
  0
SEQEND
  8
gg1
  0
POLYLINE
  8
gg1
 62
1
 40
0.000000
 41
0.000000
 66
  1
  0
VERTEX
  8
gg1
 10
7.729500
 20
16.532400
  0
VERTEX
  8
gg1
 10
7.729500
 20
16.572400
  0
SEQEND
  8
gg1
  0
POLYLINE
  8
gg1
 62
1
 40
0.000000
 41
0.000000
 66
  1
  0
VERTEX
  8
gg1
 10
7.709500
 20
16.152400
  0
VERTEX
  8
gg1
 10
7.749500
 20
16.152400
  0
SEQEND
  8
gg1
  0
POLYLINE
  8
gg1
 62
1
 40
0.000000
 41
0.000000
 66
  1
  0
VERTEX
  8
gg1
 10
7.729500
 20
16.132400
  0
VERTEX
  8
gg1
 10
7.729500
 20
16.172400
  0
SEQEND
  8
gg1
  0
POLYLINE
  8
gg1
 62
1
 40
0.000000
 41
0.000000
 66
  1
  0
VERTEX
  8
gg1
 10
7.709500
 20
16.052400
  0
VERTEX
  8
gg1
 10
7.749500
 20
16.052400
  0
SEQEND
  8
gg1
  0
POLYLINE
  8
gg1
 62
1
 40
0.000000
 41
0.000000
 66
  1
  0
VERTEX
  8
gg1
 10
7.729500
 20
16.032400
  0
VERTEX
  8
gg1
 10
7.729500
 20
16.072400
  0
SEQEND
  8
gg1
  0
POLYLINE
  8
gg1
 62
1
 40
0.000000
 41
0.000000
 66
  1
  0
VERTEX
  8
gg1
 10
7.709500
 20
15.952400
  0
VERTEX
  8
gg1
 10
7.749500
 20
15.952400
  0
SEQEND
  8
gg1
  0
POLYLINE
  8
gg1
 62
1
 40
0.000000
 41
0.000000
 66
  1
  0
VERTEX
  8
gg1
 10
7.729500
 20
15.932400
  0
VERTEX
  8
gg1
 10
7.729500
 20
15.972400
  0
SEQEND
  8
gg1
  0
POLYLINE
  8
gg1
 62
1
 40
0.000000
 41
0.000000
 66
  1
  0
VERTEX
  8
gg1
 10
7.709500
 20
15.852400
  0
VERTEX
  8
gg1
 10
7.749500
 20
15.852400
  0
SEQEND
  8
gg1
  0
POLYLINE
  8
gg1
 62
1
 40
0.000000
 41
0.000000
 66
  1
  0
VERTEX
  8
gg1
 10
7.729500
 20
15.832400
  0
VERTEX
  8
gg1
 10
7.729500
 20
15.872400
  0
SEQEND
  8
gg1
  0
POLYLINE
  8
gg1
 62
1
 40
0.000000
 41
0.000000
 66
  1
  0
VERTEX
  8
gg1
 10
7.709500
 20
15.352400
  0
VERTEX
  8
gg1
 10
7.749500
 20
15.352400
  0
SEQEND
  8
gg1
  0
POLYLINE
  8
gg1
 62
1
 40
0.000000
 41
0.000000
 66
  1
  0
VERTEX
  8
gg1
 10
7.729500
 20
15.332400
  0
VERTEX
  8
gg1
 10
7.729500
 20
15.372400
  0
SEQEND
  8
gg1
  0
POLYLINE
  8
gg1
 62
1
 40
0.000000
 41
0.000000
 66
  1
  0
VERTEX
  8
gg1
 10
7.709500
 20
15.452400
  0
VERTEX
  8
gg1
 10
7.749500
 20
15.452400
  0
SEQEND
  8
gg1
  0
POLYLINE
  8
gg1
 62
1
 40
0.000000
 41
0.000000
 66
  1
  0
VERTEX
  8
gg1
 10
7.729500
 20
15.432400
  0
VERTEX
  8
gg1
 10
7.729500
 20
15.472400
  0
SEQEND
  8
gg1
  0
POLYLINE
  8
gg1
 62
1
 40
0.000000
 41
0.000000
 66
  1
  0
VERTEX
  8
gg1
 10
7.709500
 20
15.552400
  0
VERTEX
  8
gg1
 10
7.749500
 20
15.552400
  0
SEQEND
  8
gg1
  0
POLYLINE
  8
gg1
 62
1
 40
0.000000
 41
0.000000
 66
  1
  0
VERTEX
  8
gg1
 10
7.729500
 20
15.532400
  0
VERTEX
  8
gg1
 10
7.729500
 20
15.572400
  0
SEQEND
  8
gg1
  0
POLYLINE
  8
gg1
 62
1
 40
0.000000
 41
0.000000
 66
  1
  0
VERTEX
  8
gg1
 10
7.709500
 20
15.652400
  0
VERTEX
  8
gg1
 10
7.749500
 20
15.652400
  0
SEQEND
  8
gg1
  0
POLYLINE
  8
gg1
 62
1
 40
0.000000
 41
0.000000
 66
  1
  0
VERTEX
  8
gg1
 10
7.729500
 20
15.632400
  0
VERTEX
  8
gg1
 10
7.729500
 20
15.672400
  0
SEQEND
  8
gg1
  0
POLYLINE
  8
gg1
 62
1
 40
0.000000
 41
0.000000
 66
  1
  0
VERTEX
  8
gg1
 10
7.709500
 20
15.752400
  0
VERTEX
  8
gg1
 10
7.749500
 20
15.752400
  0
SEQEND
  8
gg1
  0
POLYLINE
  8
gg1
 62
1
 40
0.000000
 41
0.000000
 66
  1
  0
VERTEX
  8
gg1
 10
7.729500
 20
15.732400
  0
VERTEX
  8
gg1
 10
7.729500
 20
15.772400
  0
SEQEND
  8
gg1
  0
POLYLINE
  8
gg1
 62
1
 40
0.000000
 41
0.000000
 66
  1
  0
VERTEX
  8
gg1
 10
7.709500
 20
16.252400
  0
VERTEX
  8
gg1
 10
7.749500
 20
16.252400
  0
SEQEND
  8
gg1
  0
POLYLINE
  8
gg1
 62
1
 40
0.000000
 41
0.000000
 66
  1
  0
VERTEX
  8
gg1
 10
7.729500
 20
16.232400
  0
VERTEX
  8
gg1
 10
7.729500
 20
16.272400
  0
SEQEND
  8
gg1
  0
POLYLINE
  8
gg1
 62
1
 40
0.000000
 41
0.000000
 66
  1
  0
VERTEX
  8
gg1
 10
7.709500
 20
16.352400
  0
VERTEX
  8
gg1
 10
7.749500
 20
16.352400
  0
SEQEND
  8
gg1
  0
POLYLINE
  8
gg1
 62
1
 40
0.000000
 41
0.000000
 66
  1
  0
VERTEX
  8
gg1
 10
7.729500
 20
16.332400
  0
VERTEX
  8
gg1
 10
7.729500
 20
16.372400
  0
SEQEND
  8
gg1
  0
POLYLINE
  8
gg1
 62
1
 40
0.000000
 41
0.000000
 66
  1
  0
VERTEX
  8
gg1
 10
7.709500
 20
16.452400
  0
VERTEX
  8
gg1
 10
7.749500
 20
16.452400
  0
SEQEND
  8
gg1
  0
POLYLINE
  8
gg1
 62
1
 40
0.000000
 41
0.000000
 66
  1
  0
VERTEX
  8
gg1
 10
7.729500
 20
16.432400
  0
VERTEX
  8
gg1
 10
7.729500
 20
16.472400
  0
SEQEND
  8
gg1
  0
POLYLINE
  8
gg1
 62
1
 40
0.000000
 41
0.000000
 66
  1
  0
VERTEX
  8
gg1
 10
8.709500
 20
15.752400
  0
VERTEX
  8
gg1
 10
8.749500
 20
15.752400
  0
SEQEND
  8
gg1
  0
POLYLINE
  8
gg1
 62
1
 40
0.000000
 41
0.000000
 66
  1
  0
VERTEX
  8
gg1
 10
8.729500
 20
15.732400
  0
VERTEX
  8
gg1
 10
8.729500
 20
15.772400
  0
SEQEND
  8
gg1
  0
POLYLINE
  8
gg1
 62
1
 40
0.000000
 41
0.000000
 66
  1
  0
VERTEX
  8
gg1
 10
8.709500
 20
15.852400
  0
VERTEX
  8
gg1
 10
8.749500
 20
15.852400
  0
SEQEND
  8
gg1
  0
POLYLINE
  8
gg1
 62
1
 40
0.000000
 41
0.000000
 66
  1
  0
VERTEX
  8
gg1
 10
8.729500
 20
15.832400
  0
VERTEX
  8
gg1
 10
8.729500
 20
15.872400
  0
SEQEND
  8
gg1
  0
POLYLINE
  8
gg1
 62
1
 40
0.000000
 41
0.000000
 66
  1
  0
VERTEX
  8
gg1
 10
8.709500
 20
15.952400
  0
VERTEX
  8
gg1
 10
8.749500
 20
15.952400
  0
SEQEND
  8
gg1
  0
POLYLINE
  8
gg1
 62
1
 40
0.000000
 41
0.000000
 66
  1
  0
VERTEX
  8
gg1
 10
8.729500
 20
15.932400
  0
VERTEX
  8
gg1
 10
8.729500
 20
15.972400
  0
SEQEND
  8
gg1
  0
POLYLINE
  8
gg1
 62
1
 40
0.000000
 41
0.000000
 66
  1
  0
VERTEX
  8
gg1
 10
8.709500
 20
16.052400
  0
VERTEX
  8
gg1
 10
8.749500
 20
16.052400
  0
SEQEND
  8
gg1
  0
POLYLINE
  8
gg1
 62
1
 40
0.000000
 41
0.000000
 66
  1
  0
VERTEX
  8
gg1
 10
8.729500
 20
16.032400
  0
VERTEX
  8
gg1
 10
8.729500
 20
16.072400
  0
SEQEND
  8
gg1
  0
POLYLINE
  8
gg1
 62
1
 40
0.000000
 41
0.000000
 66
  1
  0
VERTEX
  8
gg1
 10
8.709500
 20
16.152400
  0
VERTEX
  8
gg1
 10
8.749500
 20
16.152400
  0
SEQEND
  8
gg1
  0
POLYLINE
  8
gg1
 62
1
 40
0.000000
 41
0.000000
 66
  1
  0
VERTEX
  8
gg1
 10
8.729500
 20
16.132400
  0
VERTEX
  8
gg1
 10
8.729500
 20
16.172400
  0
SEQEND
  8
gg1
  0
POLYLINE
  8
gg1
 62
1
 40
0.000000
 41
0.000000
 66
  1
  0
VERTEX
  8
gg1
 10
8.709500
 20
15.552400
  0
VERTEX
  8
gg1
 10
8.749500
 20
15.552400
  0
SEQEND
  8
gg1
  0
POLYLINE
  8
gg1
 62
1
 40
0.000000
 41
0.000000
 66
  1
  0
VERTEX
  8
gg1
 10
8.729500
 20
15.532400
  0
VERTEX
  8
gg1
 10
8.729500
 20
15.572400
  0
SEQEND
  8
gg1
  0
POLYLINE
  8
gg1
 62
1
 40
0.000000
 41
0.000000
 66
  1
  0
VERTEX
  8
gg1
 10
8.709500
 20
15.652400
  0
VERTEX
  8
gg1
 10
8.749500
 20
15.652400
  0
SEQEND
  8
gg1
  0
POLYLINE
  8
gg1
 62
1
 40
0.000000
 41
0.000000
 66
  1
  0
VERTEX
  8
gg1
 10
8.729500
 20
15.632400
  0
VERTEX
  8
gg1
 10
8.729500
 20
15.672400
  0
SEQEND
  8
gg1
  0
ENDSEC
  0
EOF
