  0
SECTION
  2
HEADER
  9
$EXTMIN
 10
1.608000
 20
0.403000
  9
$EXTMAX
 10
4.640000
 20
3.947000
  9
$LIMMIN
 10
1.608000
 20
0.403000
  9
$LIMMAX
 10
4.640000
 20
3.947000
  9
$FILLMODE
 70
  1
  0
ENDSEC
  0
SECTION
  2
TABLES
  0
TABLE
  2
LTYPE
 70
  1
  0
LTYPE
  2
CONTINUOUS
 70
 64
  3
Solid line
 72
 65
 73
  0
 40
0.0
  0
ENDTAB
  0
TABLE
  2
LAYER
 70
 1
  0
LAYER
  2
0
 70
  0
 62
7
  6
CONTINUOUS
  0
LAYER
  2
gg1
 70
  0
 62
1
  6
CONTINUOUS
  0
ENDTAB
  0
TABLE
  2
STYLE
 70
  1
  0
STYLE
  2
STANDARD
 70
  0
 40
0.0
 41
1.0
 50
0.0
 71
  0
 42
0.2
  3
txt
  4

  0
ENDTAB
  0
ENDSEC
  0
SECTION
  2
BLOCKS
  0
BLOCK
  8
0
  2
D10
 70
64
 10
0.0
 20
0.0
  3
D10
  0
CIRCLE
  8
0
 10
0.000000
 20
0.000000
 40
0.002500
 0
ENDBLK
  8
0
  0
BLOCK
  8
0
  2
D11
 70
64
 10
0.0
 20
0.0
  3
D11
  0
CIRCLE
  8
0
 10
0.000000
 20
0.000000
 40
0.005000
 0
ENDBLK
  8
0
  0
BLOCK
  8
0
  2
D12
 70
64
 10
0.0
 20
0.0
  3
D12
  0
CIRCLE
  8
0
 10
0.000000
 20
0.000000
 40
0.003000
 0
ENDBLK
  8
0
  0
BLOCK
  8
0
  2
D13
 70
64
 10
0.0
 20
0.0
  3
D13
  0
CIRCLE
  8
0
 10
0.000000
 20
0.000000
 40
0.001000
 0
ENDBLK
  8
0
  0
ENDSEC
  0
SECTION
  2
ENTITIES
  0
POLYLINE
  8
gg1
 62
1
 40
0.000000
 41
0.000000
 66
  1
  0
VERTEX
  8
gg1
 10
3.960000
 20
0.542000
  0
VERTEX
  8
gg1
 10
3.960000
 20
0.542000
  0
VERTEX
  8
gg1
 10
3.960000
 20
0.542000
 42
0.100353
  0
VERTEX
  8
gg1
 10
4.018600
 20
0.553900
  0
VERTEX
  8
gg1
 10
4.018600
 20
0.553900
  0
SEQEND
  8
gg1
  0
POLYLINE
  8
gg1
 62
1
 40
0.000000
 41
0.000000
 66
  1
  0
VERTEX
  8
gg1
 10
2.651400
 20
0.553900
  0
VERTEX
  8
gg1
 10
2.651400
 20
0.553900
  0
VERTEX
  8
gg1
 10
2.651400
 20
0.553900
 42
0.100974
  0
VERTEX
  8
gg1
 10
2.710000
 20
0.542000
  0
VERTEX
  8
gg1
 10
2.710000
 20
0.542000
  0
SEQEND
  8
gg1
  0
POLYLINE
  8
gg1
 62
1
 40
0.000000
 41
0.000000
 66
  1
  0
VERTEX
  8
gg1
 10
2.063100
 20
0.953900
  0
VERTEX
  8
gg1
 10
2.063100
 20
0.953900
  0
VERTEX
  8
gg1
 10
2.063100
 20
0.953900
 42
0.101201
  0
VERTEX
  8
gg1
 10
2.651400
 20
0.553900
  0
VERTEX
  8
gg1
 10
2.651400
 20
0.553900
  0
SEQEND
  8
gg1
  0
POLYLINE
  8
gg1
 62
1
 40
0.000000
 41
0.000000
 66
  1
  0
VERTEX
  8
gg1
 10
4.018600
 20
0.553900
  0
VERTEX
  8
gg1
 10
4.018600
 20
0.553900
  0
VERTEX
  8
gg1
 10
4.018600
 20
0.553900
 42
0.101248
  0
VERTEX
  8
gg1
 10
4.606900
 20
0.953900
  0
VERTEX
  8
gg1
 10
4.606900
 20
0.953900
  0
SEQEND
  8
gg1
  0
POLYLINE
  8
gg1
 62
1
 40
0.000000
 41
0.000000
 66
  1
  0
VERTEX
  8
gg1
 10
4.635000
 20
3.324500
  0
VERTEX
  8
gg1
 10
4.635000
 20
3.324500
  0
VERTEX
  8
gg1
 10
4.635000
 20
3.324500
 42
0.190270
  0
VERTEX
  8
gg1
 10
4.608100
 20
3.392700
  0
VERTEX
  8
gg1
 10
4.608100
 20
3.392700
  0
SEQEND
  8
gg1
  0
POLYLINE
  8
gg1
 62
1
 40
0.000000
 41
0.000000
 66
  1
  0
VERTEX
  8
gg1
 10
4.585000
 20
2.617000
  0
VERTEX
  8
gg1
 10
4.585000
 20
2.617000
  0
VERTEX
  8
gg1
 10
4.585000
 20
2.617000
 42
0.414214
  0
VERTEX
  8
gg1
 10
4.635000
 20
2.667000
  0
VERTEX
  8
gg1
 10
4.635000
 20
2.667000
  0
SEQEND
  8
gg1
  0
POLYLINE
  8
gg1
 62
1
 40
0.000000
 41
0.000000
 66
  1
  0
VERTEX
  8
gg1
 10
4.635000
 20
1.717000
  0
VERTEX
  8
gg1
 10
4.635000
 20
1.717000
  0
VERTEX
  8
gg1
 10
4.635000
 20
1.717000
 42
0.414214
  0
VERTEX
  8
gg1
 10
4.585000
 20
1.767000
  0
VERTEX
  8
gg1
 10
4.585000
 20
1.767000
  0
SEQEND
  8
gg1
  0
POLYLINE
  8
gg1
 62
1
 40
0.000000
 41
0.000000
 66
  1
  0
VERTEX
  8
gg1
 10
4.425000
 20
2.617000
  0
VERTEX
  8
gg1
 10
4.425000
 20
2.617000
  0
VERTEX
  8
gg1
 10
4.425000
 20
2.617000
 42
0.414214
  0
VERTEX
  8
gg1
 10
4.375000
 20
2.567000
  0
VERTEX
  8
gg1
 10
4.375000
 20
2.567000
  0
SEQEND
  8
gg1
  0
POLYLINE
  8
gg1
 62
1
 40
0.000000
 41
0.000000
 66
  1
  0
VERTEX
  8
gg1
 10
4.375000
 20
1.817000
  0
VERTEX
  8
gg1
 10
4.375000
 20
1.817000
  0
VERTEX
  8
gg1
 10
4.375000
 20
1.817000
 42
0.414214
  0
VERTEX
  8
gg1
 10
4.425000
 20
1.767000
  0
VERTEX
  8
gg1
 10
4.425000
 20
1.767000
  0
SEQEND
  8
gg1
  0
POLYLINE
  8
gg1
 62
1
 40
0.000000
 41
0.000000
 66
  1
  0
VERTEX
  8
gg1
 10
4.608100
 20
3.392700
  0
VERTEX
  8
gg1
 10
4.608100
 20
3.392700
  0
VERTEX
  8
gg1
 10
4.608100
 20
3.392700
 42
0.431458
  0
VERTEX
  8
gg1
 10
2.061900
 20
3.392700
  0
VERTEX
  8
gg1
 10
2.061900
 20
3.392700
  0
SEQEND
  8
gg1
  0
POLYLINE
  8
gg1
 62
1
 40
0.000000
 41
0.000000
 66
  1
  0
VERTEX
  8
gg1
 10
2.295000
 20
2.567000
  0
VERTEX
  8
gg1
 10
2.295000
 20
2.567000
  0
VERTEX
  8
gg1
 10
2.295000
 20
2.567000
 42
0.414214
  0
VERTEX
  8
gg1
 10
2.245000
 20
2.617000
  0
VERTEX
  8
gg1
 10
2.245000
 20
2.617000
  0
SEQEND
  8
gg1
  0
POLYLINE
  8
gg1
 62
1
 40
0.000000
 41
0.000000
 66
  1
  0
VERTEX
  8
gg1
 10
2.245000
 20
1.767000
  0
VERTEX
  8
gg1
 10
2.245000
 20
1.767000
  0
VERTEX
  8
gg1
 10
2.245000
 20
1.767000
 42
0.414214
  0
VERTEX
  8
gg1
 10
2.295000
 20
1.817000
  0
VERTEX
  8
gg1
 10
2.295000
 20
1.817000
  0
SEQEND
  8
gg1
  0
POLYLINE
  8
gg1
 62
1
 40
0.000000
 41
0.000000
 66
  1
  0
VERTEX
  8
gg1
 10
2.035000
 20
2.667000
  0
VERTEX
  8
gg1
 10
2.035000
 20
2.667000
  0
VERTEX
  8
gg1
 10
2.035000
 20
2.667000
 42
0.414214
  0
VERTEX
  8
gg1
 10
2.085000
 20
2.617000
  0
VERTEX
  8
gg1
 10
2.085000
 20
2.617000
  0
SEQEND
  8
gg1
  0
POLYLINE
  8
gg1
 62
1
 40
0.000000
 41
0.000000
 66
  1
  0
VERTEX
  8
gg1
 10
2.085000
 20
1.767000
  0
VERTEX
  8
gg1
 10
2.085000
 20
1.767000
  0
VERTEX
  8
gg1
 10
2.085000
 20
1.767000
 42
0.414214
  0
VERTEX
  8
gg1
 10
2.035000
 20
1.717000
  0
VERTEX
  8
gg1
 10
2.035000
 20
1.717000
  0
SEQEND
  8
gg1
  0
POLYLINE
  8
gg1
 62
1
 40
0.000000
 41
0.000000
 66
  1
  0
VERTEX
  8
gg1
 10
2.061900
 20
3.392700
  0
VERTEX
  8
gg1
 10
2.061900
 20
3.392700
  0
VERTEX
  8
gg1
 10
2.061900
 20
3.392700
 42
0.189567
  0
VERTEX
  8
gg1
 10
2.035000
 20
3.324500
  0
VERTEX
  8
gg1
 10
2.035000
 20
3.324500
  0
SEQEND
  8
gg1
  0
POLYLINE
  8
gg1
 62
1
 40
0.000000
 41
0.000000
 66
  1
  0
VERTEX
  8
gg1
 10
4.606900
 20
0.953900
  0
VERTEX
  8
gg1
 10
4.606900
 20
0.953900
  0
VERTEX
  8
gg1
 10
4.606900
 20
0.953900
 42
0.194496
  0
VERTEX
  8
gg1
 10
4.635000
 20
1.023400
  0
VERTEX
  8
gg1
 10
4.635000
 20
1.023400
  0
SEQEND
  8
gg1
  0
POLYLINE
  8
gg1
 62
1
 40
0.000000
 41
0.000000
 66
  1
  0
VERTEX
  8
gg1
 10
2.035000
 20
1.023400
  0
VERTEX
  8
gg1
 10
2.035000
 20
1.023400
  0
VERTEX
  8
gg1
 10
2.035000
 20
1.023400
 42
0.194515
  0
VERTEX
  8
gg1
 10
2.063100
 20
0.953900
  0
VERTEX
  8
gg1
 10
2.063100
 20
0.953900
  0
SEQEND
  8
gg1
  0
POLYLINE
  8
gg1
 62
1
 40
0.000000
 41
0.000000
 66
  1
  0
VERTEX
  8
gg1
 10
2.710000
 20
0.542000
  0
VERTEX
  8
gg1
 10
3.960000
 20
0.542000
  0
SEQEND
  8
gg1
  0
POLYLINE
  8
gg1
 62
1
 40
0.000000
 41
0.000000
 66
  1
  0
VERTEX
  8
gg1
 10
4.635000
 20
2.667000
  0
VERTEX
  8
gg1
 10
4.635000
 20
3.324500
  0
SEQEND
  8
gg1
  0
POLYLINE
  8
gg1
 62
1
 40
0.000000
 41
0.000000
 66
  1
  0
VERTEX
  8
gg1
 10
4.425000
 20
2.617000
  0
VERTEX
  8
gg1
 10
4.585000
 20
2.617000
  0
SEQEND
  8
gg1
  0
POLYLINE
  8
gg1
 62
1
 40
0.000000
 41
0.000000
 66
  1
  0
VERTEX
  8
gg1
 10
4.425000
 20
1.767000
  0
VERTEX
  8
gg1
 10
4.585000
 20
1.767000
  0
SEQEND
  8
gg1
  0
POLYLINE
  8
gg1
 62
1
 40
0.000000
 41
0.000000
 66
  1
  0
VERTEX
  8
gg1
 10
4.375000
 20
1.817000
  0
VERTEX
  8
gg1
 10
4.375000
 20
2.567000
  0
SEQEND
  8
gg1
  0
POLYLINE
  8
gg1
 62
1
 40
0.000000
 41
0.000000
 66
  1
  0
VERTEX
  8
gg1
 10
2.295000
 20
1.817000
  0
VERTEX
  8
gg1
 10
2.295000
 20
2.567000
  0
SEQEND
  8
gg1
  0
POLYLINE
  8
gg1
 62
1
 40
0.000000
 41
0.000000
 66
  1
  0
VERTEX
  8
gg1
 10
2.085000
 20
2.617000
  0
VERTEX
  8
gg1
 10
2.245000
 20
2.617000
  0
SEQEND
  8
gg1
  0
POLYLINE
  8
gg1
 62
1
 40
0.000000
 41
0.000000
 66
  1
  0
VERTEX
  8
gg1
 10
2.085000
 20
1.767000
  0
VERTEX
  8
gg1
 10
2.245000
 20
1.767000
  0
SEQEND
  8
gg1
  0
POLYLINE
  8
gg1
 62
1
 40
0.000000
 41
0.000000
 66
  1
  0
VERTEX
  8
gg1
 10
2.035000
 20
2.667000
  0
VERTEX
  8
gg1
 10
2.035000
 20
3.324500
  0
SEQEND
  8
gg1
  0
POLYLINE
  8
gg1
 62
1
 40
0.000000
 41
0.000000
 66
  1
  0
VERTEX
  8
gg1
 10
4.635000
 20
1.023400
  0
VERTEX
  8
gg1
 10
4.635000
 20
1.717000
  0
SEQEND
  8
gg1
  0
POLYLINE
  8
gg1
 62
1
 40
0.000000
 41
0.000000
 66
  1
  0
VERTEX
  8
gg1
 10
2.035000
 20
1.023400
  0
VERTEX
  8
gg1
 10
2.035000
 20
1.717000
  0
SEQEND
  8
gg1
  0
POLYLINE
  8
gg1
 62
1
 40
0.000000
 41
0.000000
 66
  1
  0
VERTEX
  8
gg1
 10
2.035000
 20
0.442000
  0
VERTEX
  8
gg1
 10
2.095000
 20
0.462000
  0
SEQEND
  8
gg1
  0
POLYLINE
  8
gg1
 62
1
 40
0.000000
 41
0.000000
 66
  1
  0
VERTEX
  8
gg1
 10
2.035000
 20
0.442000
  0
VERTEX
  8
gg1
 10
2.095000
 20
0.422000
  0
SEQEND
  8
gg1
  0
POLYLINE
  8
gg1
 62
1
 40
0.000000
 41
0.000000
 66
  1
  0
VERTEX
  8
gg1
 10
4.575000
 20
0.422000
  0
VERTEX
  8
gg1
 10
4.635000
 20
0.442000
  0
SEQEND
  8
gg1
  0
POLYLINE
  8
gg1
 62
1
 40
0.000000
 41
0.000000
 66
  1
  0
VERTEX
  8
gg1
 10
4.575000
 20
0.462000
  0
VERTEX
  8
gg1
 10
4.635000
 20
0.442000
  0
SEQEND
  8
gg1
  0
POLYLINE
  8
gg1
 62
1
 40
0.000000
 41
0.000000
 66
  1
  0
VERTEX
  8
gg1
 10
2.035000
 20
0.442000
  0
VERTEX
  8
gg1
 10
3.118100
 20
0.442000
  0
SEQEND
  8
gg1
  0
POLYLINE
  8
gg1
 62
1
 40
0.000000
 41
0.000000
 66
  1
  0
VERTEX
  8
gg1
 10
3.519900
 20
0.442000
  0
VERTEX
  8
gg1
 10
4.635000
 20
0.442000
  0
SEQEND
  8
gg1
  0
POLYLINE
  8
gg1
 62
1
 40
0.000000
 41
0.000000
 66
  1
  0
VERTEX
  8
gg1
 10
2.035000
 20
0.432000
  0
VERTEX
  8
gg1
 10
2.035000
 20
0.970900
  0
SEQEND
  8
gg1
  0
POLYLINE
  8
gg1
 62
1
 40
0.000000
 41
0.000000
 66
  1
  0
VERTEX
  8
gg1
 10
4.635000
 20
0.432000
  0
VERTEX
  8
gg1
 10
4.635000
 20
0.970900
  0
SEQEND
  8
gg1
  0
POLYLINE
  8
gg1
 62
1
 40
0.000000
 41
0.000000
 66
  1
  0
VERTEX
  8
gg1
 10
1.615000
 20
0.602000
  0
VERTEX
  8
gg1
 10
1.635000
 20
0.542000
  0
VERTEX
  8
gg1
 10
1.655000
 20
0.602000
  0
SEQEND
  8
gg1
  0
POLYLINE
  8
gg1
 62
1
 40
0.000000
 41
0.000000
 66
  1
  0
VERTEX
  8
gg1
 10
1.635000
 20
3.942000
  0
VERTEX
  8
gg1
 10
1.655000
 20
3.882000
  0
SEQEND
  8
gg1
  0
POLYLINE
  8
gg1
 62
1
 40
0.000000
 41
0.000000
 66
  1
  0
VERTEX
  8
gg1
 10
1.615000
 20
3.882000
  0
VERTEX
  8
gg1
 10
1.635000
 20
3.942000
  0
SEQEND
  8
gg1
  0
POLYLINE
  8
gg1
 62
1
 40
0.000000
 41
0.000000
 66
  1
  0
VERTEX
  8
gg1
 10
1.635000
 20
0.542000
  0
VERTEX
  8
gg1
 10
1.635000
 20
2.025100
  0
SEQEND
  8
gg1
  0
POLYLINE
  8
gg1
 62
1
 40
0.000000
 41
0.000000
 66
  1
  0
VERTEX
  8
gg1
 10
1.635000
 20
2.426900
  0
VERTEX
  8
gg1
 10
1.635000
 20
3.942000
  0
SEQEND
  8
gg1
  0
POLYLINE
  8
gg1
 62
1
 40
0.000000
 41
0.000000
 66
  1
  0
VERTEX
  8
gg1
 10
1.625000
 20
0.542000
  0
VERTEX
  8
gg1
 10
2.497000
 20
0.542000
  0
SEQEND
  8
gg1
  0
POLYLINE
  8
gg1
 62
1
 40
0.000000
 41
0.000000
 66
  1
  0
VERTEX
  8
gg1
 10
1.625000
 20
3.942000
  0
VERTEX
  8
gg1
 10
3.132500
 20
3.942000
  0
SEQEND
  8
gg1
  0
POLYLINE
  8
gg1
 62
1
 40
0.000000
 41
0.000000
 66
  1
  0
VERTEX
  8
gg1
 10
3.174000
 20
0.406000
  0
VERTEX
  8
gg1
 10
3.134100
 20
0.406000
  0
VERTEX
  8
gg1
 10
3.174000
 20
0.446000
  0
VERTEX
  8
gg1
 10
3.174000
 20
0.456000
  0
VERTEX
  8
gg1
 10
3.164100
 20
0.466000
  0
VERTEX
  8
gg1
 10
3.144100
 20
0.466000
  0
VERTEX
  8
gg1
 10
3.134100
 20
0.456000
  0
SEQEND
  8
gg1
  0
POLYLINE
  8
gg1
 62
1
 40
0.000000
 41
0.000000
 66
  1
  0
VERTEX
  8
gg1
 10
3.234000
 20
0.466000
  0
VERTEX
  8
gg1
 10
3.214000
 20
0.456000
  0
VERTEX
  8
gg1
 10
3.194000
 20
0.436000
  0
VERTEX
  8
gg1
 10
3.194000
 20
0.416000
  0
VERTEX
  8
gg1
 10
3.204000
 20
0.406000
  0
VERTEX
  8
gg1
 10
3.224000
 20
0.406000
  0
VERTEX
  8
gg1
 10
3.234000
 20
0.416000
  0
VERTEX
  8
gg1
 10
3.234000
 20
0.426000
  0
VERTEX
  8
gg1
 10
3.224000
 20
0.436000
  0
VERTEX
  8
gg1
 10
3.194000
 20
0.436000
  0
SEQEND
  8
gg1
  0
POLYLINE
  8
gg1
 62
1
 40
0.000000
 41
0.000000
 66
  1
  0
VERTEX
  8
gg1
 10
3.254000
 20
0.456000
  0
VERTEX
  8
gg1
 10
3.264000
 20
0.466000
  0
VERTEX
  8
gg1
 10
3.284000
 20
0.466000
  0
VERTEX
  8
gg1
 10
3.294000
 20
0.456000
  0
VERTEX
  8
gg1
 10
3.294000
 20
0.416000
  0
VERTEX
  8
gg1
 10
3.284000
 20
0.406000
  0
VERTEX
  8
gg1
 10
3.264000
 20
0.406000
  0
VERTEX
  8
gg1
 10
3.254000
 20
0.416000
  0
VERTEX
  8
gg1
 10
3.254000
 20
0.456000
  0
SEQEND
  8
gg1
  0
POLYLINE
  8
gg1
 62
1
 40
0.000000
 41
0.000000
 66
  1
  0
VERTEX
  8
gg1
 10
3.314000
 20
0.456000
  0
VERTEX
  8
gg1
 10
3.324000
 20
0.466000
  0
VERTEX
  8
gg1
 10
3.344000
 20
0.466000
  0
VERTEX
  8
gg1
 10
3.354000
 20
0.456000
  0
VERTEX
  8
gg1
 10
3.354000
 20
0.416000
  0
VERTEX
  8
gg1
 10
3.344000
 20
0.406000
  0
VERTEX
  8
gg1
 10
3.324000
 20
0.406000
  0
VERTEX
  8
gg1
 10
3.314000
 20
0.416000
  0
VERTEX
  8
gg1
 10
3.314000
 20
0.456000
  0
SEQEND
  8
gg1
  0
POLYLINE
  8
gg1
 62
1
 40
0.000000
 41
0.000000
 66
  1
  0
VERTEX
  8
gg1
 10
3.374000
 20
0.406000
  0
VERTEX
  8
gg1
 10
3.374000
 20
0.446000
  0
VERTEX
  8
gg1
 10
3.384000
 20
0.446000
  0
VERTEX
  8
gg1
 10
3.394000
 20
0.436000
  0
VERTEX
  8
gg1
 10
3.394000
 20
0.406000
  0
VERTEX
  8
gg1
 10
3.394000
 20
0.436000
  0
VERTEX
  8
gg1
 10
3.404000
 20
0.446000
  0
VERTEX
  8
gg1
 10
3.414000
 20
0.436000
  0
VERTEX
  8
gg1
 10
3.414000
 20
0.406000
  0
SEQEND
  8
gg1
  0
POLYLINE
  8
gg1
 62
1
 40
0.000000
 41
0.000000
 66
  1
  0
VERTEX
  8
gg1
 10
3.434000
 20
0.406000
  0
VERTEX
  8
gg1
 10
3.454000
 20
0.406000
  0
VERTEX
  8
gg1
 10
3.444000
 20
0.406000
  0
VERTEX
  8
gg1
 10
3.444000
 20
0.446000
  0
VERTEX
  8
gg1
 10
3.434000
 20
0.446000
  0
SEQEND
  8
gg1
  0
POLYLINE
  8
gg1
 62
1
 40
0.000000
 41
0.000000
 66
  1
  0
VERTEX
  8
gg1
 10
3.483900
 20
0.406000
  0
VERTEX
  8
gg1
 10
3.503900
 20
0.406000
  0
VERTEX
  8
gg1
 10
3.493900
 20
0.406000
  0
VERTEX
  8
gg1
 10
3.493900
 20
0.466000
  0
VERTEX
  8
gg1
 10
3.483900
 20
0.466000
  0
SEQEND
  8
gg1
  0
POLYLINE
  8
gg1
 62
1
 40
0.000000
 41
0.000000
 66
  1
  0
VERTEX
  8
gg1
 10
1.621000
 20
2.041100
  0
VERTEX
  8
gg1
 10
1.611000
 20
2.051100
  0
VERTEX
  8
gg1
 10
1.611000
 20
2.071000
  0
VERTEX
  8
gg1
 10
1.621000
 20
2.081000
  0
VERTEX
  8
gg1
 10
1.631000
 20
2.081000
  0
VERTEX
  8
gg1
 10
1.641000
 20
2.071000
  0
VERTEX
  8
gg1
 10
1.641000
 20
2.061100
  0
VERTEX
  8
gg1
 10
1.641000
 20
2.071000
  0
VERTEX
  8
gg1
 10
1.651000
 20
2.081000
  0
VERTEX
  8
gg1
 10
1.661000
 20
2.081000
  0
VERTEX
  8
gg1
 10
1.671000
 20
2.071000
  0
VERTEX
  8
gg1
 10
1.671000
 20
2.051100
  0
VERTEX
  8
gg1
 10
1.661000
 20
2.041100
  0
SEQEND
  8
gg1
  0
POLYLINE
  8
gg1
 62
1
 40
0.000000
 41
0.000000
 66
  1
  0
VERTEX
  8
gg1
 10
1.671000
 20
2.131000
  0
VERTEX
  8
gg1
 10
1.611000
 20
2.131000
  0
VERTEX
  8
gg1
 10
1.641000
 20
2.101000
  0
VERTEX
  8
gg1
 10
1.641000
 20
2.141000
  0
SEQEND
  8
gg1
  0
POLYLINE
  8
gg1
 62
1
 40
0.000000
 41
0.000000
 66
  1
  0
VERTEX
  8
gg1
 10
1.621000
 20
2.161000
  0
VERTEX
  8
gg1
 10
1.611000
 20
2.171000
  0
VERTEX
  8
gg1
 10
1.611000
 20
2.191000
  0
VERTEX
  8
gg1
 10
1.621000
 20
2.201000
  0
VERTEX
  8
gg1
 10
1.661000
 20
2.201000
  0
VERTEX
  8
gg1
 10
1.671000
 20
2.191000
  0
VERTEX
  8
gg1
 10
1.671000
 20
2.171000
  0
VERTEX
  8
gg1
 10
1.661000
 20
2.161000
  0
VERTEX
  8
gg1
 10
1.621000
 20
2.161000
  0
SEQEND
  8
gg1
  0
POLYLINE
  8
gg1
 62
1
 40
0.000000
 41
0.000000
 66
  1
  0
VERTEX
  8
gg1
 10
1.621000
 20
2.221000
  0
VERTEX
  8
gg1
 10
1.611000
 20
2.231000
  0
VERTEX
  8
gg1
 10
1.611000
 20
2.251000
  0
VERTEX
  8
gg1
 10
1.621000
 20
2.261000
  0
VERTEX
  8
gg1
 10
1.661000
 20
2.261000
  0
VERTEX
  8
gg1
 10
1.671000
 20
2.251000
  0
VERTEX
  8
gg1
 10
1.671000
 20
2.231000
  0
VERTEX
  8
gg1
 10
1.661000
 20
2.221000
  0
VERTEX
  8
gg1
 10
1.621000
 20
2.221000
  0
SEQEND
  8
gg1
  0
POLYLINE
  8
gg1
 62
1
 40
0.000000
 41
0.000000
 66
  1
  0
VERTEX
  8
gg1
 10
1.671000
 20
2.281000
  0
VERTEX
  8
gg1
 10
1.631000
 20
2.281000
  0
VERTEX
  8
gg1
 10
1.631000
 20
2.291000
  0
VERTEX
  8
gg1
 10
1.641000
 20
2.301000
  0
VERTEX
  8
gg1
 10
1.671000
 20
2.301000
  0
VERTEX
  8
gg1
 10
1.641000
 20
2.301000
  0
VERTEX
  8
gg1
 10
1.631000
 20
2.311000
  0
VERTEX
  8
gg1
 10
1.641000
 20
2.321000
  0
VERTEX
  8
gg1
 10
1.671000
 20
2.321000
  0
SEQEND
  8
gg1
  0
POLYLINE
  8
gg1
 62
1
 40
0.000000
 41
0.000000
 66
  1
  0
VERTEX
  8
gg1
 10
1.671000
 20
2.341000
  0
VERTEX
  8
gg1
 10
1.671000
 20
2.361000
  0
VERTEX
  8
gg1
 10
1.671000
 20
2.351000
  0
VERTEX
  8
gg1
 10
1.631000
 20
2.351000
  0
VERTEX
  8
gg1
 10
1.631000
 20
2.341000
  0
SEQEND
  8
gg1
  0
POLYLINE
  8
gg1
 62
1
 40
0.000000
 41
0.000000
 66
  1
  0
VERTEX
  8
gg1
 10
1.671000
 20
2.390900
  0
VERTEX
  8
gg1
 10
1.671000
 20
2.410900
  0
VERTEX
  8
gg1
 10
1.671000
 20
2.400900
  0
VERTEX
  8
gg1
 10
1.611000
 20
2.400900
  0
VERTEX
  8
gg1
 10
1.611000
 20
2.390900
  0
SEQEND
  8
gg1
  0
POLYLINE
  8
gg1
 62
1
 40
0.000000
 41
0.000000
 66
  1
  0
VERTEX
  8
gg1
 10
4.285800
 20
1.317000
  0
VERTEX
  8
gg1
 10
4.313300
 20
1.317000
  0
SEQEND
  8
gg1
  0
POLYLINE
  8
gg1
 62
1
 40
0.000000
 41
0.000000
 66
  1
  0
VERTEX
  8
gg1
 10
4.299600
 20
1.303200
  0
VERTEX
  8
gg1
 10
4.299600
 20
1.330800
  0
SEQEND
  8
gg1
  0
POLYLINE
  8
gg1
 62
1
 40
0.000000
 41
0.000000
 66
  1
  0
VERTEX
  8
gg1
 10
4.356700
 20
1.317000
  0
VERTEX
  8
gg1
 10
4.384200
 20
1.317000
  0
SEQEND
  8
gg1
  0
POLYLINE
  8
gg1
 62
1
 40
0.000000
 41
0.000000
 66
  1
  0
VERTEX
  8
gg1
 10
4.370400
 20
1.303200
  0
VERTEX
  8
gg1
 10
4.370400
 20
1.330800
  0
SEQEND
  8
gg1
  0
POLYLINE
  8
gg1
 62
1
 40
0.000000
 41
0.000000
 66
  1
  0
VERTEX
  8
gg1
 10
4.565000
 20
1.617000
  0
VERTEX
  8
gg1
 10
4.605000
 20
1.617000
  0
SEQEND
  8
gg1
  0
POLYLINE
  8
gg1
 62
1
 40
0.000000
 41
0.000000
 66
  1
  0
VERTEX
  8
gg1
 10
4.585000
 20
1.597000
  0
VERTEX
  8
gg1
 10
4.585000
 20
1.637000
  0
SEQEND
  8
gg1
  0
POLYLINE
  8
gg1
 62
1
 40
0.000000
 41
0.000000
 66
  1
  0
VERTEX
  8
gg1
 10
3.065300
 20
2.437000
  0
VERTEX
  8
gg1
 10
3.104700
 20
2.437000
  0
SEQEND
  8
gg1
  0
POLYLINE
  8
gg1
 62
1
 40
0.000000
 41
0.000000
 66
  1
  0
VERTEX
  8
gg1
 10
3.085000
 20
2.417300
  0
VERTEX
  8
gg1
 10
3.085000
 20
2.456700
  0
SEQEND
  8
gg1
  0
POLYLINE
  8
gg1
 62
1
 40
0.000000
 41
0.000000
 66
  1
  0
VERTEX
  8
gg1
 10
3.565300
 20
2.437000
  0
VERTEX
  8
gg1
 10
3.604700
 20
2.437000
  0
SEQEND
  8
gg1
  0
POLYLINE
  8
gg1
 62
1
 40
0.000000
 41
0.000000
 66
  1
  0
VERTEX
  8
gg1
 10
3.585000
 20
2.417300
  0
VERTEX
  8
gg1
 10
3.585000
 20
2.456700
  0
SEQEND
  8
gg1
  0
POLYLINE
  8
gg1
 62
1
 40
0.000000
 41
0.000000
 66
  1
  0
VERTEX
  8
gg1
 10
2.740000
 20
3.442000
  0
VERTEX
  8
gg1
 10
2.780000
 20
3.442000
  0
SEQEND
  8
gg1
  0
POLYLINE
  8
gg1
 62
1
 40
0.000000
 41
0.000000
 66
  1
  0
VERTEX
  8
gg1
 10
2.760000
 20
3.422000
  0
VERTEX
  8
gg1
 10
2.760000
 20
3.462000
  0
SEQEND
  8
gg1
  0
POLYLINE
  8
gg1
 62
1
 40
0.000000
 41
0.000000
 66
  1
  0
VERTEX
  8
gg1
 10
2.640000
 20
3.442000
  0
VERTEX
  8
gg1
 10
2.680000
 20
3.442000
  0
SEQEND
  8
gg1
  0
POLYLINE
  8
gg1
 62
1
 40
0.000000
 41
0.000000
 66
  1
  0
VERTEX
  8
gg1
 10
2.660000
 20
3.422000
  0
VERTEX
  8
gg1
 10
2.660000
 20
3.462000
  0
SEQEND
  8
gg1
  0
POLYLINE
  8
gg1
 62
1
 40
0.000000
 41
0.000000
 66
  1
  0
VERTEX
  8
gg1
 10
2.765000
 20
1.092000
  0
VERTEX
  8
gg1
 10
2.805000
 20
1.092000
  0
SEQEND
  8
gg1
  0
POLYLINE
  8
gg1
 62
1
 40
0.000000
 41
0.000000
 66
  1
  0
VERTEX
  8
gg1
 10
2.785000
 20
1.072000
  0
VERTEX
  8
gg1
 10
2.785000
 20
1.112000
  0
SEQEND
  8
gg1
  0
POLYLINE
  8
gg1
 62
1
 40
0.000000
 41
0.000000
 66
  1
  0
VERTEX
  8
gg1
 10
2.765000
 20
0.992000
  0
VERTEX
  8
gg1
 10
2.805000
 20
0.992000
  0
SEQEND
  8
gg1
  0
POLYLINE
  8
gg1
 62
1
 40
0.000000
 41
0.000000
 66
  1
  0
VERTEX
  8
gg1
 10
2.785000
 20
0.972000
  0
VERTEX
  8
gg1
 10
2.785000
 20
1.012000
  0
SEQEND
  8
gg1
  0
POLYLINE
  8
gg1
 62
1
 40
0.000000
 41
0.000000
 66
  1
  0
VERTEX
  8
gg1
 10
4.565000
 20
1.317000
  0
VERTEX
  8
gg1
 10
4.605000
 20
1.317000
  0
SEQEND
  8
gg1
  0
POLYLINE
  8
gg1
 62
1
 40
0.000000
 41
0.000000
 66
  1
  0
VERTEX
  8
gg1
 10
4.585000
 20
1.297000
  0
VERTEX
  8
gg1
 10
4.585000
 20
1.337000
  0
SEQEND
  8
gg1
  0
POLYLINE
  8
gg1
 62
1
 40
0.000000
 41
0.000000
 66
  1
  0
VERTEX
  8
gg1
 10
4.565000
 20
1.217000
  0
VERTEX
  8
gg1
 10
4.605000
 20
1.217000
  0
SEQEND
  8
gg1
  0
POLYLINE
  8
gg1
 62
1
 40
0.000000
 41
0.000000
 66
  1
  0
VERTEX
  8
gg1
 10
4.585000
 20
1.197000
  0
VERTEX
  8
gg1
 10
4.585000
 20
1.237000
  0
SEQEND
  8
gg1
  0
POLYLINE
  8
gg1
 62
1
 40
0.000000
 41
0.000000
 66
  1
  0
VERTEX
  8
gg1
 10
2.296200
 20
1.481600
  0
VERTEX
  8
gg1
 10
2.323800
 20
1.481600
  0
SEQEND
  8
gg1
  0
POLYLINE
  8
gg1
 62
1
 40
0.000000
 41
0.000000
 66
  1
  0
VERTEX
  8
gg1
 10
2.310000
 20
1.467800
  0
VERTEX
  8
gg1
 10
2.310000
 20
1.495300
  0
SEQEND
  8
gg1
  0
POLYLINE
  8
gg1
 62
1
 40
0.000000
 41
0.000000
 66
  1
  0
VERTEX
  8
gg1
 10
2.296200
 20
1.552400
  0
VERTEX
  8
gg1
 10
2.323800
 20
1.552400
  0
SEQEND
  8
gg1
  0
POLYLINE
  8
gg1
 62
1
 40
0.000000
 41
0.000000
 66
  1
  0
VERTEX
  8
gg1
 10
2.310000
 20
1.538700
  0
VERTEX
  8
gg1
 10
2.310000
 20
1.566200
  0
SEQEND
  8
gg1
  0
POLYLINE
  8
gg1
 62
1
 40
0.000000
 41
0.000000
 66
  1
  0
VERTEX
  8
gg1
 10
3.940000
 20
0.592000
  0
VERTEX
  8
gg1
 10
3.980000
 20
0.592000
  0
SEQEND
  8
gg1
  0
POLYLINE
  8
gg1
 62
1
 40
0.000000
 41
0.000000
 66
  1
  0
VERTEX
  8
gg1
 10
3.960000
 20
0.572000
  0
VERTEX
  8
gg1
 10
3.960000
 20
0.612000
  0
SEQEND
  8
gg1
  0
POLYLINE
  8
gg1
 62
1
 40
0.000000
 41
0.000000
 66
  1
  0
VERTEX
  8
gg1
 10
3.840000
 20
0.592000
  0
VERTEX
  8
gg1
 10
3.880000
 20
0.592000
  0
SEQEND
  8
gg1
  0
POLYLINE
  8
gg1
 62
1
 40
0.000000
 41
0.000000
 66
  1
  0
VERTEX
  8
gg1
 10
3.860000
 20
0.572000
  0
VERTEX
  8
gg1
 10
3.860000
 20
0.612000
  0
SEQEND
  8
gg1
  0
POLYLINE
  8
gg1
 62
1
 40
0.000000
 41
0.000000
 66
  1
  0
VERTEX
  8
gg1
 10
4.565000
 20
1.517000
  0
VERTEX
  8
gg1
 10
4.605000
 20
1.517000
  0
SEQEND
  8
gg1
  0
POLYLINE
  8
gg1
 62
1
 40
0.000000
 41
0.000000
 66
  1
  0
VERTEX
  8
gg1
 10
4.585000
 20
1.497000
  0
VERTEX
  8
gg1
 10
4.585000
 20
1.537000
  0
SEQEND
  8
gg1
  0
POLYLINE
  8
gg1
 62
1
 40
0.000000
 41
0.000000
 66
  1
  0
VERTEX
  8
gg1
 10
4.565000
 20
1.417000
  0
VERTEX
  8
gg1
 10
4.605000
 20
1.417000
  0
SEQEND
  8
gg1
  0
POLYLINE
  8
gg1
 62
1
 40
0.000000
 41
0.000000
 66
  1
  0
VERTEX
  8
gg1
 10
4.585000
 20
1.397000
  0
VERTEX
  8
gg1
 10
4.585000
 20
1.437000
  0
SEQEND
  8
gg1
  0
POLYLINE
  8
gg1
 62
1
 40
0.000000
 41
0.000000
 66
  1
  0
VERTEX
  8
gg1
 10
4.565000
 20
1.717000
  0
VERTEX
  8
gg1
 10
4.605000
 20
1.717000
  0
SEQEND
  8
gg1
  0
POLYLINE
  8
gg1
 62
1
 40
0.000000
 41
0.000000
 66
  1
  0
VERTEX
  8
gg1
 10
4.585000
 20
1.697000
  0
VERTEX
  8
gg1
 10
4.585000
 20
1.737000
  0
SEQEND
  8
gg1
  0
POLYLINE
  8
gg1
 62
1
 40
0.000000
 41
0.000000
 66
  1
  0
VERTEX
  8
gg1
 10
3.540000
 20
1.032000
  0
VERTEX
  8
gg1
 10
3.560000
 20
1.032000
  0
SEQEND
  8
gg1
  0
POLYLINE
  8
gg1
 62
1
 40
0.000000
 41
0.000000
 66
  1
  0
VERTEX
  8
gg1
 10
3.550000
 20
1.022000
  0
VERTEX
  8
gg1
 10
3.550000
 20
1.042000
  0
SEQEND
  8
gg1
  0
POLYLINE
  8
gg1
 62
1
 40
0.000000
 41
0.000000
 66
  1
  0
VERTEX
  8
gg1
 10
2.106700
 20
3.060100
  0
VERTEX
  8
gg1
 10
2.201100
 20
3.060100
  0
SEQEND
  8
gg1
  0
POLYLINE
  8
gg1
 62
1
 40
0.000000
 41
0.000000
 66
  1
  0
VERTEX
  8
gg1
 10
2.153900
 20
3.012900
  0
VERTEX
  8
gg1
 10
2.153900
 20
3.107400
  0
SEQEND
  8
gg1
  0
POLYLINE
  8
gg1
 62
1
 40
0.000000
 41
0.000000
 66
  1
  0
VERTEX
  8
gg1
 10
3.285800
 20
1.017000
  0
VERTEX
  8
gg1
 10
3.313300
 20
1.017000
  0
SEQEND
  8
gg1
  0
POLYLINE
  8
gg1
 62
1
 40
0.000000
 41
0.000000
 66
  1
  0
VERTEX
  8
gg1
 10
3.299600
 20
1.003200
  0
VERTEX
  8
gg1
 10
3.299600
 20
1.030800
  0
SEQEND
  8
gg1
  0
POLYLINE
  8
gg1
 62
1
 40
0.000000
 41
0.000000
 66
  1
  0
VERTEX
  8
gg1
 10
3.356700
 20
1.017000
  0
VERTEX
  8
gg1
 10
3.384200
 20
1.017000
  0
SEQEND
  8
gg1
  0
POLYLINE
  8
gg1
 62
1
 40
0.000000
 41
0.000000
 66
  1
  0
VERTEX
  8
gg1
 10
3.370400
 20
1.003200
  0
VERTEX
  8
gg1
 10
3.370400
 20
1.030800
  0
SEQEND
  8
gg1
  0
POLYLINE
  8
gg1
 62
1
 40
0.000000
 41
0.000000
 66
  1
  0
VERTEX
  8
gg1
 10
3.706700
 20
0.992000
  0
VERTEX
  8
gg1
 10
3.734200
 20
0.992000
  0
SEQEND
  8
gg1
  0
POLYLINE
  8
gg1
 62
1
 40
0.000000
 41
0.000000
 66
  1
  0
VERTEX
  8
gg1
 10
3.720400
 20
0.978200
  0
VERTEX
  8
gg1
 10
3.720400
 20
1.005800
  0
SEQEND
  8
gg1
  0
POLYLINE
  8
gg1
 62
1
 40
0.000000
 41
0.000000
 66
  1
  0
VERTEX
  8
gg1
 10
3.635800
 20
0.992000
  0
VERTEX
  8
gg1
 10
3.663300
 20
0.992000
  0
SEQEND
  8
gg1
  0
POLYLINE
  8
gg1
 62
1
 40
0.000000
 41
0.000000
 66
  1
  0
VERTEX
  8
gg1
 10
3.649600
 20
0.978200
  0
VERTEX
  8
gg1
 10
3.649600
 20
1.005800
  0
SEQEND
  8
gg1
  0
POLYLINE
  8
gg1
 62
1
 40
0.000000
 41
0.000000
 66
  1
  0
VERTEX
  8
gg1
 10
3.006700
 20
0.992000
  0
VERTEX
  8
gg1
 10
3.034200
 20
0.992000
  0
SEQEND
  8
gg1
  0
POLYLINE
  8
gg1
 62
1
 40
0.000000
 41
0.000000
 66
  1
  0
VERTEX
  8
gg1
 10
3.020400
 20
0.978200
  0
VERTEX
  8
gg1
 10
3.020400
 20
1.005800
  0
SEQEND
  8
gg1
  0
POLYLINE
  8
gg1
 62
1
 40
0.000000
 41
0.000000
 66
  1
  0
VERTEX
  8
gg1
 10
2.935800
 20
0.992000
  0
VERTEX
  8
gg1
 10
2.963300
 20
0.992000
  0
SEQEND
  8
gg1
  0
POLYLINE
  8
gg1
 62
1
 40
0.000000
 41
0.000000
 66
  1
  0
VERTEX
  8
gg1
 10
2.949600
 20
0.978200
  0
VERTEX
  8
gg1
 10
2.949600
 20
1.005800
  0
SEQEND
  8
gg1
  0
POLYLINE
  8
gg1
 62
1
 40
0.000000
 41
0.000000
 66
  1
  0
VERTEX
  8
gg1
 10
3.315000
 20
2.717000
  0
VERTEX
  8
gg1
 10
3.355000
 20
2.717000
  0
SEQEND
  8
gg1
  0
POLYLINE
  8
gg1
 62
1
 40
0.000000
 41
0.000000
 66
  1
  0
VERTEX
  8
gg1
 10
3.335000
 20
2.697000
  0
VERTEX
  8
gg1
 10
3.335000
 20
2.737000
  0
SEQEND
  8
gg1
  0
POLYLINE
  8
gg1
 62
1
 40
0.000000
 41
0.000000
 66
  1
  0
VERTEX
  8
gg1
 10
3.675000
 20
2.517000
  0
VERTEX
  8
gg1
 10
3.695000
 20
2.517000
  0
SEQEND
  8
gg1
  0
POLYLINE
  8
gg1
 62
1
 40
0.000000
 41
0.000000
 66
  1
  0
VERTEX
  8
gg1
 10
3.685000
 20
2.507000
  0
VERTEX
  8
gg1
 10
3.685000
 20
2.527000
  0
SEQEND
  8
gg1
  0
POLYLINE
  8
gg1
 62
1
 40
0.000000
 41
0.000000
 66
  1
  0
VERTEX
  8
gg1
 10
3.055000
 20
0.847000
  0
VERTEX
  8
gg1
 10
3.075000
 20
0.847000
  0
SEQEND
  8
gg1
  0
POLYLINE
  8
gg1
 62
1
 40
0.000000
 41
0.000000
 66
  1
  0
VERTEX
  8
gg1
 10
3.065000
 20
0.837000
  0
VERTEX
  8
gg1
 10
3.065000
 20
0.857000
  0
SEQEND
  8
gg1
  0
POLYLINE
  8
gg1
 62
1
 40
0.000000
 41
0.000000
 66
  1
  0
VERTEX
  8
gg1
 10
2.695000
 20
1.432000
  0
VERTEX
  8
gg1
 10
2.715000
 20
1.432000
  0
SEQEND
  8
gg1
  0
POLYLINE
  8
gg1
 62
1
 40
0.000000
 41
0.000000
 66
  1
  0
VERTEX
  8
gg1
 10
2.705000
 20
1.422000
  0
VERTEX
  8
gg1
 10
2.705000
 20
1.442000
  0
SEQEND
  8
gg1
  0
POLYLINE
  8
gg1
 62
1
 40
0.000000
 41
0.000000
 66
  1
  0
VERTEX
  8
gg1
 10
3.045000
 20
1.362000
  0
VERTEX
  8
gg1
 10
3.065000
 20
1.362000
  0
SEQEND
  8
gg1
  0
POLYLINE
  8
gg1
 62
1
 40
0.000000
 41
0.000000
 66
  1
  0
VERTEX
  8
gg1
 10
3.055000
 20
1.352000
  0
VERTEX
  8
gg1
 10
3.055000
 20
1.372000
  0
SEQEND
  8
gg1
  0
POLYLINE
  8
gg1
 62
1
 40
0.000000
 41
0.000000
 66
  1
  0
VERTEX
  8
gg1
 10
3.153100
 20
0.769800
  0
VERTEX
  8
gg1
 10
3.176700
 20
0.769800
  0
SEQEND
  8
gg1
  0
POLYLINE
  8
gg1
 62
1
 40
0.000000
 41
0.000000
 66
  1
  0
VERTEX
  8
gg1
 10
3.164900
 20
0.757900
  0
VERTEX
  8
gg1
 10
3.164900
 20
0.781600
  0
SEQEND
  8
gg1
  0
POLYLINE
  8
gg1
 62
1
 40
0.000000
 41
0.000000
 66
  1
  0
VERTEX
  8
gg1
 10
3.208400
 20
0.750100
  0
VERTEX
  8
gg1
 10
3.234000
 20
0.750100
  0
SEQEND
  8
gg1
  0
POLYLINE
  8
gg1
 62
1
 40
0.000000
 41
0.000000
 66
  1
  0
VERTEX
  8
gg1
 10
3.221200
 20
0.737300
  0
VERTEX
  8
gg1
 10
3.221200
 20
0.762900
  0
SEQEND
  8
gg1
  0
POLYLINE
  8
gg1
 62
1
 40
0.000000
 41
0.000000
 66
  1
  0
VERTEX
  8
gg1
 10
3.436000
 20
0.750100
  0
VERTEX
  8
gg1
 10
3.461600
 20
0.750100
  0
SEQEND
  8
gg1
  0
POLYLINE
  8
gg1
 62
1
 40
0.000000
 41
0.000000
 66
  1
  0
VERTEX
  8
gg1
 10
3.448800
 20
0.737300
  0
VERTEX
  8
gg1
 10
3.448800
 20
0.762900
  0
SEQEND
  8
gg1
  0
POLYLINE
  8
gg1
 62
1
 40
0.000000
 41
0.000000
 66
  1
  0
VERTEX
  8
gg1
 10
3.493300
 20
0.769800
  0
VERTEX
  8
gg1
 10
3.516900
 20
0.769800
  0
SEQEND
  8
gg1
  0
POLYLINE
  8
gg1
 62
1
 40
0.000000
 41
0.000000
 66
  1
  0
VERTEX
  8
gg1
 10
3.505100
 20
0.757900
  0
VERTEX
  8
gg1
 10
3.505100
 20
0.781600
  0
SEQEND
  8
gg1
  0
POLYLINE
  8
gg1
 62
1
 40
0.000000
 41
0.000000
 66
  1
  0
VERTEX
  8
gg1
 10
3.153100
 20
0.605200
  0
VERTEX
  8
gg1
 10
3.176700
 20
0.605200
  0
SEQEND
  8
gg1
  0
POLYLINE
  8
gg1
 62
1
 40
0.000000
 41
0.000000
 66
  1
  0
VERTEX
  8
gg1
 10
3.164900
 20
0.593400
  0
VERTEX
  8
gg1
 10
3.164900
 20
0.617000
  0
SEQEND
  8
gg1
  0
POLYLINE
  8
gg1
 62
1
 40
0.000000
 41
0.000000
 66
  1
  0
VERTEX
  8
gg1
 10
3.493300
 20
0.605200
  0
VERTEX
  8
gg1
 10
3.516900
 20
0.605200
  0
SEQEND
  8
gg1
  0
POLYLINE
  8
gg1
 62
1
 40
0.000000
 41
0.000000
 66
  1
  0
VERTEX
  8
gg1
 10
3.505100
 20
0.593400
  0
VERTEX
  8
gg1
 10
3.505100
 20
0.617000
  0
SEQEND
  8
gg1
  0
POLYLINE
  8
gg1
 62
1
 40
0.000000
 41
0.000000
 66
  1
  0
VERTEX
  8
gg1
 10
3.015000
 20
3.117000
  0
VERTEX
  8
gg1
 10
3.055000
 20
3.117000
  0
SEQEND
  8
gg1
  0
POLYLINE
  8
gg1
 62
1
 40
0.000000
 41
0.000000
 66
  1
  0
VERTEX
  8
gg1
 10
3.035000
 20
3.097000
  0
VERTEX
  8
gg1
 10
3.035000
 20
3.137000
  0
SEQEND
  8
gg1
  0
POLYLINE
  8
gg1
 62
1
 40
0.000000
 41
0.000000
 66
  1
  0
VERTEX
  8
gg1
 10
3.015000
 20
3.217000
  0
VERTEX
  8
gg1
 10
3.055000
 20
3.217000
  0
SEQEND
  8
gg1
  0
POLYLINE
  8
gg1
 62
1
 40
0.000000
 41
0.000000
 66
  1
  0
VERTEX
  8
gg1
 10
3.035000
 20
3.197000
  0
VERTEX
  8
gg1
 10
3.035000
 20
3.237000
  0
SEQEND
  8
gg1
  0
POLYLINE
  8
gg1
 62
1
 40
0.000000
 41
0.000000
 66
  1
  0
VERTEX
  8
gg1
 10
4.315100
 20
1.081800
  0
VERTEX
  8
gg1
 10
4.347100
 20
1.081800
  0
SEQEND
  8
gg1
  0
POLYLINE
  8
gg1
 62
1
 40
0.000000
 41
0.000000
 66
  1
  0
VERTEX
  8
gg1
 10
4.331100
 20
1.065800
  0
VERTEX
  8
gg1
 10
4.331100
 20
1.097800
  0
SEQEND
  8
gg1
  0
POLYLINE
  8
gg1
 62
1
 40
0.000000
 41
0.000000
 66
  1
  0
VERTEX
  8
gg1
 10
4.315100
 20
1.507000
  0
VERTEX
  8
gg1
 10
4.347100
 20
1.507000
  0
SEQEND
  8
gg1
  0
POLYLINE
  8
gg1
 62
1
 40
0.000000
 41
0.000000
 66
  1
  0
VERTEX
  8
gg1
 10
4.331100
 20
1.491000
  0
VERTEX
  8
gg1
 10
4.331100
 20
1.523000
  0
SEQEND
  8
gg1
  0
POLYLINE
  8
gg1
 62
1
 40
0.000000
 41
0.000000
 66
  1
  0
VERTEX
  8
gg1
 10
4.315100
 20
2.699900
  0
VERTEX
  8
gg1
 10
4.347100
 20
2.699900
  0
SEQEND
  8
gg1
  0
POLYLINE
  8
gg1
 62
1
 40
0.000000
 41
0.000000
 66
  1
  0
VERTEX
  8
gg1
 10
4.331100
 20
2.683900
  0
VERTEX
  8
gg1
 10
4.331100
 20
2.715900
  0
SEQEND
  8
gg1
  0
POLYLINE
  8
gg1
 62
1
 40
0.000000
 41
0.000000
 66
  1
  0
VERTEX
  8
gg1
 10
4.315100
 20
3.125100
  0
VERTEX
  8
gg1
 10
4.347100
 20
3.125100
  0
SEQEND
  8
gg1
  0
POLYLINE
  8
gg1
 62
1
 40
0.000000
 41
0.000000
 66
  1
  0
VERTEX
  8
gg1
 10
4.331100
 20
3.109100
  0
VERTEX
  8
gg1
 10
4.331100
 20
3.141100
  0
SEQEND
  8
gg1
  0
POLYLINE
  8
gg1
 62
1
 40
0.000000
 41
0.000000
 66
  1
  0
VERTEX
  8
gg1
 10
2.842600
 20
2.044400
  0
VERTEX
  8
gg1
 10
2.882600
 20
2.044400
  0
SEQEND
  8
gg1
  0
POLYLINE
  8
gg1
 62
1
 40
0.000000
 41
0.000000
 66
  1
  0
VERTEX
  8
gg1
 10
2.862600
 20
2.024400
  0
VERTEX
  8
gg1
 10
2.862600
 20
2.064400
  0
SEQEND
  8
gg1
  0
POLYLINE
  8
gg1
 62
1
 40
0.000000
 41
0.000000
 66
  1
  0
VERTEX
  8
gg1
 10
2.842600
 20
2.339600
  0
VERTEX
  8
gg1
 10
2.882600
 20
2.339600
  0
SEQEND
  8
gg1
  0
POLYLINE
  8
gg1
 62
1
 40
0.000000
 41
0.000000
 66
  1
  0
VERTEX
  8
gg1
 10
2.862600
 20
2.319600
  0
VERTEX
  8
gg1
 10
2.862600
 20
2.359600
  0
SEQEND
  8
gg1
  0
POLYLINE
  8
gg1
 62
1
 40
0.000000
 41
0.000000
 66
  1
  0
VERTEX
  8
gg1
 10
3.787400
 20
2.044400
  0
VERTEX
  8
gg1
 10
3.827400
 20
2.044400
  0
SEQEND
  8
gg1
  0
POLYLINE
  8
gg1
 62
1
 40
0.000000
 41
0.000000
 66
  1
  0
VERTEX
  8
gg1
 10
3.807400
 20
2.024400
  0
VERTEX
  8
gg1
 10
3.807400
 20
2.064400
  0
SEQEND
  8
gg1
  0
POLYLINE
  8
gg1
 62
1
 40
0.000000
 41
0.000000
 66
  1
  0
VERTEX
  8
gg1
 10
3.787400
 20
2.339600
  0
VERTEX
  8
gg1
 10
3.827400
 20
2.339600
  0
SEQEND
  8
gg1
  0
POLYLINE
  8
gg1
 62
1
 40
0.000000
 41
0.000000
 66
  1
  0
VERTEX
  8
gg1
 10
3.807400
 20
2.319600
  0
VERTEX
  8
gg1
 10
3.807400
 20
2.359600
  0
SEQEND
  8
gg1
  0
POLYLINE
  8
gg1
 62
1
 40
0.000000
 41
0.000000
 66
  1
  0
VERTEX
  8
gg1
 10
2.485000
 20
1.607000
  0
VERTEX
  8
gg1
 10
2.505000
 20
1.607000
  0
SEQEND
  8
gg1
  0
POLYLINE
  8
gg1
 62
1
 40
0.000000
 41
0.000000
 66
  1
  0
VERTEX
  8
gg1
 10
2.495000
 20
1.597000
  0
VERTEX
  8
gg1
 10
2.495000
 20
1.617000
  0
SEQEND
  8
gg1
  0
POLYLINE
  8
gg1
 62
1
 40
0.000000
 41
0.000000
 66
  1
  0
VERTEX
  8
gg1
 10
2.710000
 20
0.642000
  0
VERTEX
  8
gg1
 10
2.730000
 20
0.642000
  0
SEQEND
  8
gg1
  0
POLYLINE
  8
gg1
 62
1
 40
0.000000
 41
0.000000
 66
  1
  0
VERTEX
  8
gg1
 10
2.720000
 20
0.632000
  0
VERTEX
  8
gg1
 10
2.720000
 20
0.652000
  0
SEQEND
  8
gg1
  0
POLYLINE
  8
gg1
 62
1
 40
0.000000
 41
0.000000
 66
  1
  0
VERTEX
  8
gg1
 10
4.215000
 20
1.017000
  0
VERTEX
  8
gg1
 10
4.255000
 20
1.017000
  0
SEQEND
  8
gg1
  0
POLYLINE
  8
gg1
 62
1
 40
0.000000
 41
0.000000
 66
  1
  0
VERTEX
  8
gg1
 10
4.235000
 20
0.997000
  0
VERTEX
  8
gg1
 10
4.235000
 20
1.037000
  0
SEQEND
  8
gg1
  0
POLYLINE
  8
gg1
 62
1
 40
0.000000
 41
0.000000
 66
  1
  0
VERTEX
  8
gg1
 10
4.215000
 20
1.117000
  0
VERTEX
  8
gg1
 10
4.255000
 20
1.117000
  0
SEQEND
  8
gg1
  0
POLYLINE
  8
gg1
 62
1
 40
0.000000
 41
0.000000
 66
  1
  0
VERTEX
  8
gg1
 10
4.235000
 20
1.097000
  0
VERTEX
  8
gg1
 10
4.235000
 20
1.137000
  0
SEQEND
  8
gg1
  0
POLYLINE
  8
gg1
 62
1
 40
0.000000
 41
0.000000
 66
  1
  0
VERTEX
  8
gg1
 10
4.468900
 20
2.764800
  0
VERTEX
  8
gg1
 10
4.563300
 20
2.764800
  0
SEQEND
  8
gg1
  0
POLYLINE
  8
gg1
 62
1
 40
0.000000
 41
0.000000
 66
  1
  0
VERTEX
  8
gg1
 10
4.516100
 20
2.717600
  0
VERTEX
  8
gg1
 10
4.516100
 20
2.812100
  0
SEQEND
  8
gg1
  0
POLYLINE
  8
gg1
 62
1
 40
0.000000
 41
0.000000
 66
  1
  0
VERTEX
  8
gg1
 10
4.468900
 20
3.060100
  0
VERTEX
  8
gg1
 10
4.563300
 20
3.060100
  0
SEQEND
  8
gg1
  0
POLYLINE
  8
gg1
 62
1
 40
0.000000
 41
0.000000
 66
  1
  0
VERTEX
  8
gg1
 10
4.516100
 20
3.012900
  0
VERTEX
  8
gg1
 10
4.516100
 20
3.107400
  0
SEQEND
  8
gg1
  0
POLYLINE
  8
gg1
 62
1
 40
0.000000
 41
0.000000
 66
  1
  0
VERTEX
  8
gg1
 10
4.468900
 20
1.010900
  0
VERTEX
  8
gg1
 10
4.563300
 20
1.010900
  0
SEQEND
  8
gg1
  0
POLYLINE
  8
gg1
 62
1
 40
0.000000
 41
0.000000
 66
  1
  0
VERTEX
  8
gg1
 10
4.516100
 20
0.963700
  0
VERTEX
  8
gg1
 10
4.516100
 20
1.058100
  0
SEQEND
  8
gg1
  0
POLYLINE
  8
gg1
 62
1
 40
0.000000
 41
0.000000
 66
  1
  0
VERTEX
  8
gg1
 10
2.106700
 20
1.010900
  0
VERTEX
  8
gg1
 10
2.201100
 20
1.010900
  0
SEQEND
  8
gg1
  0
POLYLINE
  8
gg1
 62
1
 40
0.000000
 41
0.000000
 66
  1
  0
VERTEX
  8
gg1
 10
2.153900
 20
0.963700
  0
VERTEX
  8
gg1
 10
2.153900
 20
1.058100
  0
SEQEND
  8
gg1
  0
POLYLINE
  8
gg1
 62
1
 40
0.000000
 41
0.000000
 66
  1
  0
VERTEX
  8
gg1
 10
2.815000
 20
3.117000
  0
VERTEX
  8
gg1
 10
2.855000
 20
3.117000
  0
SEQEND
  8
gg1
  0
POLYLINE
  8
gg1
 62
1
 40
0.000000
 41
0.000000
 66
  1
  0
VERTEX
  8
gg1
 10
2.835000
 20
3.097000
  0
VERTEX
  8
gg1
 10
2.835000
 20
3.137000
  0
SEQEND
  8
gg1
  0
POLYLINE
  8
gg1
 62
1
 40
0.000000
 41
0.000000
 66
  1
  0
VERTEX
  8
gg1
 10
2.815000
 20
3.217000
  0
VERTEX
  8
gg1
 10
2.855000
 20
3.217000
  0
SEQEND
  8
gg1
  0
POLYLINE
  8
gg1
 62
1
 40
0.000000
 41
0.000000
 66
  1
  0
VERTEX
  8
gg1
 10
2.835000
 20
3.197000
  0
VERTEX
  8
gg1
 10
2.835000
 20
3.237000
  0
SEQEND
  8
gg1
  0
POLYLINE
  8
gg1
 62
1
 40
0.000000
 41
0.000000
 66
  1
  0
VERTEX
  8
gg1
 10
2.915000
 20
3.117000
  0
VERTEX
  8
gg1
 10
2.955000
 20
3.117000
  0
SEQEND
  8
gg1
  0
POLYLINE
  8
gg1
 62
1
 40
0.000000
 41
0.000000
 66
  1
  0
VERTEX
  8
gg1
 10
2.935000
 20
3.097000
  0
VERTEX
  8
gg1
 10
2.935000
 20
3.137000
  0
SEQEND
  8
gg1
  0
POLYLINE
  8
gg1
 62
1
 40
0.000000
 41
0.000000
 66
  1
  0
VERTEX
  8
gg1
 10
2.915000
 20
3.217000
  0
VERTEX
  8
gg1
 10
2.955000
 20
3.217000
  0
SEQEND
  8
gg1
  0
POLYLINE
  8
gg1
 62
1
 40
0.000000
 41
0.000000
 66
  1
  0
VERTEX
  8
gg1
 10
2.935000
 20
3.197000
  0
VERTEX
  8
gg1
 10
2.935000
 20
3.237000
  0
SEQEND
  8
gg1
  0
POLYLINE
  8
gg1
 62
1
 40
0.000000
 41
0.000000
 66
  1
  0
VERTEX
  8
gg1
 10
3.815000
 20
3.217000
  0
VERTEX
  8
gg1
 10
3.855000
 20
3.217000
  0
SEQEND
  8
gg1
  0
POLYLINE
  8
gg1
 62
1
 40
0.000000
 41
0.000000
 66
  1
  0
VERTEX
  8
gg1
 10
3.835000
 20
3.197000
  0
VERTEX
  8
gg1
 10
3.835000
 20
3.237000
  0
SEQEND
  8
gg1
  0
POLYLINE
  8
gg1
 62
1
 40
0.000000
 41
0.000000
 66
  1
  0
VERTEX
  8
gg1
 10
3.815000
 20
3.117000
  0
VERTEX
  8
gg1
 10
3.855000
 20
3.117000
  0
SEQEND
  8
gg1
  0
POLYLINE
  8
gg1
 62
1
 40
0.000000
 41
0.000000
 66
  1
  0
VERTEX
  8
gg1
 10
3.835000
 20
3.097000
  0
VERTEX
  8
gg1
 10
3.835000
 20
3.137000
  0
SEQEND
  8
gg1
  0
POLYLINE
  8
gg1
 62
1
 40
0.000000
 41
0.000000
 66
  1
  0
VERTEX
  8
gg1
 10
2.065000
 20
2.917000
  0
VERTEX
  8
gg1
 10
2.105000
 20
2.917000
  0
SEQEND
  8
gg1
  0
POLYLINE
  8
gg1
 62
1
 40
0.000000
 41
0.000000
 66
  1
  0
VERTEX
  8
gg1
 10
2.085000
 20
2.897000
  0
VERTEX
  8
gg1
 10
2.085000
 20
2.937000
  0
SEQEND
  8
gg1
  0
POLYLINE
  8
gg1
 62
1
 40
0.000000
 41
0.000000
 66
  1
  0
VERTEX
  8
gg1
 10
2.165000
 20
2.917000
  0
VERTEX
  8
gg1
 10
2.205000
 20
2.917000
  0
SEQEND
  8
gg1
  0
POLYLINE
  8
gg1
 62
1
 40
0.000000
 41
0.000000
 66
  1
  0
VERTEX
  8
gg1
 10
2.185000
 20
2.897000
  0
VERTEX
  8
gg1
 10
2.185000
 20
2.937000
  0
SEQEND
  8
gg1
  0
POLYLINE
  8
gg1
 62
1
 40
0.000000
 41
0.000000
 66
  1
  0
VERTEX
  8
gg1
 10
2.065000
 20
2.817000
  0
VERTEX
  8
gg1
 10
2.105000
 20
2.817000
  0
SEQEND
  8
gg1
  0
POLYLINE
  8
gg1
 62
1
 40
0.000000
 41
0.000000
 66
  1
  0
VERTEX
  8
gg1
 10
2.085000
 20
2.797000
  0
VERTEX
  8
gg1
 10
2.085000
 20
2.837000
  0
SEQEND
  8
gg1
  0
POLYLINE
  8
gg1
 62
1
 40
0.000000
 41
0.000000
 66
  1
  0
VERTEX
  8
gg1
 10
2.165000
 20
2.817000
  0
VERTEX
  8
gg1
 10
2.205000
 20
2.817000
  0
SEQEND
  8
gg1
  0
POLYLINE
  8
gg1
 62
1
 40
0.000000
 41
0.000000
 66
  1
  0
VERTEX
  8
gg1
 10
2.185000
 20
2.797000
  0
VERTEX
  8
gg1
 10
2.185000
 20
2.837000
  0
SEQEND
  8
gg1
  0
POLYLINE
  8
gg1
 62
1
 40
0.000000
 41
0.000000
 66
  1
  0
VERTEX
  8
gg1
 10
2.065000
 20
2.717000
  0
VERTEX
  8
gg1
 10
2.105000
 20
2.717000
  0
SEQEND
  8
gg1
  0
POLYLINE
  8
gg1
 62
1
 40
0.000000
 41
0.000000
 66
  1
  0
VERTEX
  8
gg1
 10
2.085000
 20
2.697000
  0
VERTEX
  8
gg1
 10
2.085000
 20
2.737000
  0
SEQEND
  8
gg1
  0
POLYLINE
  8
gg1
 62
1
 40
0.000000
 41
0.000000
 66
  1
  0
VERTEX
  8
gg1
 10
2.165000
 20
2.717000
  0
VERTEX
  8
gg1
 10
2.205000
 20
2.717000
  0
SEQEND
  8
gg1
  0
POLYLINE
  8
gg1
 62
1
 40
0.000000
 41
0.000000
 66
  1
  0
VERTEX
  8
gg1
 10
2.185000
 20
2.697000
  0
VERTEX
  8
gg1
 10
2.185000
 20
2.737000
  0
SEQEND
  8
gg1
  0
POLYLINE
  8
gg1
 62
1
 40
0.000000
 41
0.000000
 66
  1
  0
VERTEX
  8
gg1
 10
3.415000
 20
2.617000
  0
VERTEX
  8
gg1
 10
3.455000
 20
2.617000
  0
SEQEND
  8
gg1
  0
POLYLINE
  8
gg1
 62
1
 40
0.000000
 41
0.000000
 66
  1
  0
VERTEX
  8
gg1
 10
3.435000
 20
2.597000
  0
VERTEX
  8
gg1
 10
3.435000
 20
2.637000
  0
SEQEND
  8
gg1
  0
POLYLINE
  8
gg1
 62
1
 40
0.000000
 41
0.000000
 66
  1
  0
VERTEX
  8
gg1
 10
3.415000
 20
2.717000
  0
VERTEX
  8
gg1
 10
3.455000
 20
2.717000
  0
SEQEND
  8
gg1
  0
POLYLINE
  8
gg1
 62
1
 40
0.000000
 41
0.000000
 66
  1
  0
VERTEX
  8
gg1
 10
3.435000
 20
2.697000
  0
VERTEX
  8
gg1
 10
3.435000
 20
2.737000
  0
SEQEND
  8
gg1
  0
POLYLINE
  8
gg1
 62
1
 40
0.000000
 41
0.000000
 66
  1
  0
VERTEX
  8
gg1
 10
3.615000
 20
2.617000
  0
VERTEX
  8
gg1
 10
3.655000
 20
2.617000
  0
SEQEND
  8
gg1
  0
POLYLINE
  8
gg1
 62
1
 40
0.000000
 41
0.000000
 66
  1
  0
VERTEX
  8
gg1
 10
3.635000
 20
2.597000
  0
VERTEX
  8
gg1
 10
3.635000
 20
2.637000
  0
SEQEND
  8
gg1
  0
POLYLINE
  8
gg1
 62
1
 40
0.000000
 41
0.000000
 66
  1
  0
VERTEX
  8
gg1
 10
3.515000
 20
2.717000
  0
VERTEX
  8
gg1
 10
3.555000
 20
2.717000
  0
SEQEND
  8
gg1
  0
POLYLINE
  8
gg1
 62
1
 40
0.000000
 41
0.000000
 66
  1
  0
VERTEX
  8
gg1
 10
3.535000
 20
2.697000
  0
VERTEX
  8
gg1
 10
3.535000
 20
2.737000
  0
SEQEND
  8
gg1
  0
POLYLINE
  8
gg1
 62
1
 40
0.000000
 41
0.000000
 66
  1
  0
VERTEX
  8
gg1
 10
3.015000
 20
2.617000
  0
VERTEX
  8
gg1
 10
3.055000
 20
2.617000
  0
SEQEND
  8
gg1
  0
POLYLINE
  8
gg1
 62
1
 40
0.000000
 41
0.000000
 66
  1
  0
VERTEX
  8
gg1
 10
3.035000
 20
2.597000
  0
VERTEX
  8
gg1
 10
3.035000
 20
2.637000
  0
SEQEND
  8
gg1
  0
POLYLINE
  8
gg1
 62
1
 40
0.000000
 41
0.000000
 66
  1
  0
VERTEX
  8
gg1
 10
3.615000
 20
2.717000
  0
VERTEX
  8
gg1
 10
3.655000
 20
2.717000
  0
SEQEND
  8
gg1
  0
POLYLINE
  8
gg1
 62
1
 40
0.000000
 41
0.000000
 66
  1
  0
VERTEX
  8
gg1
 10
3.635000
 20
2.697000
  0
VERTEX
  8
gg1
 10
3.635000
 20
2.737000
  0
SEQEND
  8
gg1
  0
POLYLINE
  8
gg1
 62
1
 40
0.000000
 41
0.000000
 66
  1
  0
VERTEX
  8
gg1
 10
3.215000
 20
3.217000
  0
VERTEX
  8
gg1
 10
3.255000
 20
3.217000
  0
SEQEND
  8
gg1
  0
POLYLINE
  8
gg1
 62
1
 40
0.000000
 41
0.000000
 66
  1
  0
VERTEX
  8
gg1
 10
3.235000
 20
3.197000
  0
VERTEX
  8
gg1
 10
3.235000
 20
3.237000
  0
SEQEND
  8
gg1
  0
POLYLINE
  8
gg1
 62
1
 40
0.000000
 41
0.000000
 66
  1
  0
VERTEX
  8
gg1
 10
3.215000
 20
3.117000
  0
VERTEX
  8
gg1
 10
3.255000
 20
3.117000
  0
SEQEND
  8
gg1
  0
POLYLINE
  8
gg1
 62
1
 40
0.000000
 41
0.000000
 66
  1
  0
VERTEX
  8
gg1
 10
3.235000
 20
3.097000
  0
VERTEX
  8
gg1
 10
3.235000
 20
3.137000
  0
SEQEND
  8
gg1
  0
POLYLINE
  8
gg1
 62
1
 40
0.000000
 41
0.000000
 66
  1
  0
VERTEX
  8
gg1
 10
3.615000
 20
3.217000
  0
VERTEX
  8
gg1
 10
3.655000
 20
3.217000
  0
SEQEND
  8
gg1
  0
POLYLINE
  8
gg1
 62
1
 40
0.000000
 41
0.000000
 66
  1
  0
VERTEX
  8
gg1
 10
3.635000
 20
3.197000
  0
VERTEX
  8
gg1
 10
3.635000
 20
3.237000
  0
SEQEND
  8
gg1
  0
POLYLINE
  8
gg1
 62
1
 40
0.000000
 41
0.000000
 66
  1
  0
VERTEX
  8
gg1
 10
3.615000
 20
3.117000
  0
VERTEX
  8
gg1
 10
3.655000
 20
3.117000
  0
SEQEND
  8
gg1
  0
POLYLINE
  8
gg1
 62
1
 40
0.000000
 41
0.000000
 66
  1
  0
VERTEX
  8
gg1
 10
3.635000
 20
3.097000
  0
VERTEX
  8
gg1
 10
3.635000
 20
3.137000
  0
SEQEND
  8
gg1
  0
POLYLINE
  8
gg1
 62
1
 40
0.000000
 41
0.000000
 66
  1
  0
VERTEX
  8
gg1
 10
3.315000
 20
3.217000
  0
VERTEX
  8
gg1
 10
3.355000
 20
3.217000
  0
SEQEND
  8
gg1
  0
POLYLINE
  8
gg1
 62
1
 40
0.000000
 41
0.000000
 66
  1
  0
VERTEX
  8
gg1
 10
3.335000
 20
3.197000
  0
VERTEX
  8
gg1
 10
3.335000
 20
3.237000
  0
SEQEND
  8
gg1
  0
POLYLINE
  8
gg1
 62
1
 40
0.000000
 41
0.000000
 66
  1
  0
VERTEX
  8
gg1
 10
3.315000
 20
3.117000
  0
VERTEX
  8
gg1
 10
3.355000
 20
3.117000
  0
SEQEND
  8
gg1
  0
POLYLINE
  8
gg1
 62
1
 40
0.000000
 41
0.000000
 66
  1
  0
VERTEX
  8
gg1
 10
3.335000
 20
3.097000
  0
VERTEX
  8
gg1
 10
3.335000
 20
3.137000
  0
SEQEND
  8
gg1
  0
POLYLINE
  8
gg1
 62
1
 40
0.000000
 41
0.000000
 66
  1
  0
VERTEX
  8
gg1
 10
3.715000
 20
3.217000
  0
VERTEX
  8
gg1
 10
3.755000
 20
3.217000
  0
SEQEND
  8
gg1
  0
POLYLINE
  8
gg1
 62
1
 40
0.000000
 41
0.000000
 66
  1
  0
VERTEX
  8
gg1
 10
3.735000
 20
3.197000
  0
VERTEX
  8
gg1
 10
3.735000
 20
3.237000
  0
SEQEND
  8
gg1
  0
POLYLINE
  8
gg1
 62
1
 40
0.000000
 41
0.000000
 66
  1
  0
VERTEX
  8
gg1
 10
3.715000
 20
3.117000
  0
VERTEX
  8
gg1
 10
3.755000
 20
3.117000
  0
SEQEND
  8
gg1
  0
POLYLINE
  8
gg1
 62
1
 40
0.000000
 41
0.000000
 66
  1
  0
VERTEX
  8
gg1
 10
3.735000
 20
3.097000
  0
VERTEX
  8
gg1
 10
3.735000
 20
3.137000
  0
SEQEND
  8
gg1
  0
POLYLINE
  8
gg1
 62
1
 40
0.000000
 41
0.000000
 66
  1
  0
VERTEX
  8
gg1
 10
3.415000
 20
3.217000
  0
VERTEX
  8
gg1
 10
3.455000
 20
3.217000
  0
SEQEND
  8
gg1
  0
POLYLINE
  8
gg1
 62
1
 40
0.000000
 41
0.000000
 66
  1
  0
VERTEX
  8
gg1
 10
3.435000
 20
3.197000
  0
VERTEX
  8
gg1
 10
3.435000
 20
3.237000
  0
SEQEND
  8
gg1
  0
POLYLINE
  8
gg1
 62
1
 40
0.000000
 41
0.000000
 66
  1
  0
VERTEX
  8
gg1
 10
3.415000
 20
3.117000
  0
VERTEX
  8
gg1
 10
3.455000
 20
3.117000
  0
SEQEND
  8
gg1
  0
POLYLINE
  8
gg1
 62
1
 40
0.000000
 41
0.000000
 66
  1
  0
VERTEX
  8
gg1
 10
3.435000
 20
3.097000
  0
VERTEX
  8
gg1
 10
3.435000
 20
3.137000
  0
SEQEND
  8
gg1
  0
POLYLINE
  8
gg1
 62
1
 40
0.000000
 41
0.000000
 66
  1
  0
VERTEX
  8
gg1
 10
3.515000
 20
3.217000
  0
VERTEX
  8
gg1
 10
3.555000
 20
3.217000
  0
SEQEND
  8
gg1
  0
POLYLINE
  8
gg1
 62
1
 40
0.000000
 41
0.000000
 66
  1
  0
VERTEX
  8
gg1
 10
3.535000
 20
3.197000
  0
VERTEX
  8
gg1
 10
3.535000
 20
3.237000
  0
SEQEND
  8
gg1
  0
POLYLINE
  8
gg1
 62
1
 40
0.000000
 41
0.000000
 66
  1
  0
VERTEX
  8
gg1
 10
3.515000
 20
3.117000
  0
VERTEX
  8
gg1
 10
3.555000
 20
3.117000
  0
SEQEND
  8
gg1
  0
POLYLINE
  8
gg1
 62
1
 40
0.000000
 41
0.000000
 66
  1
  0
VERTEX
  8
gg1
 10
3.535000
 20
3.097000
  0
VERTEX
  8
gg1
 10
3.535000
 20
3.137000
  0
SEQEND
  8
gg1
  0
POLYLINE
  8
gg1
 62
1
 40
0.000000
 41
0.000000
 66
  1
  0
VERTEX
  8
gg1
 10
3.115000
 20
3.217000
  0
VERTEX
  8
gg1
 10
3.155000
 20
3.217000
  0
SEQEND
  8
gg1
  0
POLYLINE
  8
gg1
 62
1
 40
0.000000
 41
0.000000
 66
  1
  0
VERTEX
  8
gg1
 10
3.135000
 20
3.197000
  0
VERTEX
  8
gg1
 10
3.135000
 20
3.237000
  0
SEQEND
  8
gg1
  0
POLYLINE
  8
gg1
 62
1
 40
0.000000
 41
0.000000
 66
  1
  0
VERTEX
  8
gg1
 10
3.115000
 20
3.117000
  0
VERTEX
  8
gg1
 10
3.155000
 20
3.117000
  0
SEQEND
  8
gg1
  0
POLYLINE
  8
gg1
 62
1
 40
0.000000
 41
0.000000
 66
  1
  0
VERTEX
  8
gg1
 10
3.135000
 20
3.097000
  0
VERTEX
  8
gg1
 10
3.135000
 20
3.137000
  0
SEQEND
  8
gg1
  0
POLYLINE
  8
gg1
 62
1
 40
0.000000
 41
0.000000
 66
  1
  0
VERTEX
  8
gg1
 10
3.515000
 20
2.617000
  0
VERTEX
  8
gg1
 10
3.555000
 20
2.617000
  0
SEQEND
  8
gg1
  0
POLYLINE
  8
gg1
 62
1
 40
0.000000
 41
0.000000
 66
  1
  0
VERTEX
  8
gg1
 10
3.535000
 20
2.597000
  0
VERTEX
  8
gg1
 10
3.535000
 20
2.637000
  0
SEQEND
  8
gg1
  0
POLYLINE
  8
gg1
 62
1
 40
0.000000
 41
0.000000
 66
  1
  0
VERTEX
  8
gg1
 10
3.215000
 20
2.617000
  0
VERTEX
  8
gg1
 10
3.255000
 20
2.617000
  0
SEQEND
  8
gg1
  0
POLYLINE
  8
gg1
 62
1
 40
0.000000
 41
0.000000
 66
  1
  0
VERTEX
  8
gg1
 10
3.235000
 20
2.597000
  0
VERTEX
  8
gg1
 10
3.235000
 20
2.637000
  0
SEQEND
  8
gg1
  0
POLYLINE
  8
gg1
 62
1
 40
0.000000
 41
0.000000
 66
  1
  0
VERTEX
  8
gg1
 10
3.115000
 20
2.717000
  0
VERTEX
  8
gg1
 10
3.155000
 20
2.717000
  0
SEQEND
  8
gg1
  0
POLYLINE
  8
gg1
 62
1
 40
0.000000
 41
0.000000
 66
  1
  0
VERTEX
  8
gg1
 10
3.135000
 20
2.697000
  0
VERTEX
  8
gg1
 10
3.135000
 20
2.737000
  0
SEQEND
  8
gg1
  0
POLYLINE
  8
gg1
 62
1
 40
0.000000
 41
0.000000
 66
  1
  0
VERTEX
  8
gg1
 10
3.315000
 20
2.617000
  0
VERTEX
  8
gg1
 10
3.355000
 20
2.617000
  0
SEQEND
  8
gg1
  0
POLYLINE
  8
gg1
 62
1
 40
0.000000
 41
0.000000
 66
  1
  0
VERTEX
  8
gg1
 10
3.335000
 20
2.597000
  0
VERTEX
  8
gg1
 10
3.335000
 20
2.637000
  0
SEQEND
  8
gg1
  0
POLYLINE
  8
gg1
 62
1
 40
0.000000
 41
0.000000
 66
  1
  0
VERTEX
  8
gg1
 10
3.115000
 20
2.617000
  0
VERTEX
  8
gg1
 10
3.155000
 20
2.617000
  0
SEQEND
  8
gg1
  0
POLYLINE
  8
gg1
 62
1
 40
0.000000
 41
0.000000
 66
  1
  0
VERTEX
  8
gg1
 10
3.135000
 20
2.597000
  0
VERTEX
  8
gg1
 10
3.135000
 20
2.637000
  0
SEQEND
  8
gg1
  0
POLYLINE
  8
gg1
 62
1
 40
0.000000
 41
0.000000
 66
  1
  0
VERTEX
  8
gg1
 10
3.215000
 20
2.717000
  0
VERTEX
  8
gg1
 10
3.255000
 20
2.717000
  0
SEQEND
  8
gg1
  0
POLYLINE
  8
gg1
 62
1
 40
0.000000
 41
0.000000
 66
  1
  0
VERTEX
  8
gg1
 10
3.235000
 20
2.697000
  0
VERTEX
  8
gg1
 10
3.235000
 20
2.737000
  0
SEQEND
  8
gg1
  0
POLYLINE
  8
gg1
 62
1
 40
0.000000
 41
0.000000
 66
  1
  0
VERTEX
  8
gg1
 10
3.015000
 20
2.717000
  0
VERTEX
  8
gg1
 10
3.055000
 20
2.717000
  0
SEQEND
  8
gg1
  0
POLYLINE
  8
gg1
 62
1
 40
0.000000
 41
0.000000
 66
  1
  0
VERTEX
  8
gg1
 10
3.035000
 20
2.697000
  0
VERTEX
  8
gg1
 10
3.035000
 20
2.737000
  0
SEQEND
  8
gg1
  0
POLYLINE
  8
gg1
 62
1
 40
0.000000
 41
0.000000
 66
  1
  0
VERTEX
  8
gg1
 10
3.057500
 20
1.842000
  0
VERTEX
  8
gg1
 10
3.092500
 20
1.842000
  0
SEQEND
  8
gg1
  0
POLYLINE
  8
gg1
 62
1
 40
0.000000
 41
0.000000
 66
  1
  0
VERTEX
  8
gg1
 10
3.075000
 20
1.824500
  0
VERTEX
  8
gg1
 10
3.075000
 20
1.859500
  0
SEQEND
  8
gg1
  0
POLYLINE
  8
gg1
 62
1
 40
0.000000
 41
0.000000
 66
  1
  0
VERTEX
  8
gg1
 10
2.910000
 20
1.842000
  0
VERTEX
  8
gg1
 10
2.945000
 20
1.842000
  0
SEQEND
  8
gg1
  0
POLYLINE
  8
gg1
 62
1
 40
0.000000
 41
0.000000
 66
  1
  0
VERTEX
  8
gg1
 10
2.927500
 20
1.824500
  0
VERTEX
  8
gg1
 10
2.927500
 20
1.859500
  0
SEQEND
  8
gg1
  0
POLYLINE
  8
gg1
 62
1
 40
0.000000
 41
0.000000
 66
  1
  0
VERTEX
  8
gg1
 10
2.065000
 20
1.667000
  0
VERTEX
  8
gg1
 10
2.105000
 20
1.667000
  0
SEQEND
  8
gg1
  0
POLYLINE
  8
gg1
 62
1
 40
0.000000
 41
0.000000
 66
  1
  0
VERTEX
  8
gg1
 10
2.085000
 20
1.647000
  0
VERTEX
  8
gg1
 10
2.085000
 20
1.687000
  0
SEQEND
  8
gg1
  0
POLYLINE
  8
gg1
 62
1
 40
0.000000
 41
0.000000
 66
  1
  0
VERTEX
  8
gg1
 10
2.165000
 20
1.567000
  0
VERTEX
  8
gg1
 10
2.205000
 20
1.567000
  0
SEQEND
  8
gg1
  0
POLYLINE
  8
gg1
 62
1
 40
0.000000
 41
0.000000
 66
  1
  0
VERTEX
  8
gg1
 10
2.185000
 20
1.547000
  0
VERTEX
  8
gg1
 10
2.185000
 20
1.587000
  0
SEQEND
  8
gg1
  0
POLYLINE
  8
gg1
 62
1
 40
0.000000
 41
0.000000
 66
  1
  0
VERTEX
  8
gg1
 10
2.485000
 20
1.487000
  0
VERTEX
  8
gg1
 10
2.505000
 20
1.487000
  0
SEQEND
  8
gg1
  0
POLYLINE
  8
gg1
 62
1
 40
0.000000
 41
0.000000
 66
  1
  0
VERTEX
  8
gg1
 10
2.495000
 20
1.477000
  0
VERTEX
  8
gg1
 10
2.495000
 20
1.497000
  0
SEQEND
  8
gg1
  0
POLYLINE
  8
gg1
 62
1
 40
0.000000
 41
0.000000
 66
  1
  0
VERTEX
  8
gg1
 10
2.165000
 20
1.667000
  0
VERTEX
  8
gg1
 10
2.205000
 20
1.667000
  0
SEQEND
  8
gg1
  0
POLYLINE
  8
gg1
 62
1
 40
0.000000
 41
0.000000
 66
  1
  0
VERTEX
  8
gg1
 10
2.185000
 20
1.647000
  0
VERTEX
  8
gg1
 10
2.185000
 20
1.687000
  0
SEQEND
  8
gg1
  0
POLYLINE
  8
gg1
 62
1
 40
0.000000
 41
0.000000
 66
  1
  0
VERTEX
  8
gg1
 10
2.165000
 20
1.467000
  0
VERTEX
  8
gg1
 10
2.205000
 20
1.467000
  0
SEQEND
  8
gg1
  0
POLYLINE
  8
gg1
 62
1
 40
0.000000
 41
0.000000
 66
  1
  0
VERTEX
  8
gg1
 10
2.185000
 20
1.447000
  0
VERTEX
  8
gg1
 10
2.185000
 20
1.487000
  0
SEQEND
  8
gg1
  0
POLYLINE
  8
gg1
 62
1
 40
0.000000
 41
0.000000
 66
  1
  0
VERTEX
  8
gg1
 10
2.165000
 20
1.267000
  0
VERTEX
  8
gg1
 10
2.205000
 20
1.267000
  0
SEQEND
  8
gg1
  0
POLYLINE
  8
gg1
 62
1
 40
0.000000
 41
0.000000
 66
  1
  0
VERTEX
  8
gg1
 10
2.185000
 20
1.247000
  0
VERTEX
  8
gg1
 10
2.185000
 20
1.287000
  0
SEQEND
  8
gg1
  0
POLYLINE
  8
gg1
 62
1
 40
0.000000
 41
0.000000
 66
  1
  0
VERTEX
  8
gg1
 10
2.165000
 20
1.367000
  0
VERTEX
  8
gg1
 10
2.205000
 20
1.367000
  0
SEQEND
  8
gg1
  0
POLYLINE
  8
gg1
 62
1
 40
0.000000
 41
0.000000
 66
  1
  0
VERTEX
  8
gg1
 10
2.185000
 20
1.347000
  0
VERTEX
  8
gg1
 10
2.185000
 20
1.387000
  0
SEQEND
  8
gg1
  0
POLYLINE
  8
gg1
 62
1
 40
0.000000
 41
0.000000
 66
  1
  0
VERTEX
  8
gg1
 10
2.065000
 20
1.567000
  0
VERTEX
  8
gg1
 10
2.105000
 20
1.567000
  0
SEQEND
  8
gg1
  0
POLYLINE
  8
gg1
 62
1
 40
0.000000
 41
0.000000
 66
  1
  0
VERTEX
  8
gg1
 10
2.085000
 20
1.547000
  0
VERTEX
  8
gg1
 10
2.085000
 20
1.587000
  0
SEQEND
  8
gg1
  0
POLYLINE
  8
gg1
 62
1
 40
0.000000
 41
0.000000
 66
  1
  0
VERTEX
  8
gg1
 10
2.065000
 20
1.467000
  0
VERTEX
  8
gg1
 10
2.105000
 20
1.467000
  0
SEQEND
  8
gg1
  0
POLYLINE
  8
gg1
 62
1
 40
0.000000
 41
0.000000
 66
  1
  0
VERTEX
  8
gg1
 10
2.085000
 20
1.447000
  0
VERTEX
  8
gg1
 10
2.085000
 20
1.487000
  0
SEQEND
  8
gg1
  0
POLYLINE
  8
gg1
 62
1
 40
0.000000
 41
0.000000
 66
  1
  0
VERTEX
  8
gg1
 10
3.583000
 20
2.912500
  0
VERTEX
  8
gg1
 10
3.677500
 20
2.912500
  0
SEQEND
  8
gg1
  0
POLYLINE
  8
gg1
 62
1
 40
0.000000
 41
0.000000
 66
  1
  0
VERTEX
  8
gg1
 10
3.630300
 20
2.865200
  0
VERTEX
  8
gg1
 10
3.630300
 20
2.959700
  0
SEQEND
  8
gg1
  0
POLYLINE
  8
gg1
 62
1
 40
0.000000
 41
0.000000
 66
  1
  0
VERTEX
  8
gg1
 10
3.878300
 20
2.912500
  0
VERTEX
  8
gg1
 10
3.972800
 20
2.912500
  0
SEQEND
  8
gg1
  0
POLYLINE
  8
gg1
 62
1
 40
0.000000
 41
0.000000
 66
  1
  0
VERTEX
  8
gg1
 10
3.925600
 20
2.865200
  0
VERTEX
  8
gg1
 10
3.925600
 20
2.959700
  0
SEQEND
  8
gg1
  0
POLYLINE
  8
gg1
 62
1
 40
0.000000
 41
0.000000
 66
  1
  0
VERTEX
  8
gg1
 10
3.287800
 20
2.912500
  0
VERTEX
  8
gg1
 10
3.382200
 20
2.912500
  0
SEQEND
  8
gg1
  0
POLYLINE
  8
gg1
 62
1
 40
0.000000
 41
0.000000
 66
  1
  0
VERTEX
  8
gg1
 10
3.335000
 20
2.865200
  0
VERTEX
  8
gg1
 10
3.335000
 20
2.959700
  0
SEQEND
  8
gg1
  0
POLYLINE
  8
gg1
 62
1
 40
0.000000
 41
0.000000
 66
  1
  0
VERTEX
  8
gg1
 10
2.992500
 20
2.912500
  0
VERTEX
  8
gg1
 10
3.087000
 20
2.912500
  0
SEQEND
  8
gg1
  0
POLYLINE
  8
gg1
 62
1
 40
0.000000
 41
0.000000
 66
  1
  0
VERTEX
  8
gg1
 10
3.039700
 20
2.865200
  0
VERTEX
  8
gg1
 10
3.039700
 20
2.959700
  0
SEQEND
  8
gg1
  0
POLYLINE
  8
gg1
 62
1
 40
0.000000
 41
0.000000
 66
  1
  0
VERTEX
  8
gg1
 10
2.697200
 20
2.912500
  0
VERTEX
  8
gg1
 10
2.791700
 20
2.912500
  0
SEQEND
  8
gg1
  0
POLYLINE
  8
gg1
 62
1
 40
0.000000
 41
0.000000
 66
  1
  0
VERTEX
  8
gg1
 10
2.744400
 20
2.865200
  0
VERTEX
  8
gg1
 10
2.744400
 20
2.959700
  0
SEQEND
  8
gg1
  0
POLYLINE
  8
gg1
 62
1
 40
0.000000
 41
0.000000
 66
  1
  0
VERTEX
  8
gg1
 10
3.878300
 20
1.294400
  0
VERTEX
  8
gg1
 10
3.972800
 20
1.294400
  0
SEQEND
  8
gg1
  0
POLYLINE
  8
gg1
 62
1
 40
0.000000
 41
0.000000
 66
  1
  0
VERTEX
  8
gg1
 10
3.925600
 20
1.247100
  0
VERTEX
  8
gg1
 10
3.925600
 20
1.341600
  0
SEQEND
  8
gg1
  0
POLYLINE
  8
gg1
 62
1
 40
0.000000
 41
0.000000
 66
  1
  0
VERTEX
  8
gg1
 10
2.697200
 20
1.294400
  0
VERTEX
  8
gg1
 10
2.791700
 20
1.294400
  0
SEQEND
  8
gg1
  0
POLYLINE
  8
gg1
 62
1
 40
0.000000
 41
0.000000
 66
  1
  0
VERTEX
  8
gg1
 10
2.744400
 20
1.247100
  0
VERTEX
  8
gg1
 10
2.744400
 20
1.341600
  0
SEQEND
  8
gg1
  0
ENDSEC
  0
EOF
