  0
SECTION
  2
HEADER
  9
$EXTMIN
 10
1.798000
 20
1.451000
  9
$EXTMAX
 10
2.530000
 20
2.195000
  9
$LIMMIN
 10
1.798000
 20
1.451000
  9
$LIMMAX
 10
2.530000
 20
2.195000
  9
$FILLMODE
 70
  1
  0
ENDSEC
  0
SECTION
  2
TABLES
  0
TABLE
  2
LTYPE
 70
  1
  0
LTYPE
  2
CONTINUOUS
 70
 64
  3
Solid line
 72
 65
 73
  0
 40
0.0
  0
ENDTAB
  0
TABLE
  2
LAYER
 70
 1
  0
LAYER
  2
0
 70
  0
 62
7
  6
CONTINUOUS
  0
LAYER
  2
gg1
 70
  0
 62
1
  6
CONTINUOUS
  0
ENDTAB
  0
TABLE
  2
STYLE
 70
  1
  0
STYLE
  2
STANDARD
 70
  0
 40
0.0
 41
1.0
 50
0.0
 71
  0
 42
0.2
  3
txt
  4

  0
ENDTAB
  0
ENDSEC
  0
SECTION
  2
BLOCKS
  0
BLOCK
  8
0
  2
D10
 70
64
 10
0.0
 20
0.0
  3
D10
  0
CIRCLE
  8
0
 10
0.000000
 20
0.000000
 40
0.005000
 0
ENDBLK
  8
0
  0
BLOCK
  8
0
  2
D11
 70
64
 10
0.0
 20
0.0
  3
D11
  0
CIRCLE
  8
0
 10
0.000000
 20
0.000000
 40
0.002500
 0
ENDBLK
  8
0
  0
BLOCK
  8
0
  2
D12
 70
64
 10
0.0
 20
0.0
  3
D12
  0
CIRCLE
  8
0
 10
0.000000
 20
0.000000
 40
0.003000
 0
ENDBLK
  8
0
  0
BLOCK
  8
0
  2
D13
 70
64
 10
0.0
 20
0.0
  3
D13
  0
CIRCLE
  8
0
 10
0.000000
 20
0.000000
 40
0.001000
 0
ENDBLK
  8
0
  0
ENDSEC
  0
SECTION
  2
ENTITIES
  0
POLYLINE
  8
gg1
 62
1
 40
0.000000
 41
0.000000
 66
  1
  0
VERTEX
  8
gg1
 10
1.815000
 20
2.190000
  0
VERTEX
  8
gg1
 10
1.912500
 20
2.190000
  0
SEQEND
  8
gg1
  0
POLYLINE
  8
gg1
 62
1
 40
0.000000
 41
0.000000
 66
  1
  0
VERTEX
  8
gg1
 10
1.815000
 20
1.590000
  0
VERTEX
  8
gg1
 10
1.912500
 20
1.590000
  0
SEQEND
  8
gg1
  0
POLYLINE
  8
gg1
 62
1
 40
0.000000
 41
0.000000
 66
  1
  0
VERTEX
  8
gg1
 10
1.825000
 20
2.044900
  0
VERTEX
  8
gg1
 10
1.825000
 20
2.190000
  0
SEQEND
  8
gg1
  0
POLYLINE
  8
gg1
 62
1
 40
0.000000
 41
0.000000
 66
  1
  0
VERTEX
  8
gg1
 10
1.825000
 20
1.590000
  0
VERTEX
  8
gg1
 10
1.825000
 20
1.703100
  0
SEQEND
  8
gg1
  0
POLYLINE
  8
gg1
 62
1
 40
0.000000
 41
0.000000
 66
  1
  0
VERTEX
  8
gg1
 10
1.805000
 20
2.130000
  0
VERTEX
  8
gg1
 10
1.825000
 20
2.190000
  0
VERTEX
  8
gg1
 10
1.845000
 20
2.130000
  0
SEQEND
  8
gg1
  0
POLYLINE
  8
gg1
 62
1
 40
0.000000
 41
0.000000
 66
  1
  0
VERTEX
  8
gg1
 10
1.825000
 20
1.590000
  0
VERTEX
  8
gg1
 10
1.845000
 20
1.650000
  0
SEQEND
  8
gg1
  0
POLYLINE
  8
gg1
 62
1
 40
0.000000
 41
0.000000
 66
  1
  0
VERTEX
  8
gg1
 10
1.805000
 20
1.650000
  0
VERTEX
  8
gg1
 10
1.825000
 20
1.590000
  0
SEQEND
  8
gg1
  0
POLYLINE
  8
gg1
 62
1
 40
0.000000
 41
0.000000
 66
  1
  0
VERTEX
  8
gg1
 10
2.525000
 20
1.480000
  0
VERTEX
  8
gg1
 10
2.525000
 20
1.577500
  0
SEQEND
  8
gg1
  0
POLYLINE
  8
gg1
 62
1
 40
0.000000
 41
0.000000
 66
  1
  0
VERTEX
  8
gg1
 10
1.925000
 20
1.480000
  0
VERTEX
  8
gg1
 10
1.925000
 20
1.577500
  0
SEQEND
  8
gg1
  0
POLYLINE
  8
gg1
 62
1
 40
0.000000
 41
0.000000
 66
  1
  0
VERTEX
  8
gg1
 10
2.379900
 20
1.490000
  0
VERTEX
  8
gg1
 10
2.525000
 20
1.490000
  0
SEQEND
  8
gg1
  0
POLYLINE
  8
gg1
 62
1
 40
0.000000
 41
0.000000
 66
  1
  0
VERTEX
  8
gg1
 10
1.925000
 20
1.490000
  0
VERTEX
  8
gg1
 10
2.038000
 20
1.490000
  0
SEQEND
  8
gg1
  0
POLYLINE
  8
gg1
 62
1
 40
0.000000
 41
0.000000
 66
  1
  0
VERTEX
  8
gg1
 10
2.465000
 20
1.510000
  0
VERTEX
  8
gg1
 10
2.525000
 20
1.490000
  0
SEQEND
  8
gg1
  0
POLYLINE
  8
gg1
 62
1
 40
0.000000
 41
0.000000
 66
  1
  0
VERTEX
  8
gg1
 10
2.465000
 20
1.470000
  0
VERTEX
  8
gg1
 10
2.525000
 20
1.490000
  0
SEQEND
  8
gg1
  0
POLYLINE
  8
gg1
 62
1
 40
0.000000
 41
0.000000
 66
  1
  0
VERTEX
  8
gg1
 10
1.925000
 20
1.490000
  0
VERTEX
  8
gg1
 10
1.985000
 20
1.470000
  0
SEQEND
  8
gg1
  0
POLYLINE
  8
gg1
 62
1
 40
0.000000
 41
0.000000
 66
  1
  0
VERTEX
  8
gg1
 10
1.925000
 20
1.490000
  0
VERTEX
  8
gg1
 10
1.985000
 20
1.510000
  0
SEQEND
  8
gg1
  0
POLYLINE
  8
gg1
 62
1
 40
0.000000
 41
0.000000
 66
  1
  0
VERTEX
  8
gg1
 10
1.925000
 20
1.590000
  0
VERTEX
  8
gg1
 10
2.525000
 20
1.590000
  0
VERTEX
  8
gg1
 10
2.525000
 20
2.190000
  0
SEQEND
  8
gg1
  0
POLYLINE
  8
gg1
 62
1
 40
0.000000
 41
0.000000
 66
  1
  0
VERTEX
  8
gg1
 10
1.925000
 20
2.190000
  0
VERTEX
  8
gg1
 10
2.525000
 20
2.190000
  0
SEQEND
  8
gg1
  0
POLYLINE
  8
gg1
 62
1
 40
0.000000
 41
0.000000
 66
  1
  0
VERTEX
  8
gg1
 10
1.925000
 20
1.590000
  0
VERTEX
  8
gg1
 10
1.925000
 20
2.190000
  0
SEQEND
  8
gg1
  0
POLYLINE
  8
gg1
 62
1
 40
0.000000
 41
0.000000
 66
  1
  0
VERTEX
  8
gg1
 10
1.801000
 20
1.759000
  0
VERTEX
  8
gg1
 10
1.811000
 20
1.739000
  0
VERTEX
  8
gg1
 10
1.831000
 20
1.719100
  0
VERTEX
  8
gg1
 10
1.851000
 20
1.719100
  0
VERTEX
  8
gg1
 10
1.861000
 20
1.729000
  0
VERTEX
  8
gg1
 10
1.861000
 20
1.749000
  0
VERTEX
  8
gg1
 10
1.851000
 20
1.759000
  0
VERTEX
  8
gg1
 10
1.841000
 20
1.759000
  0
VERTEX
  8
gg1
 10
1.831000
 20
1.749000
  0
VERTEX
  8
gg1
 10
1.831000
 20
1.719100
  0
SEQEND
  8
gg1
  0
POLYLINE
  8
gg1
 62
1
 40
0.000000
 41
0.000000
 66
  1
  0
VERTEX
  8
gg1
 10
1.811000
 20
1.779000
  0
VERTEX
  8
gg1
 10
1.801000
 20
1.789000
  0
VERTEX
  8
gg1
 10
1.801000
 20
1.809000
  0
VERTEX
  8
gg1
 10
1.811000
 20
1.819000
  0
VERTEX
  8
gg1
 10
1.851000
 20
1.819000
  0
VERTEX
  8
gg1
 10
1.861000
 20
1.809000
  0
VERTEX
  8
gg1
 10
1.861000
 20
1.789000
  0
VERTEX
  8
gg1
 10
1.851000
 20
1.779000
  0
VERTEX
  8
gg1
 10
1.811000
 20
1.779000
  0
SEQEND
  8
gg1
  0
POLYLINE
  8
gg1
 62
1
 40
0.000000
 41
0.000000
 66
  1
  0
VERTEX
  8
gg1
 10
1.811000
 20
1.839000
  0
VERTEX
  8
gg1
 10
1.801000
 20
1.849000
  0
VERTEX
  8
gg1
 10
1.801000
 20
1.869000
  0
VERTEX
  8
gg1
 10
1.811000
 20
1.879000
  0
VERTEX
  8
gg1
 10
1.851000
 20
1.879000
  0
VERTEX
  8
gg1
 10
1.861000
 20
1.869000
  0
VERTEX
  8
gg1
 10
1.861000
 20
1.849000
  0
VERTEX
  8
gg1
 10
1.851000
 20
1.839000
  0
VERTEX
  8
gg1
 10
1.811000
 20
1.839000
  0
SEQEND
  8
gg1
  0
POLYLINE
  8
gg1
 62
1
 40
0.000000
 41
0.000000
 66
  1
  0
VERTEX
  8
gg1
 10
1.861000
 20
1.899000
  0
VERTEX
  8
gg1
 10
1.821000
 20
1.899000
  0
VERTEX
  8
gg1
 10
1.821000
 20
1.909000
  0
VERTEX
  8
gg1
 10
1.831000
 20
1.919000
  0
VERTEX
  8
gg1
 10
1.861000
 20
1.919000
  0
VERTEX
  8
gg1
 10
1.831000
 20
1.919000
  0
VERTEX
  8
gg1
 10
1.821000
 20
1.929000
  0
VERTEX
  8
gg1
 10
1.831000
 20
1.939000
  0
VERTEX
  8
gg1
 10
1.861000
 20
1.939000
  0
SEQEND
  8
gg1
  0
POLYLINE
  8
gg1
 62
1
 40
0.000000
 41
0.000000
 66
  1
  0
VERTEX
  8
gg1
 10
1.861000
 20
1.959000
  0
VERTEX
  8
gg1
 10
1.861000
 20
1.979000
  0
VERTEX
  8
gg1
 10
1.861000
 20
1.969000
  0
VERTEX
  8
gg1
 10
1.821000
 20
1.969000
  0
VERTEX
  8
gg1
 10
1.821000
 20
1.959000
  0
SEQEND
  8
gg1
  0
POLYLINE
  8
gg1
 62
1
 40
0.000000
 41
0.000000
 66
  1
  0
VERTEX
  8
gg1
 10
1.861000
 20
2.009000
  0
VERTEX
  8
gg1
 10
1.861000
 20
2.028900
  0
VERTEX
  8
gg1
 10
1.861000
 20
2.019000
  0
VERTEX
  8
gg1
 10
1.801000
 20
2.019000
  0
VERTEX
  8
gg1
 10
1.801000
 20
2.009000
  0
SEQEND
  8
gg1
  0
POLYLINE
  8
gg1
 62
1
 40
0.000000
 41
0.000000
 66
  1
  0
VERTEX
  8
gg1
 10
2.094000
 20
1.514000
  0
VERTEX
  8
gg1
 10
2.074000
 20
1.504000
  0
VERTEX
  8
gg1
 10
2.054000
 20
1.484000
  0
VERTEX
  8
gg1
 10
2.054000
 20
1.464000
  0
VERTEX
  8
gg1
 10
2.064000
 20
1.454000
  0
VERTEX
  8
gg1
 10
2.084000
 20
1.454000
  0
VERTEX
  8
gg1
 10
2.094000
 20
1.464000
  0
VERTEX
  8
gg1
 10
2.094000
 20
1.474000
  0
VERTEX
  8
gg1
 10
2.084000
 20
1.484000
  0
VERTEX
  8
gg1
 10
2.054000
 20
1.484000
  0
SEQEND
  8
gg1
  0
POLYLINE
  8
gg1
 62
1
 40
0.000000
 41
0.000000
 66
  1
  0
VERTEX
  8
gg1
 10
2.114000
 20
1.504000
  0
VERTEX
  8
gg1
 10
2.124000
 20
1.514000
  0
VERTEX
  8
gg1
 10
2.144000
 20
1.514000
  0
VERTEX
  8
gg1
 10
2.154000
 20
1.504000
  0
VERTEX
  8
gg1
 10
2.154000
 20
1.464000
  0
VERTEX
  8
gg1
 10
2.144000
 20
1.454000
  0
VERTEX
  8
gg1
 10
2.124000
 20
1.454000
  0
VERTEX
  8
gg1
 10
2.114000
 20
1.464000
  0
VERTEX
  8
gg1
 10
2.114000
 20
1.504000
  0
SEQEND
  8
gg1
  0
POLYLINE
  8
gg1
 62
1
 40
0.000000
 41
0.000000
 66
  1
  0
VERTEX
  8
gg1
 10
2.174000
 20
1.504000
  0
VERTEX
  8
gg1
 10
2.184000
 20
1.514000
  0
VERTEX
  8
gg1
 10
2.204000
 20
1.514000
  0
VERTEX
  8
gg1
 10
2.214000
 20
1.504000
  0
VERTEX
  8
gg1
 10
2.214000
 20
1.464000
  0
VERTEX
  8
gg1
 10
2.204000
 20
1.454000
  0
VERTEX
  8
gg1
 10
2.184000
 20
1.454000
  0
VERTEX
  8
gg1
 10
2.174000
 20
1.464000
  0
VERTEX
  8
gg1
 10
2.174000
 20
1.504000
  0
SEQEND
  8
gg1
  0
POLYLINE
  8
gg1
 62
1
 40
0.000000
 41
0.000000
 66
  1
  0
VERTEX
  8
gg1
 10
2.234000
 20
1.454000
  0
VERTEX
  8
gg1
 10
2.234000
 20
1.494000
  0
VERTEX
  8
gg1
 10
2.244000
 20
1.494000
  0
VERTEX
  8
gg1
 10
2.254000
 20
1.484000
  0
VERTEX
  8
gg1
 10
2.254000
 20
1.454000
  0
VERTEX
  8
gg1
 10
2.254000
 20
1.484000
  0
VERTEX
  8
gg1
 10
2.264000
 20
1.494000
  0
VERTEX
  8
gg1
 10
2.274000
 20
1.484000
  0
VERTEX
  8
gg1
 10
2.274000
 20
1.454000
  0
SEQEND
  8
gg1
  0
POLYLINE
  8
gg1
 62
1
 40
0.000000
 41
0.000000
 66
  1
  0
VERTEX
  8
gg1
 10
2.294000
 20
1.454000
  0
VERTEX
  8
gg1
 10
2.314000
 20
1.454000
  0
VERTEX
  8
gg1
 10
2.304000
 20
1.454000
  0
VERTEX
  8
gg1
 10
2.304000
 20
1.494000
  0
VERTEX
  8
gg1
 10
2.294000
 20
1.494000
  0
SEQEND
  8
gg1
  0
POLYLINE
  8
gg1
 62
1
 40
0.000000
 41
0.000000
 66
  1
  0
VERTEX
  8
gg1
 10
2.344000
 20
1.454000
  0
VERTEX
  8
gg1
 10
2.363900
 20
1.454000
  0
VERTEX
  8
gg1
 10
2.354000
 20
1.454000
  0
VERTEX
  8
gg1
 10
2.354000
 20
1.514000
  0
VERTEX
  8
gg1
 10
2.344000
 20
1.514000
  0
SEQEND
  8
gg1
  0
POLYLINE
  8
gg1
 62
1
 40
0.000000
 41
0.000000
 66
  1
  0
VERTEX
  8
gg1
 10
2.220000
 20
2.107500
  0
VERTEX
  8
gg1
 10
2.240000
 20
2.107500
  0
SEQEND
  8
gg1
  0
POLYLINE
  8
gg1
 62
1
 40
0.000000
 41
0.000000
 66
  1
  0
VERTEX
  8
gg1
 10
2.230000
 20
2.097500
  0
VERTEX
  8
gg1
 10
2.230000
 20
2.117500
  0
SEQEND
  8
gg1
  0
POLYLINE
  8
gg1
 62
1
 40
0.000000
 41
0.000000
 66
  1
  0
VERTEX
  8
gg1
 10
2.455000
 20
2.140000
  0
VERTEX
  8
gg1
 10
2.495000
 20
2.140000
  0
SEQEND
  8
gg1
  0
POLYLINE
  8
gg1
 62
1
 40
0.000000
 41
0.000000
 66
  1
  0
VERTEX
  8
gg1
 10
2.475000
 20
2.120000
  0
VERTEX
  8
gg1
 10
2.475000
 20
2.160000
  0
SEQEND
  8
gg1
  0
POLYLINE
  8
gg1
 62
1
 40
0.000000
 41
0.000000
 66
  1
  0
VERTEX
  8
gg1
 10
2.055000
 20
1.640000
  0
VERTEX
  8
gg1
 10
2.095000
 20
1.640000
  0
SEQEND
  8
gg1
  0
POLYLINE
  8
gg1
 62
1
 40
0.000000
 41
0.000000
 66
  1
  0
VERTEX
  8
gg1
 10
2.075000
 20
1.620000
  0
VERTEX
  8
gg1
 10
2.075000
 20
1.660000
  0
SEQEND
  8
gg1
  0
POLYLINE
  8
gg1
 62
1
 40
0.000000
 41
0.000000
 66
  1
  0
VERTEX
  8
gg1
 10
2.140000
 20
1.625000
  0
VERTEX
  8
gg1
 10
2.160000
 20
1.625000
  0
SEQEND
  8
gg1
  0
POLYLINE
  8
gg1
 62
1
 40
0.000000
 41
0.000000
 66
  1
  0
VERTEX
  8
gg1
 10
2.150000
 20
1.615000
  0
VERTEX
  8
gg1
 10
2.150000
 20
1.635000
  0
SEQEND
  8
gg1
  0
POLYLINE
  8
gg1
 62
1
 40
0.000000
 41
0.000000
 66
  1
  0
VERTEX
  8
gg1
 10
1.955000
 20
1.740000
  0
VERTEX
  8
gg1
 10
1.995000
 20
1.740000
  0
SEQEND
  8
gg1
  0
POLYLINE
  8
gg1
 62
1
 40
0.000000
 41
0.000000
 66
  1
  0
VERTEX
  8
gg1
 10
1.975000
 20
1.720000
  0
VERTEX
  8
gg1
 10
1.975000
 20
1.760000
  0
SEQEND
  8
gg1
  0
POLYLINE
  8
gg1
 62
1
 40
0.000000
 41
0.000000
 66
  1
  0
VERTEX
  8
gg1
 10
2.455000
 20
1.740000
  0
VERTEX
  8
gg1
 10
2.495000
 20
1.740000
  0
SEQEND
  8
gg1
  0
POLYLINE
  8
gg1
 62
1
 40
0.000000
 41
0.000000
 66
  1
  0
VERTEX
  8
gg1
 10
2.475000
 20
1.720000
  0
VERTEX
  8
gg1
 10
2.475000
 20
1.760000
  0
SEQEND
  8
gg1
  0
POLYLINE
  8
gg1
 62
1
 40
0.000000
 41
0.000000
 66
  1
  0
VERTEX
  8
gg1
 10
2.455000
 20
1.840000
  0
VERTEX
  8
gg1
 10
2.495000
 20
1.840000
  0
SEQEND
  8
gg1
  0
POLYLINE
  8
gg1
 62
1
 40
0.000000
 41
0.000000
 66
  1
  0
VERTEX
  8
gg1
 10
2.475000
 20
1.820000
  0
VERTEX
  8
gg1
 10
2.475000
 20
1.860000
  0
SEQEND
  8
gg1
  0
POLYLINE
  8
gg1
 62
1
 40
0.000000
 41
0.000000
 66
  1
  0
VERTEX
  8
gg1
 10
2.455000
 20
2.040000
  0
VERTEX
  8
gg1
 10
2.495000
 20
2.040000
  0
SEQEND
  8
gg1
  0
POLYLINE
  8
gg1
 62
1
 40
0.000000
 41
0.000000
 66
  1
  0
VERTEX
  8
gg1
 10
2.475000
 20
2.020000
  0
VERTEX
  8
gg1
 10
2.475000
 20
2.060000
  0
SEQEND
  8
gg1
  0
POLYLINE
  8
gg1
 62
1
 40
0.000000
 41
0.000000
 66
  1
  0
VERTEX
  8
gg1
 10
2.455000
 20
1.940000
  0
VERTEX
  8
gg1
 10
2.495000
 20
1.940000
  0
SEQEND
  8
gg1
  0
POLYLINE
  8
gg1
 62
1
 40
0.000000
 41
0.000000
 66
  1
  0
VERTEX
  8
gg1
 10
2.475000
 20
1.920000
  0
VERTEX
  8
gg1
 10
2.475000
 20
1.960000
  0
SEQEND
  8
gg1
  0
POLYLINE
  8
gg1
 62
1
 40
0.000000
 41
0.000000
 66
  1
  0
VERTEX
  8
gg1
 10
1.955000
 20
2.140000
  0
VERTEX
  8
gg1
 10
1.995000
 20
2.140000
  0
SEQEND
  8
gg1
  0
POLYLINE
  8
gg1
 62
1
 40
0.000000
 41
0.000000
 66
  1
  0
VERTEX
  8
gg1
 10
1.975000
 20
2.120000
  0
VERTEX
  8
gg1
 10
1.975000
 20
2.160000
  0
SEQEND
  8
gg1
  0
POLYLINE
  8
gg1
 62
1
 40
0.000000
 41
0.000000
 66
  1
  0
VERTEX
  8
gg1
 10
1.955000
 20
1.640000
  0
VERTEX
  8
gg1
 10
1.995000
 20
1.640000
  0
SEQEND
  8
gg1
  0
POLYLINE
  8
gg1
 62
1
 40
0.000000
 41
0.000000
 66
  1
  0
VERTEX
  8
gg1
 10
1.975000
 20
1.620000
  0
VERTEX
  8
gg1
 10
1.975000
 20
1.660000
  0
SEQEND
  8
gg1
  0
POLYLINE
  8
gg1
 62
1
 40
0.000000
 41
0.000000
 66
  1
  0
VERTEX
  8
gg1
 10
1.955000
 20
1.840000
  0
VERTEX
  8
gg1
 10
1.995000
 20
1.840000
  0
SEQEND
  8
gg1
  0
POLYLINE
  8
gg1
 62
1
 40
0.000000
 41
0.000000
 66
  1
  0
VERTEX
  8
gg1
 10
1.975000
 20
1.820000
  0
VERTEX
  8
gg1
 10
1.975000
 20
1.860000
  0
SEQEND
  8
gg1
  0
POLYLINE
  8
gg1
 62
1
 40
0.000000
 41
0.000000
 66
  1
  0
VERTEX
  8
gg1
 10
1.955000
 20
1.940000
  0
VERTEX
  8
gg1
 10
1.995000
 20
1.940000
  0
SEQEND
  8
gg1
  0
POLYLINE
  8
gg1
 62
1
 40
0.000000
 41
0.000000
 66
  1
  0
VERTEX
  8
gg1
 10
1.975000
 20
1.920000
  0
VERTEX
  8
gg1
 10
1.975000
 20
1.960000
  0
SEQEND
  8
gg1
  0
POLYLINE
  8
gg1
 62
1
 40
0.000000
 41
0.000000
 66
  1
  0
VERTEX
  8
gg1
 10
1.955000
 20
2.040000
  0
VERTEX
  8
gg1
 10
1.995000
 20
2.040000
  0
SEQEND
  8
gg1
  0
POLYLINE
  8
gg1
 62
1
 40
0.000000
 41
0.000000
 66
  1
  0
VERTEX
  8
gg1
 10
1.975000
 20
2.020000
  0
VERTEX
  8
gg1
 10
1.975000
 20
2.060000
  0
SEQEND
  8
gg1
  0
ENDSEC
  0
EOF
