  0
SECTION
  2
HEADER
  9
$EXTMIN
 10
0.418000
 20
-0.349000
  9
$EXTMAX
 10
1.030000
 20
0.375000
  9
$LIMMIN
 10
0.418000
 20
-0.349000
  9
$LIMMAX
 10
1.030000
 20
0.375000
  9
$FILLMODE
 70
  1
  0
ENDSEC
  0
SECTION
  2
TABLES
  0
TABLE
  2
LTYPE
 70
  1
  0
LTYPE
  2
CONTINUOUS
 70
 64
  3
Solid line
 72
 65
 73
  0
 40
0.0
  0
ENDTAB
  0
TABLE
  2
LAYER
 70
 1
  0
LAYER
  2
0
 70
  0
 62
7
  6
CONTINUOUS
  0
LAYER
  2
gg1
 70
  0
 62
1
  6
CONTINUOUS
  0
ENDTAB
  0
TABLE
  2
STYLE
 70
  1
  0
STYLE
  2
STANDARD
 70
  0
 40
0.0
 41
1.0
 50
0.0
 71
  0
 42
0.2
  3
txt
  4

  0
ENDTAB
  0
ENDSEC
  0
SECTION
  2
BLOCKS
  0
BLOCK
  8
0
  2
D10
 70
64
 10
0.0
 20
0.0
  3
D10
  0
CIRCLE
  8
0
 10
0.000000
 20
0.000000
 40
0.005000
 0
ENDBLK
  8
0
  0
BLOCK
  8
0
  2
D11
 70
64
 10
0.0
 20
0.0
  3
D11
  0
CIRCLE
  8
0
 10
0.000000
 20
0.000000
 40
0.002500
 0
ENDBLK
  8
0
  0
BLOCK
  8
0
  2
D12
 70
64
 10
0.0
 20
0.0
  3
D12
  0
CIRCLE
  8
0
 10
0.000000
 20
0.000000
 40
0.003000
 0
ENDBLK
  8
0
  0
BLOCK
  8
0
  2
D13
 70
64
 10
0.0
 20
0.0
  3
D13
  0
CIRCLE
  8
0
 10
0.000000
 20
0.000000
 40
0.001000
 0
ENDBLK
  8
0
  0
ENDSEC
  0
SECTION
  2
ENTITIES
  0
POLYLINE
  8
gg1
 62
1
 40
0.000000
 41
0.000000
 66
  1
  0
VERTEX
  8
gg1
 10
0.435000
 20
-0.230000
  0
VERTEX
  8
gg1
 10
0.512500
 20
-0.230000
  0
SEQEND
  8
gg1
  0
POLYLINE
  8
gg1
 62
1
 40
0.000000
 41
0.000000
 66
  1
  0
VERTEX
  8
gg1
 10
0.435000
 20
0.370000
  0
VERTEX
  8
gg1
 10
0.512500
 20
0.370000
  0
SEQEND
  8
gg1
  0
POLYLINE
  8
gg1
 62
1
 40
0.000000
 41
0.000000
 66
  1
  0
VERTEX
  8
gg1
 10
0.445000
 20
-0.230000
  0
VERTEX
  8
gg1
 10
0.445000
 20
-0.116900
  0
SEQEND
  8
gg1
  0
POLYLINE
  8
gg1
 62
1
 40
0.000000
 41
0.000000
 66
  1
  0
VERTEX
  8
gg1
 10
0.445000
 20
0.224900
  0
VERTEX
  8
gg1
 10
0.445000
 20
0.370000
  0
SEQEND
  8
gg1
  0
POLYLINE
  8
gg1
 62
1
 40
0.000000
 41
0.000000
 66
  1
  0
VERTEX
  8
gg1
 10
0.445000
 20
-0.230000
  0
VERTEX
  8
gg1
 10
0.465000
 20
-0.170000
  0
SEQEND
  8
gg1
  0
POLYLINE
  8
gg1
 62
1
 40
0.000000
 41
0.000000
 66
  1
  0
VERTEX
  8
gg1
 10
0.425000
 20
-0.170000
  0
VERTEX
  8
gg1
 10
0.445000
 20
-0.230000
  0
SEQEND
  8
gg1
  0
POLYLINE
  8
gg1
 62
1
 40
0.000000
 41
0.000000
 66
  1
  0
VERTEX
  8
gg1
 10
0.425000
 20
0.310000
  0
VERTEX
  8
gg1
 10
0.445000
 20
0.370000
  0
VERTEX
  8
gg1
 10
0.465000
 20
0.310000
  0
SEQEND
  8
gg1
  0
POLYLINE
  8
gg1
 62
1
 40
0.000000
 41
0.000000
 66
  1
  0
VERTEX
  8
gg1
 10
1.025000
 20
-0.320000
  0
VERTEX
  8
gg1
 10
1.025000
 20
-0.242500
  0
SEQEND
  8
gg1
  0
POLYLINE
  8
gg1
 62
1
 40
0.000000
 41
0.000000
 66
  1
  0
VERTEX
  8
gg1
 10
0.525000
 20
-0.320000
  0
VERTEX
  8
gg1
 10
0.525000
 20
-0.242500
  0
SEQEND
  8
gg1
  0
POLYLINE
  8
gg1
 62
1
 40
0.000000
 41
0.000000
 66
  1
  0
VERTEX
  8
gg1
 10
0.929900
 20
-0.310000
  0
VERTEX
  8
gg1
 10
1.025000
 20
-0.310000
  0
SEQEND
  8
gg1
  0
POLYLINE
  8
gg1
 62
1
 40
0.000000
 41
0.000000
 66
  1
  0
VERTEX
  8
gg1
 10
0.525000
 20
-0.310000
  0
VERTEX
  8
gg1
 10
0.588100
 20
-0.310000
  0
SEQEND
  8
gg1
  0
POLYLINE
  8
gg1
 62
1
 40
0.000000
 41
0.000000
 66
  1
  0
VERTEX
  8
gg1
 10
0.965000
 20
-0.290000
  0
VERTEX
  8
gg1
 10
1.025000
 20
-0.310000
  0
SEQEND
  8
gg1
  0
POLYLINE
  8
gg1
 62
1
 40
0.000000
 41
0.000000
 66
  1
  0
VERTEX
  8
gg1
 10
0.965000
 20
-0.330000
  0
VERTEX
  8
gg1
 10
1.025000
 20
-0.310000
  0
SEQEND
  8
gg1
  0
POLYLINE
  8
gg1
 62
1
 40
0.000000
 41
0.000000
 66
  1
  0
VERTEX
  8
gg1
 10
0.525000
 20
-0.310000
  0
VERTEX
  8
gg1
 10
0.585000
 20
-0.330000
  0
SEQEND
  8
gg1
  0
POLYLINE
  8
gg1
 62
1
 40
0.000000
 41
0.000000
 66
  1
  0
VERTEX
  8
gg1
 10
0.525000
 20
-0.310000
  0
VERTEX
  8
gg1
 10
0.585000
 20
-0.290000
  0
SEQEND
  8
gg1
  0
POLYLINE
  8
gg1
 62
1
 40
0.000000
 41
0.000000
 66
  1
  0
VERTEX
  8
gg1
 10
0.525000
 20
-0.230000
  0
VERTEX
  8
gg1
 10
1.025000
 20
-0.230000
  0
VERTEX
  8
gg1
 10
1.025000
 20
0.370000
  0
SEQEND
  8
gg1
  0
POLYLINE
  8
gg1
 62
1
 40
0.000000
 41
0.000000
 66
  1
  0
VERTEX
  8
gg1
 10
0.525000
 20
0.370000
  0
VERTEX
  8
gg1
 10
1.025000
 20
0.370000
  0
SEQEND
  8
gg1
  0
POLYLINE
  8
gg1
 62
1
 40
0.000000
 41
0.000000
 66
  1
  0
VERTEX
  8
gg1
 10
0.525000
 20
-0.230000
  0
VERTEX
  8
gg1
 10
0.525000
 20
0.370000
  0
SEQEND
  8
gg1
  0
POLYLINE
  8
gg1
 62
1
 40
0.000000
 41
0.000000
 66
  1
  0
VERTEX
  8
gg1
 10
0.421000
 20
-0.061000
  0
VERTEX
  8
gg1
 10
0.431000
 20
-0.081000
  0
VERTEX
  8
gg1
 10
0.451000
 20
-0.101000
  0
VERTEX
  8
gg1
 10
0.471000
 20
-0.101000
  0
VERTEX
  8
gg1
 10
0.481000
 20
-0.091000
  0
VERTEX
  8
gg1
 10
0.481000
 20
-0.071000
  0
VERTEX
  8
gg1
 10
0.471000
 20
-0.061000
  0
VERTEX
  8
gg1
 10
0.461000
 20
-0.061000
  0
VERTEX
  8
gg1
 10
0.451000
 20
-0.071000
  0
VERTEX
  8
gg1
 10
0.451000
 20
-0.101000
  0
SEQEND
  8
gg1
  0
POLYLINE
  8
gg1
 62
1
 40
0.000000
 41
0.000000
 66
  1
  0
VERTEX
  8
gg1
 10
0.431000
 20
-0.041000
  0
VERTEX
  8
gg1
 10
0.421000
 20
-0.031000
  0
VERTEX
  8
gg1
 10
0.421000
 20
-0.011000
  0
VERTEX
  8
gg1
 10
0.431000
 20
-0.001000
  0
VERTEX
  8
gg1
 10
0.471000
 20
-0.001000
  0
VERTEX
  8
gg1
 10
0.481000
 20
-0.011000
  0
VERTEX
  8
gg1
 10
0.481000
 20
-0.031000
  0
VERTEX
  8
gg1
 10
0.471000
 20
-0.041000
  0
VERTEX
  8
gg1
 10
0.431000
 20
-0.041000
  0
SEQEND
  8
gg1
  0
POLYLINE
  8
gg1
 62
1
 40
0.000000
 41
0.000000
 66
  1
  0
VERTEX
  8
gg1
 10
0.431000
 20
0.019000
  0
VERTEX
  8
gg1
 10
0.421000
 20
0.029000
  0
VERTEX
  8
gg1
 10
0.421000
 20
0.049000
  0
VERTEX
  8
gg1
 10
0.431000
 20
0.059000
  0
VERTEX
  8
gg1
 10
0.471000
 20
0.059000
  0
VERTEX
  8
gg1
 10
0.481000
 20
0.049000
  0
VERTEX
  8
gg1
 10
0.481000
 20
0.029000
  0
VERTEX
  8
gg1
 10
0.471000
 20
0.019000
  0
VERTEX
  8
gg1
 10
0.431000
 20
0.019000
  0
SEQEND
  8
gg1
  0
POLYLINE
  8
gg1
 62
1
 40
0.000000
 41
0.000000
 66
  1
  0
VERTEX
  8
gg1
 10
0.481000
 20
0.079000
  0
VERTEX
  8
gg1
 10
0.441000
 20
0.079000
  0
VERTEX
  8
gg1
 10
0.441000
 20
0.089000
  0
VERTEX
  8
gg1
 10
0.451000
 20
0.099000
  0
VERTEX
  8
gg1
 10
0.481000
 20
0.099000
  0
VERTEX
  8
gg1
 10
0.451000
 20
0.099000
  0
VERTEX
  8
gg1
 10
0.441000
 20
0.109000
  0
VERTEX
  8
gg1
 10
0.451000
 20
0.119000
  0
VERTEX
  8
gg1
 10
0.481000
 20
0.119000
  0
SEQEND
  8
gg1
  0
POLYLINE
  8
gg1
 62
1
 40
0.000000
 41
0.000000
 66
  1
  0
VERTEX
  8
gg1
 10
0.481000
 20
0.139000
  0
VERTEX
  8
gg1
 10
0.481000
 20
0.159000
  0
VERTEX
  8
gg1
 10
0.481000
 20
0.149000
  0
VERTEX
  8
gg1
 10
0.441000
 20
0.149000
  0
VERTEX
  8
gg1
 10
0.441000
 20
0.139000
  0
SEQEND
  8
gg1
  0
POLYLINE
  8
gg1
 62
1
 40
0.000000
 41
0.000000
 66
  1
  0
VERTEX
  8
gg1
 10
0.481000
 20
0.189000
  0
VERTEX
  8
gg1
 10
0.481000
 20
0.208900
  0
VERTEX
  8
gg1
 10
0.481000
 20
0.199000
  0
VERTEX
  8
gg1
 10
0.421000
 20
0.199000
  0
VERTEX
  8
gg1
 10
0.421000
 20
0.189000
  0
SEQEND
  8
gg1
  0
POLYLINE
  8
gg1
 62
1
 40
0.000000
 41
0.000000
 66
  1
  0
VERTEX
  8
gg1
 10
0.644000
 20
-0.286000
  0
VERTEX
  8
gg1
 10
0.604000
 20
-0.286000
  0
VERTEX
  8
gg1
 10
0.604000
 20
-0.316000
  0
VERTEX
  8
gg1
 10
0.624000
 20
-0.306000
  0
VERTEX
  8
gg1
 10
0.634000
 20
-0.306000
  0
VERTEX
  8
gg1
 10
0.644000
 20
-0.316000
  0
VERTEX
  8
gg1
 10
0.644000
 20
-0.336000
  0
VERTEX
  8
gg1
 10
0.634000
 20
-0.346000
  0
VERTEX
  8
gg1
 10
0.614000
 20
-0.346000
  0
VERTEX
  8
gg1
 10
0.604000
 20
-0.336000
  0
SEQEND
  8
gg1
  0
POLYLINE
  8
gg1
 62
1
 40
0.000000
 41
0.000000
 66
  1
  0
VERTEX
  8
gg1
 10
0.664000
 20
-0.296000
  0
VERTEX
  8
gg1
 10
0.674000
 20
-0.286000
  0
VERTEX
  8
gg1
 10
0.694000
 20
-0.286000
  0
VERTEX
  8
gg1
 10
0.704000
 20
-0.296000
  0
VERTEX
  8
gg1
 10
0.704000
 20
-0.336000
  0
VERTEX
  8
gg1
 10
0.694000
 20
-0.346000
  0
VERTEX
  8
gg1
 10
0.674000
 20
-0.346000
  0
VERTEX
  8
gg1
 10
0.664000
 20
-0.336000
  0
VERTEX
  8
gg1
 10
0.664000
 20
-0.296000
  0
SEQEND
  8
gg1
  0
POLYLINE
  8
gg1
 62
1
 40
0.000000
 41
0.000000
 66
  1
  0
VERTEX
  8
gg1
 10
0.724000
 20
-0.296000
  0
VERTEX
  8
gg1
 10
0.734000
 20
-0.286000
  0
VERTEX
  8
gg1
 10
0.754000
 20
-0.286000
  0
VERTEX
  8
gg1
 10
0.764000
 20
-0.296000
  0
VERTEX
  8
gg1
 10
0.764000
 20
-0.336000
  0
VERTEX
  8
gg1
 10
0.754000
 20
-0.346000
  0
VERTEX
  8
gg1
 10
0.734000
 20
-0.346000
  0
VERTEX
  8
gg1
 10
0.724000
 20
-0.336000
  0
VERTEX
  8
gg1
 10
0.724000
 20
-0.296000
  0
SEQEND
  8
gg1
  0
POLYLINE
  8
gg1
 62
1
 40
0.000000
 41
0.000000
 66
  1
  0
VERTEX
  8
gg1
 10
0.784000
 20
-0.346000
  0
VERTEX
  8
gg1
 10
0.784000
 20
-0.306000
  0
VERTEX
  8
gg1
 10
0.794000
 20
-0.306000
  0
VERTEX
  8
gg1
 10
0.804000
 20
-0.316000
  0
VERTEX
  8
gg1
 10
0.804000
 20
-0.346000
  0
VERTEX
  8
gg1
 10
0.804000
 20
-0.316000
  0
VERTEX
  8
gg1
 10
0.814000
 20
-0.306000
  0
VERTEX
  8
gg1
 10
0.824000
 20
-0.316000
  0
VERTEX
  8
gg1
 10
0.824000
 20
-0.346000
  0
SEQEND
  8
gg1
  0
POLYLINE
  8
gg1
 62
1
 40
0.000000
 41
0.000000
 66
  1
  0
VERTEX
  8
gg1
 10
0.844000
 20
-0.346000
  0
VERTEX
  8
gg1
 10
0.864000
 20
-0.346000
  0
VERTEX
  8
gg1
 10
0.854000
 20
-0.346000
  0
VERTEX
  8
gg1
 10
0.854000
 20
-0.306000
  0
VERTEX
  8
gg1
 10
0.844000
 20
-0.306000
  0
SEQEND
  8
gg1
  0
POLYLINE
  8
gg1
 62
1
 40
0.000000
 41
0.000000
 66
  1
  0
VERTEX
  8
gg1
 10
0.894000
 20
-0.346000
  0
VERTEX
  8
gg1
 10
0.913900
 20
-0.346000
  0
VERTEX
  8
gg1
 10
0.904000
 20
-0.346000
  0
VERTEX
  8
gg1
 10
0.904000
 20
-0.286000
  0
VERTEX
  8
gg1
 10
0.894000
 20
-0.286000
  0
SEQEND
  8
gg1
  0
POLYLINE
  8
gg1
 62
1
 40
0.000000
 41
0.000000
 66
  1
  0
VERTEX
  8
gg1
 10
0.725000
 20
-0.180000
  0
VERTEX
  8
gg1
 10
0.745000
 20
-0.180000
  0
SEQEND
  8
gg1
  0
POLYLINE
  8
gg1
 62
1
 40
0.000000
 41
0.000000
 66
  1
  0
VERTEX
  8
gg1
 10
0.735000
 20
-0.190000
  0
VERTEX
  8
gg1
 10
0.735000
 20
-0.170000
  0
SEQEND
  8
gg1
  0
POLYLINE
  8
gg1
 62
1
 40
0.000000
 41
0.000000
 66
  1
  0
VERTEX
  8
gg1
 10
0.555000
 20
-0.080000
  0
VERTEX
  8
gg1
 10
0.595000
 20
-0.080000
  0
SEQEND
  8
gg1
  0
POLYLINE
  8
gg1
 62
1
 40
0.000000
 41
0.000000
 66
  1
  0
VERTEX
  8
gg1
 10
0.575000
 20
-0.100000
  0
VERTEX
  8
gg1
 10
0.575000
 20
-0.060000
  0
SEQEND
  8
gg1
  0
POLYLINE
  8
gg1
 62
1
 40
0.000000
 41
0.000000
 66
  1
  0
VERTEX
  8
gg1
 10
0.555000
 20
0.020000
  0
VERTEX
  8
gg1
 10
0.595000
 20
0.020000
  0
SEQEND
  8
gg1
  0
POLYLINE
  8
gg1
 62
1
 40
0.000000
 41
0.000000
 66
  1
  0
VERTEX
  8
gg1
 10
0.575000
 20
0.000000
  0
VERTEX
  8
gg1
 10
0.575000
 20
0.040000
  0
SEQEND
  8
gg1
  0
POLYLINE
  8
gg1
 62
1
 40
0.000000
 41
0.000000
 66
  1
  0
VERTEX
  8
gg1
 10
0.555000
 20
0.120000
  0
VERTEX
  8
gg1
 10
0.595000
 20
0.120000
  0
SEQEND
  8
gg1
  0
POLYLINE
  8
gg1
 62
1
 40
0.000000
 41
0.000000
 66
  1
  0
VERTEX
  8
gg1
 10
0.575000
 20
0.100000
  0
VERTEX
  8
gg1
 10
0.575000
 20
0.140000
  0
SEQEND
  8
gg1
  0
POLYLINE
  8
gg1
 62
1
 40
0.000000
 41
0.000000
 66
  1
  0
VERTEX
  8
gg1
 10
0.555000
 20
0.220000
  0
VERTEX
  8
gg1
 10
0.595000
 20
0.220000
  0
SEQEND
  8
gg1
  0
POLYLINE
  8
gg1
 62
1
 40
0.000000
 41
0.000000
 66
  1
  0
VERTEX
  8
gg1
 10
0.575000
 20
0.200000
  0
VERTEX
  8
gg1
 10
0.575000
 20
0.240000
  0
SEQEND
  8
gg1
  0
POLYLINE
  8
gg1
 62
1
 40
0.000000
 41
0.000000
 66
  1
  0
VERTEX
  8
gg1
 10
0.555000
 20
0.320000
  0
VERTEX
  8
gg1
 10
0.595000
 20
0.320000
  0
SEQEND
  8
gg1
  0
POLYLINE
  8
gg1
 62
1
 40
0.000000
 41
0.000000
 66
  1
  0
VERTEX
  8
gg1
 10
0.575000
 20
0.300000
  0
VERTEX
  8
gg1
 10
0.575000
 20
0.340000
  0
SEQEND
  8
gg1
  0
POLYLINE
  8
gg1
 62
1
 40
0.000000
 41
0.000000
 66
  1
  0
VERTEX
  8
gg1
 10
0.555000
 20
-0.180000
  0
VERTEX
  8
gg1
 10
0.595000
 20
-0.180000
  0
SEQEND
  8
gg1
  0
POLYLINE
  8
gg1
 62
1
 40
0.000000
 41
0.000000
 66
  1
  0
VERTEX
  8
gg1
 10
0.575000
 20
-0.200000
  0
VERTEX
  8
gg1
 10
0.575000
 20
-0.160000
  0
SEQEND
  8
gg1
  0
POLYLINE
  8
gg1
 62
1
 40
0.000000
 41
0.000000
 66
  1
  0
VERTEX
  8
gg1
 10
0.955000
 20
-0.080000
  0
VERTEX
  8
gg1
 10
0.995000
 20
-0.080000
  0
SEQEND
  8
gg1
  0
POLYLINE
  8
gg1
 62
1
 40
0.000000
 41
0.000000
 66
  1
  0
VERTEX
  8
gg1
 10
0.975000
 20
-0.100000
  0
VERTEX
  8
gg1
 10
0.975000
 20
-0.060000
  0
SEQEND
  8
gg1
  0
POLYLINE
  8
gg1
 62
1
 40
0.000000
 41
0.000000
 66
  1
  0
VERTEX
  8
gg1
 10
0.955000
 20
0.020000
  0
VERTEX
  8
gg1
 10
0.995000
 20
0.020000
  0
SEQEND
  8
gg1
  0
POLYLINE
  8
gg1
 62
1
 40
0.000000
 41
0.000000
 66
  1
  0
VERTEX
  8
gg1
 10
0.975000
 20
0.000000
  0
VERTEX
  8
gg1
 10
0.975000
 20
0.040000
  0
SEQEND
  8
gg1
  0
POLYLINE
  8
gg1
 62
1
 40
0.000000
 41
0.000000
 66
  1
  0
VERTEX
  8
gg1
 10
0.955000
 20
0.120000
  0
VERTEX
  8
gg1
 10
0.995000
 20
0.120000
  0
SEQEND
  8
gg1
  0
POLYLINE
  8
gg1
 62
1
 40
0.000000
 41
0.000000
 66
  1
  0
VERTEX
  8
gg1
 10
0.975000
 20
0.100000
  0
VERTEX
  8
gg1
 10
0.975000
 20
0.140000
  0
SEQEND
  8
gg1
  0
POLYLINE
  8
gg1
 62
1
 40
0.000000
 41
0.000000
 66
  1
  0
VERTEX
  8
gg1
 10
0.955000
 20
0.220000
  0
VERTEX
  8
gg1
 10
0.995000
 20
0.220000
  0
SEQEND
  8
gg1
  0
POLYLINE
  8
gg1
 62
1
 40
0.000000
 41
0.000000
 66
  1
  0
VERTEX
  8
gg1
 10
0.975000
 20
0.200000
  0
VERTEX
  8
gg1
 10
0.975000
 20
0.240000
  0
SEQEND
  8
gg1
  0
POLYLINE
  8
gg1
 62
1
 40
0.000000
 41
0.000000
 66
  1
  0
VERTEX
  8
gg1
 10
0.955000
 20
0.320000
  0
VERTEX
  8
gg1
 10
0.995000
 20
0.320000
  0
SEQEND
  8
gg1
  0
POLYLINE
  8
gg1
 62
1
 40
0.000000
 41
0.000000
 66
  1
  0
VERTEX
  8
gg1
 10
0.975000
 20
0.300000
  0
VERTEX
  8
gg1
 10
0.975000
 20
0.340000
  0
SEQEND
  8
gg1
  0
POLYLINE
  8
gg1
 62
1
 40
0.000000
 41
0.000000
 66
  1
  0
VERTEX
  8
gg1
 10
0.955000
 20
-0.180000
  0
VERTEX
  8
gg1
 10
0.995000
 20
-0.180000
  0
SEQEND
  8
gg1
  0
POLYLINE
  8
gg1
 62
1
 40
0.000000
 41
0.000000
 66
  1
  0
VERTEX
  8
gg1
 10
0.975000
 20
-0.200000
  0
VERTEX
  8
gg1
 10
0.975000
 20
-0.160000
  0
SEQEND
  8
gg1
  0
POLYLINE
  8
gg1
 62
1
 40
0.000000
 41
0.000000
 66
  1
  0
VERTEX
  8
gg1
 10
0.742000
 20
0.289800
  0
VERTEX
  8
gg1
 10
0.762000
 20
0.289800
  0
SEQEND
  8
gg1
  0
POLYLINE
  8
gg1
 62
1
 40
0.000000
 41
0.000000
 66
  1
  0
VERTEX
  8
gg1
 10
0.752000
 20
0.279800
  0
VERTEX
  8
gg1
 10
0.752000
 20
0.299800
  0
SEQEND
  8
gg1
  0
ENDSEC
  0
EOF
