  0
SECTION
  2
HEADER
  9
$EXTMIN
 10
0.315000
 20
-0.142000
  9
$EXTMAX
 10
0.765000
 20
0.605000
  9
$LIMMIN
 10
0.315000
 20
-0.142000
  9
$LIMMAX
 10
0.765000
 20
0.605000
  9
$FILLMODE
 70
  1
  0
ENDSEC
  0
SECTION
  2
TABLES
  0
TABLE
  2
LTYPE
 70
  1
  0
LTYPE
  2
CONTINUOUS
 70
 64
  3
Solid line
 72
 65
 73
  0
 40
0.0
  0
ENDTAB
  0
TABLE
  2
LAYER
 70
 1
  0
LAYER
  2
0
 70
  0
 62
7
  6
CONTINUOUS
  0
LAYER
  2
gg1
 70
  0
 62
1
  6
CONTINUOUS
  0
ENDTAB
  0
TABLE
  2
STYLE
 70
  1
  0
STYLE
  2
STANDARD
 70
  0
 40
0.0
 41
1.0
 50
0.0
 71
  0
 42
0.2
  3
txt
  4

  0
ENDTAB
  0
ENDSEC
  0
SECTION
  2
BLOCKS
  0
BLOCK
  8
0
  2
D10
 70
64
 10
0.0
 20
0.0
  3
D10
  0
CIRCLE
  8
0
 10
0.000000
 20
0.000000
 40
0.002500
 0
ENDBLK
  8
0
  0
BLOCK
  8
0
  2
D11
 70
64
 10
0.0
 20
0.0
  3
D11
  0
CIRCLE
  8
0
 10
0.000000
 20
0.000000
 40
0.005000
 0
ENDBLK
  8
0
  0
BLOCK
  8
0
  2
D12
 70
64
 10
0.0
 20
0.0
  3
D12
  0
CIRCLE
  8
0
 10
0.000000
 20
0.000000
 40
0.003000
 0
ENDBLK
  8
0
  0
BLOCK
  8
0
  2
D13
 70
64
 10
0.0
 20
0.0
  3
D13
  0
CIRCLE
  8
0
 10
0.000000
 20
0.000000
 40
0.001000
 0
ENDBLK
  8
0
  0
ENDSEC
  0
SECTION
  2
ENTITIES
  0
POLYLINE
  8
gg1
 62
1
 40
0.000000
 41
0.000000
 66
  1
  0
VERTEX
  8
gg1
 10
0.440000
 20
0.085000
  0
VERTEX
  8
gg1
 10
0.440000
 20
0.600000
  0
VERTEX
  8
gg1
 10
0.760000
 20
0.600000
  0
SEQEND
  8
gg1
  0
POLYLINE
  8
gg1
 62
1
 40
0.000000
 41
0.000000
 66
  1
  0
VERTEX
  8
gg1
 10
0.760000
 20
0.085000
  0
VERTEX
  8
gg1
 10
0.760000
 20
0.600000
  0
SEQEND
  8
gg1
  0
POLYLINE
  8
gg1
 62
1
 40
0.000000
 41
0.000000
 66
  1
  0
VERTEX
  8
gg1
 10
0.440000
 20
0.085000
  0
VERTEX
  8
gg1
 10
0.760000
 20
0.085000
  0
SEQEND
  8
gg1
  0
POLYLINE
  8
gg1
 62
1
 40
0.000000
 41
0.000000
 66
  1
  0
VERTEX
  8
gg1
 10
0.340000
 20
0.600000
  0
VERTEX
  8
gg1
 10
0.360000
 20
0.540000
  0
SEQEND
  8
gg1
  0
POLYLINE
  8
gg1
 62
1
 40
0.000000
 41
0.000000
 66
  1
  0
VERTEX
  8
gg1
 10
0.320000
 20
0.540000
  0
VERTEX
  8
gg1
 10
0.340000
 20
0.600000
  0
SEQEND
  8
gg1
  0
POLYLINE
  8
gg1
 62
1
 40
0.000000
 41
0.000000
 66
  1
  0
VERTEX
  8
gg1
 10
0.320000
 20
0.145000
  0
VERTEX
  8
gg1
 10
0.340000
 20
0.085000
  0
VERTEX
  8
gg1
 10
0.360000
 20
0.145000
  0
SEQEND
  8
gg1
  0
POLYLINE
  8
gg1
 62
1
 40
0.000000
 41
0.000000
 66
  1
  0
VERTEX
  8
gg1
 10
0.340000
 20
0.467500
  0
VERTEX
  8
gg1
 10
0.340000
 20
0.600000
  0
SEQEND
  8
gg1
  0
POLYLINE
  8
gg1
 62
1
 40
0.000000
 41
0.000000
 66
  1
  0
VERTEX
  8
gg1
 10
0.340000
 20
0.085000
  0
VERTEX
  8
gg1
 10
0.340000
 20
0.185500
  0
SEQEND
  8
gg1
  0
POLYLINE
  8
gg1
 62
1
 40
0.000000
 41
0.000000
 66
  1
  0
VERTEX
  8
gg1
 10
0.330000
 20
0.600000
  0
VERTEX
  8
gg1
 10
0.427500
 20
0.600000
  0
SEQEND
  8
gg1
  0
POLYLINE
  8
gg1
 62
1
 40
0.000000
 41
0.000000
 66
  1
  0
VERTEX
  8
gg1
 10
0.330000
 20
0.085000
  0
VERTEX
  8
gg1
 10
0.427500
 20
0.085000
  0
SEQEND
  8
gg1
  0
POLYLINE
  8
gg1
 62
1
 40
0.000000
 41
0.000000
 66
  1
  0
VERTEX
  8
gg1
 10
0.440000
 20
-0.015000
  0
VERTEX
  8
gg1
 10
0.500000
 20
0.005000
  0
SEQEND
  8
gg1
  0
POLYLINE
  8
gg1
 62
1
 40
0.000000
 41
0.000000
 66
  1
  0
VERTEX
  8
gg1
 10
0.440000
 20
-0.015000
  0
VERTEX
  8
gg1
 10
0.500000
 20
-0.035000
  0
SEQEND
  8
gg1
  0
POLYLINE
  8
gg1
 62
1
 40
0.000000
 41
0.000000
 66
  1
  0
VERTEX
  8
gg1
 10
0.700000
 20
-0.035000
  0
VERTEX
  8
gg1
 10
0.760000
 20
-0.015000
  0
SEQEND
  8
gg1
  0
POLYLINE
  8
gg1
 62
1
 40
0.000000
 41
0.000000
 66
  1
  0
VERTEX
  8
gg1
 10
0.700000
 20
0.005000
  0
VERTEX
  8
gg1
 10
0.760000
 20
-0.015000
  0
SEQEND
  8
gg1
  0
POLYLINE
  8
gg1
 62
1
 40
0.000000
 41
0.000000
 66
  1
  0
VERTEX
  8
gg1
 10
0.440000
 20
-0.015000
  0
VERTEX
  8
gg1
 10
0.600000
 20
-0.015000
  0
VERTEX
  8
gg1
 10
0.760000
 20
-0.015000
  0
SEQEND
  8
gg1
  0
POLYLINE
  8
gg1
 62
1
 40
0.000000
 41
0.000000
 66
  1
  0
VERTEX
  8
gg1
 10
0.440000
 20
-0.025000
  0
VERTEX
  8
gg1
 10
0.440000
 20
0.072500
  0
SEQEND
  8
gg1
  0
POLYLINE
  8
gg1
 62
1
 40
0.000000
 41
0.000000
 66
  1
  0
VERTEX
  8
gg1
 10
0.760000
 20
-0.025000
  0
VERTEX
  8
gg1
 10
0.760000
 20
0.072500
  0
SEQEND
  8
gg1
  0
POLYLINE
  8
gg1
 62
1
 40
0.000000
 41
0.000000
 66
  1
  0
VERTEX
  8
gg1
 10
0.321000
 20
0.234900
  0
VERTEX
  8
gg1
 10
0.321000
 20
0.201500
  0
VERTEX
  8
gg1
 10
0.346000
 20
0.201500
  0
VERTEX
  8
gg1
 10
0.337700
 20
0.218200
  0
VERTEX
  8
gg1
 10
0.337700
 20
0.226500
  0
VERTEX
  8
gg1
 10
0.346000
 20
0.234900
  0
VERTEX
  8
gg1
 10
0.362700
 20
0.234900
  0
VERTEX
  8
gg1
 10
0.371000
 20
0.226500
  0
VERTEX
  8
gg1
 10
0.371000
 20
0.209900
  0
VERTEX
  8
gg1
 10
0.362700
 20
0.201500
  0
SEQEND
  8
gg1
  0
POLYLINE
  8
gg1
 62
1
 40
0.000000
 41
0.000000
 66
  1
  0
VERTEX
  8
gg1
 10
0.371000
 20
0.251500
  0
VERTEX
  8
gg1
 10
0.371000
 20
0.268200
  0
VERTEX
  8
gg1
 10
0.371000
 20
0.259900
  0
VERTEX
  8
gg1
 10
0.321000
 20
0.259900
  0
VERTEX
  8
gg1
 10
0.329300
 20
0.251500
  0
SEQEND
  8
gg1
  0
POLYLINE
  8
gg1
 62
1
 40
0.000000
 41
0.000000
 66
  1
  0
VERTEX
  8
gg1
 10
0.321000
 20
0.326500
  0
VERTEX
  8
gg1
 10
0.321000
 20
0.293200
  0
VERTEX
  8
gg1
 10
0.346000
 20
0.293200
  0
VERTEX
  8
gg1
 10
0.337700
 20
0.309800
  0
VERTEX
  8
gg1
 10
0.337700
 20
0.318200
  0
VERTEX
  8
gg1
 10
0.346000
 20
0.326500
  0
VERTEX
  8
gg1
 10
0.362700
 20
0.326500
  0
VERTEX
  8
gg1
 10
0.371000
 20
0.318200
  0
VERTEX
  8
gg1
 10
0.371000
 20
0.301500
  0
VERTEX
  8
gg1
 10
0.362700
 20
0.293200
  0
SEQEND
  8
gg1
  0
POLYLINE
  8
gg1
 62
1
 40
0.000000
 41
0.000000
 66
  1
  0
VERTEX
  8
gg1
 10
0.371000
 20
0.343200
  0
VERTEX
  8
gg1
 10
0.337700
 20
0.343200
  0
VERTEX
  8
gg1
 10
0.337700
 20
0.351500
  0
VERTEX
  8
gg1
 10
0.346000
 20
0.359800
  0
VERTEX
  8
gg1
 10
0.371000
 20
0.359800
  0
VERTEX
  8
gg1
 10
0.346000
 20
0.359800
  0
VERTEX
  8
gg1
 10
0.337700
 20
0.368200
  0
VERTEX
  8
gg1
 10
0.346000
 20
0.376500
  0
VERTEX
  8
gg1
 10
0.371000
 20
0.376500
  0
SEQEND
  8
gg1
  0
POLYLINE
  8
gg1
 62
1
 40
0.000000
 41
0.000000
 66
  1
  0
VERTEX
  8
gg1
 10
0.371000
 20
0.393100
  0
VERTEX
  8
gg1
 10
0.371000
 20
0.409800
  0
VERTEX
  8
gg1
 10
0.371000
 20
0.401500
  0
VERTEX
  8
gg1
 10
0.337700
 20
0.401500
  0
VERTEX
  8
gg1
 10
0.337700
 20
0.393100
  0
SEQEND
  8
gg1
  0
POLYLINE
  8
gg1
 62
1
 40
0.000000
 41
0.000000
 66
  1
  0
VERTEX
  8
gg1
 10
0.371000
 20
0.434800
  0
VERTEX
  8
gg1
 10
0.371000
 20
0.451500
  0
VERTEX
  8
gg1
 10
0.371000
 20
0.443100
  0
VERTEX
  8
gg1
 10
0.321000
 20
0.443100
  0
VERTEX
  8
gg1
 10
0.321000
 20
0.434800
  0
SEQEND
  8
gg1
  0
POLYLINE
  8
gg1
 62
1
 40
0.000000
 41
0.000000
 66
  1
  0
VERTEX
  8
gg1
 10
0.454900
 20
-0.097300
  0
VERTEX
  8
gg1
 10
0.463200
 20
-0.089000
  0
VERTEX
  8
gg1
 10
0.479900
 20
-0.089000
  0
VERTEX
  8
gg1
 10
0.488200
 20
-0.097300
  0
VERTEX
  8
gg1
 10
0.488200
 20
-0.105600
  0
VERTEX
  8
gg1
 10
0.479900
 20
-0.114000
  0
VERTEX
  8
gg1
 10
0.471500
 20
-0.114000
  0
VERTEX
  8
gg1
 10
0.479900
 20
-0.114000
  0
VERTEX
  8
gg1
 10
0.488200
 20
-0.122300
  0
VERTEX
  8
gg1
 10
0.488200
 20
-0.130600
  0
VERTEX
  8
gg1
 10
0.479900
 20
-0.139000
  0
VERTEX
  8
gg1
 10
0.463200
 20
-0.139000
  0
VERTEX
  8
gg1
 10
0.454900
 20
-0.130600
  0
SEQEND
  8
gg1
  0
POLYLINE
  8
gg1
 62
1
 40
0.000000
 41
0.000000
 66
  1
  0
VERTEX
  8
gg1
 10
0.538200
 20
-0.139000
  0
VERTEX
  8
gg1
 10
0.504900
 20
-0.139000
  0
VERTEX
  8
gg1
 10
0.538200
 20
-0.105600
  0
VERTEX
  8
gg1
 10
0.538200
 20
-0.097300
  0
VERTEX
  8
gg1
 10
0.529900
 20
-0.089000
  0
VERTEX
  8
gg1
 10
0.513200
 20
-0.089000
  0
VERTEX
  8
gg1
 10
0.504900
 20
-0.097300
  0
SEQEND
  8
gg1
  0
POLYLINE
  8
gg1
 62
1
 40
0.000000
 41
0.000000
 66
  1
  0
VERTEX
  8
gg1
 10
0.554800
 20
-0.097300
  0
VERTEX
  8
gg1
 10
0.563200
 20
-0.089000
  0
VERTEX
  8
gg1
 10
0.579800
 20
-0.089000
  0
VERTEX
  8
gg1
 10
0.588200
 20
-0.097300
  0
VERTEX
  8
gg1
 10
0.588200
 20
-0.130600
  0
VERTEX
  8
gg1
 10
0.579800
 20
-0.139000
  0
VERTEX
  8
gg1
 10
0.563200
 20
-0.139000
  0
VERTEX
  8
gg1
 10
0.554800
 20
-0.130600
  0
VERTEX
  8
gg1
 10
0.554800
 20
-0.097300
  0
SEQEND
  8
gg1
  0
POLYLINE
  8
gg1
 62
1
 40
0.000000
 41
0.000000
 66
  1
  0
VERTEX
  8
gg1
 10
0.604800
 20
-0.139000
  0
VERTEX
  8
gg1
 10
0.604800
 20
-0.105600
  0
VERTEX
  8
gg1
 10
0.613200
 20
-0.105600
  0
VERTEX
  8
gg1
 10
0.621500
 20
-0.114000
  0
VERTEX
  8
gg1
 10
0.621500
 20
-0.139000
  0
VERTEX
  8
gg1
 10
0.621500
 20
-0.114000
  0
VERTEX
  8
gg1
 10
0.629800
 20
-0.105600
  0
VERTEX
  8
gg1
 10
0.638100
 20
-0.114000
  0
VERTEX
  8
gg1
 10
0.638100
 20
-0.139000
  0
SEQEND
  8
gg1
  0
POLYLINE
  8
gg1
 62
1
 40
0.000000
 41
0.000000
 66
  1
  0
VERTEX
  8
gg1
 10
0.654800
 20
-0.139000
  0
VERTEX
  8
gg1
 10
0.671500
 20
-0.139000
  0
VERTEX
  8
gg1
 10
0.663100
 20
-0.139000
  0
VERTEX
  8
gg1
 10
0.663100
 20
-0.105600
  0
VERTEX
  8
gg1
 10
0.654800
 20
-0.105600
  0
SEQEND
  8
gg1
  0
POLYLINE
  8
gg1
 62
1
 40
0.000000
 41
0.000000
 66
  1
  0
VERTEX
  8
gg1
 10
0.696500
 20
-0.139000
  0
VERTEX
  8
gg1
 10
0.713100
 20
-0.139000
  0
VERTEX
  8
gg1
 10
0.704800
 20
-0.139000
  0
VERTEX
  8
gg1
 10
0.704800
 20
-0.089000
  0
VERTEX
  8
gg1
 10
0.696500
 20
-0.089000
  0
SEQEND
  8
gg1
  0
POLYLINE
  8
gg1
 62
1
 40
0.000000
 41
0.000000
 66
  1
  0
VERTEX
  8
gg1
 10
0.680000
 20
0.135000
  0
VERTEX
  8
gg1
 10
0.720000
 20
0.135000
  0
SEQEND
  8
gg1
  0
POLYLINE
  8
gg1
 62
1
 40
0.000000
 41
0.000000
 66
  1
  0
VERTEX
  8
gg1
 10
0.700000
 20
0.115000
  0
VERTEX
  8
gg1
 10
0.700000
 20
0.155000
  0
SEQEND
  8
gg1
  0
POLYLINE
  8
gg1
 62
1
 40
0.000000
 41
0.000000
 66
  1
  0
VERTEX
  8
gg1
 10
0.580000
 20
0.135000
  0
VERTEX
  8
gg1
 10
0.620000
 20
0.135000
  0
SEQEND
  8
gg1
  0
POLYLINE
  8
gg1
 62
1
 40
0.000000
 41
0.000000
 66
  1
  0
VERTEX
  8
gg1
 10
0.600000
 20
0.115000
  0
VERTEX
  8
gg1
 10
0.600000
 20
0.155000
  0
SEQEND
  8
gg1
  0
POLYLINE
  8
gg1
 62
1
 40
0.000000
 41
0.000000
 66
  1
  0
VERTEX
  8
gg1
 10
0.480000
 20
0.135000
  0
VERTEX
  8
gg1
 10
0.520000
 20
0.135000
  0
SEQEND
  8
gg1
  0
POLYLINE
  8
gg1
 62
1
 40
0.000000
 41
0.000000
 66
  1
  0
VERTEX
  8
gg1
 10
0.500000
 20
0.115000
  0
VERTEX
  8
gg1
 10
0.500000
 20
0.155000
  0
SEQEND
  8
gg1
  0
ENDSEC
  0
EOF
