  0
SECTION
  2
HEADER
  9
$EXTMIN
 10
0.463000
 20
-0.169000
  9
$EXTMAX
 10
1.180000
 20
0.760000
  9
$LIMMIN
 10
0.463000
 20
-0.169000
  9
$LIMMAX
 10
1.180000
 20
0.760000
  9
$FILLMODE
 70
  1
  0
ENDSEC
  0
SECTION
  2
TABLES
  0
TABLE
  2
LTYPE
 70
  1
  0
LTYPE
  2
CONTINUOUS
 70
 64
  3
Solid line
 72
 65
 73
  0
 40
0.0
  0
ENDTAB
  0
TABLE
  2
LAYER
 70
 1
  0
LAYER
  2
0
 70
  0
 62
7
  6
CONTINUOUS
  0
LAYER
  2
gg1
 70
  0
 62
1
  6
CONTINUOUS
  0
ENDTAB
  0
TABLE
  2
STYLE
 70
  1
  0
STYLE
  2
STANDARD
 70
  0
 40
0.0
 41
1.0
 50
0.0
 71
  0
 42
0.2
  3
txt
  4

  0
ENDTAB
  0
ENDSEC
  0
SECTION
  2
BLOCKS
  0
BLOCK
  8
0
  2
D10
 70
64
 10
0.0
 20
0.0
  3
D10
  0
CIRCLE
  8
0
 10
0.000000
 20
0.000000
 40
0.005000
 0
ENDBLK
  8
0
  0
BLOCK
  8
0
  2
D11
 70
64
 10
0.0
 20
0.0
  3
D11
  0
CIRCLE
  8
0
 10
0.000000
 20
0.000000
 40
0.002500
 0
ENDBLK
  8
0
  0
BLOCK
  8
0
  2
D12
 70
64
 10
0.0
 20
0.0
  3
D12
  0
CIRCLE
  8
0
 10
0.000000
 20
0.000000
 40
0.003000
 0
ENDBLK
  8
0
  0
BLOCK
  8
0
  2
D13
 70
64
 10
0.0
 20
0.0
  3
D13
  0
CIRCLE
  8
0
 10
0.000000
 20
0.000000
 40
0.001000
 0
ENDBLK
  8
0
  0
ENDSEC
  0
SECTION
  2
ENTITIES
  0
POLYLINE
  8
gg1
 62
1
 40
0.000000
 41
0.000000
 66
  1
  0
VERTEX
  8
gg1
 10
1.175000
 20
-0.140000
  0
VERTEX
  8
gg1
 10
1.175000
 20
-0.057500
  0
SEQEND
  8
gg1
  0
POLYLINE
  8
gg1
 62
1
 40
0.000000
 41
0.000000
 66
  1
  0
VERTEX
  8
gg1
 10
0.575000
 20
-0.140000
  0
VERTEX
  8
gg1
 10
0.575000
 20
-0.057500
  0
SEQEND
  8
gg1
  0
POLYLINE
  8
gg1
 62
1
 40
0.000000
 41
0.000000
 66
  1
  0
VERTEX
  8
gg1
 10
1.029900
 20
-0.130000
  0
VERTEX
  8
gg1
 10
1.175000
 20
-0.130000
  0
SEQEND
  8
gg1
  0
POLYLINE
  8
gg1
 62
1
 40
0.000000
 41
0.000000
 66
  1
  0
VERTEX
  8
gg1
 10
0.575000
 20
-0.130000
  0
VERTEX
  8
gg1
 10
0.688000
 20
-0.130000
  0
SEQEND
  8
gg1
  0
POLYLINE
  8
gg1
 62
1
 40
0.000000
 41
0.000000
 66
  1
  0
VERTEX
  8
gg1
 10
1.115000
 20
-0.110000
  0
VERTEX
  8
gg1
 10
1.175000
 20
-0.130000
  0
SEQEND
  8
gg1
  0
POLYLINE
  8
gg1
 62
1
 40
0.000000
 41
0.000000
 66
  1
  0
VERTEX
  8
gg1
 10
1.115000
 20
-0.150000
  0
VERTEX
  8
gg1
 10
1.175000
 20
-0.130000
  0
SEQEND
  8
gg1
  0
POLYLINE
  8
gg1
 62
1
 40
0.000000
 41
0.000000
 66
  1
  0
VERTEX
  8
gg1
 10
0.575000
 20
-0.130000
  0
VERTEX
  8
gg1
 10
0.635000
 20
-0.150000
  0
SEQEND
  8
gg1
  0
POLYLINE
  8
gg1
 62
1
 40
0.000000
 41
0.000000
 66
  1
  0
VERTEX
  8
gg1
 10
0.575000
 20
-0.130000
  0
VERTEX
  8
gg1
 10
0.635000
 20
-0.110000
  0
SEQEND
  8
gg1
  0
POLYLINE
  8
gg1
 62
1
 40
0.000000
 41
0.000000
 66
  1
  0
VERTEX
  8
gg1
 10
0.480000
 20
0.755000
  0
VERTEX
  8
gg1
 10
0.562500
 20
0.755000
  0
SEQEND
  8
gg1
  0
POLYLINE
  8
gg1
 62
1
 40
0.000000
 41
0.000000
 66
  1
  0
VERTEX
  8
gg1
 10
0.480000
 20
-0.045000
  0
VERTEX
  8
gg1
 10
0.562500
 20
-0.045000
  0
SEQEND
  8
gg1
  0
POLYLINE
  8
gg1
 62
1
 40
0.000000
 41
0.000000
 66
  1
  0
VERTEX
  8
gg1
 10
0.490000
 20
0.509900
  0
VERTEX
  8
gg1
 10
0.490000
 20
0.755000
  0
SEQEND
  8
gg1
  0
POLYLINE
  8
gg1
 62
1
 40
0.000000
 41
0.000000
 66
  1
  0
VERTEX
  8
gg1
 10
0.490000
 20
-0.045000
  0
VERTEX
  8
gg1
 10
0.490000
 20
0.168100
  0
SEQEND
  8
gg1
  0
POLYLINE
  8
gg1
 62
1
 40
0.000000
 41
0.000000
 66
  1
  0
VERTEX
  8
gg1
 10
0.470000
 20
0.695000
  0
VERTEX
  8
gg1
 10
0.490000
 20
0.755000
  0
VERTEX
  8
gg1
 10
0.510000
 20
0.695000
  0
SEQEND
  8
gg1
  0
POLYLINE
  8
gg1
 62
1
 40
0.000000
 41
0.000000
 66
  1
  0
VERTEX
  8
gg1
 10
0.490000
 20
-0.045000
  0
VERTEX
  8
gg1
 10
0.510000
 20
0.015000
  0
SEQEND
  8
gg1
  0
POLYLINE
  8
gg1
 62
1
 40
0.000000
 41
0.000000
 66
  1
  0
VERTEX
  8
gg1
 10
0.470000
 20
0.015000
  0
VERTEX
  8
gg1
 10
0.490000
 20
-0.045000
  0
SEQEND
  8
gg1
  0
POLYLINE
  8
gg1
 62
1
 40
0.000000
 41
0.000000
 66
  1
  0
VERTEX
  8
gg1
 10
0.575000
 20
-0.045000
  0
VERTEX
  8
gg1
 10
1.175000
 20
-0.045000
  0
VERTEX
  8
gg1
 10
1.175000
 20
0.755000
  0
SEQEND
  8
gg1
  0
POLYLINE
  8
gg1
 62
1
 40
0.000000
 41
0.000000
 66
  1
  0
VERTEX
  8
gg1
 10
0.575000
 20
0.755000
  0
VERTEX
  8
gg1
 10
1.175000
 20
0.755000
  0
SEQEND
  8
gg1
  0
POLYLINE
  8
gg1
 62
1
 40
0.000000
 41
0.000000
 66
  1
  0
VERTEX
  8
gg1
 10
0.575000
 20
-0.045000
  0
VERTEX
  8
gg1
 10
0.575000
 20
0.755000
  0
SEQEND
  8
gg1
  0
POLYLINE
  8
gg1
 62
1
 40
0.000000
 41
0.000000
 66
  1
  0
VERTEX
  8
gg1
 10
0.744000
 20
-0.106000
  0
VERTEX
  8
gg1
 10
0.724000
 20
-0.116000
  0
VERTEX
  8
gg1
 10
0.704100
 20
-0.136000
  0
VERTEX
  8
gg1
 10
0.704100
 20
-0.156000
  0
VERTEX
  8
gg1
 10
0.714000
 20
-0.166000
  0
VERTEX
  8
gg1
 10
0.734000
 20
-0.166000
  0
VERTEX
  8
gg1
 10
0.744000
 20
-0.156000
  0
VERTEX
  8
gg1
 10
0.744000
 20
-0.146000
  0
VERTEX
  8
gg1
 10
0.734000
 20
-0.136000
  0
VERTEX
  8
gg1
 10
0.704100
 20
-0.136000
  0
SEQEND
  8
gg1
  0
POLYLINE
  8
gg1
 62
1
 40
0.000000
 41
0.000000
 66
  1
  0
VERTEX
  8
gg1
 10
0.764000
 20
-0.116000
  0
VERTEX
  8
gg1
 10
0.774000
 20
-0.106000
  0
VERTEX
  8
gg1
 10
0.794000
 20
-0.106000
  0
VERTEX
  8
gg1
 10
0.804000
 20
-0.116000
  0
VERTEX
  8
gg1
 10
0.804000
 20
-0.156000
  0
VERTEX
  8
gg1
 10
0.794000
 20
-0.166000
  0
VERTEX
  8
gg1
 10
0.774000
 20
-0.166000
  0
VERTEX
  8
gg1
 10
0.764000
 20
-0.156000
  0
VERTEX
  8
gg1
 10
0.764000
 20
-0.116000
  0
SEQEND
  8
gg1
  0
POLYLINE
  8
gg1
 62
1
 40
0.000000
 41
0.000000
 66
  1
  0
VERTEX
  8
gg1
 10
0.824000
 20
-0.116000
  0
VERTEX
  8
gg1
 10
0.834000
 20
-0.106000
  0
VERTEX
  8
gg1
 10
0.854000
 20
-0.106000
  0
VERTEX
  8
gg1
 10
0.864000
 20
-0.116000
  0
VERTEX
  8
gg1
 10
0.864000
 20
-0.156000
  0
VERTEX
  8
gg1
 10
0.854000
 20
-0.166000
  0
VERTEX
  8
gg1
 10
0.834000
 20
-0.166000
  0
VERTEX
  8
gg1
 10
0.824000
 20
-0.156000
  0
VERTEX
  8
gg1
 10
0.824000
 20
-0.116000
  0
SEQEND
  8
gg1
  0
POLYLINE
  8
gg1
 62
1
 40
0.000000
 41
0.000000
 66
  1
  0
VERTEX
  8
gg1
 10
0.884000
 20
-0.166000
  0
VERTEX
  8
gg1
 10
0.884000
 20
-0.126000
  0
VERTEX
  8
gg1
 10
0.894000
 20
-0.126000
  0
VERTEX
  8
gg1
 10
0.904000
 20
-0.136000
  0
VERTEX
  8
gg1
 10
0.904000
 20
-0.166000
  0
VERTEX
  8
gg1
 10
0.904000
 20
-0.136000
  0
VERTEX
  8
gg1
 10
0.914000
 20
-0.126000
  0
VERTEX
  8
gg1
 10
0.924000
 20
-0.136000
  0
VERTEX
  8
gg1
 10
0.924000
 20
-0.166000
  0
SEQEND
  8
gg1
  0
POLYLINE
  8
gg1
 62
1
 40
0.000000
 41
0.000000
 66
  1
  0
VERTEX
  8
gg1
 10
0.944000
 20
-0.166000
  0
VERTEX
  8
gg1
 10
0.964000
 20
-0.166000
  0
VERTEX
  8
gg1
 10
0.954000
 20
-0.166000
  0
VERTEX
  8
gg1
 10
0.954000
 20
-0.126000
  0
VERTEX
  8
gg1
 10
0.944000
 20
-0.126000
  0
SEQEND
  8
gg1
  0
POLYLINE
  8
gg1
 62
1
 40
0.000000
 41
0.000000
 66
  1
  0
VERTEX
  8
gg1
 10
0.994000
 20
-0.166000
  0
VERTEX
  8
gg1
 10
1.013900
 20
-0.166000
  0
VERTEX
  8
gg1
 10
1.004000
 20
-0.166000
  0
VERTEX
  8
gg1
 10
1.004000
 20
-0.106000
  0
VERTEX
  8
gg1
 10
0.994000
 20
-0.106000
  0
SEQEND
  8
gg1
  0
POLYLINE
  8
gg1
 62
1
 40
0.000000
 41
0.000000
 66
  1
  0
VERTEX
  8
gg1
 10
0.476000
 20
0.184000
  0
VERTEX
  8
gg1
 10
0.466000
 20
0.194000
  0
VERTEX
  8
gg1
 10
0.466000
 20
0.214000
  0
VERTEX
  8
gg1
 10
0.476000
 20
0.224000
  0
VERTEX
  8
gg1
 10
0.486000
 20
0.224000
  0
VERTEX
  8
gg1
 10
0.496000
 20
0.214000
  0
VERTEX
  8
gg1
 10
0.506000
 20
0.224000
  0
VERTEX
  8
gg1
 10
0.516000
 20
0.224000
  0
VERTEX
  8
gg1
 10
0.526000
 20
0.214000
  0
VERTEX
  8
gg1
 10
0.526000
 20
0.194000
  0
VERTEX
  8
gg1
 10
0.516000
 20
0.184000
  0
VERTEX
  8
gg1
 10
0.506000
 20
0.184000
  0
VERTEX
  8
gg1
 10
0.496000
 20
0.194000
  0
VERTEX
  8
gg1
 10
0.486000
 20
0.184000
  0
VERTEX
  8
gg1
 10
0.476000
 20
0.184000
  0
SEQEND
  8
gg1
  0
POLYLINE
  8
gg1
 62
1
 40
0.000000
 41
0.000000
 66
  1
  0
VERTEX
  8
gg1
 10
0.496000
 20
0.194000
  0
VERTEX
  8
gg1
 10
0.496000
 20
0.214000
  0
SEQEND
  8
gg1
  0
POLYLINE
  8
gg1
 62
1
 40
0.000000
 41
0.000000
 66
  1
  0
VERTEX
  8
gg1
 10
0.476000
 20
0.244000
  0
VERTEX
  8
gg1
 10
0.466000
 20
0.254000
  0
VERTEX
  8
gg1
 10
0.466000
 20
0.274000
  0
VERTEX
  8
gg1
 10
0.476000
 20
0.284000
  0
VERTEX
  8
gg1
 10
0.516000
 20
0.284000
  0
VERTEX
  8
gg1
 10
0.526000
 20
0.274000
  0
VERTEX
  8
gg1
 10
0.526000
 20
0.254000
  0
VERTEX
  8
gg1
 10
0.516000
 20
0.244000
  0
VERTEX
  8
gg1
 10
0.476000
 20
0.244000
  0
SEQEND
  8
gg1
  0
POLYLINE
  8
gg1
 62
1
 40
0.000000
 41
0.000000
 66
  1
  0
VERTEX
  8
gg1
 10
0.476000
 20
0.304000
  0
VERTEX
  8
gg1
 10
0.466000
 20
0.314000
  0
VERTEX
  8
gg1
 10
0.466000
 20
0.334000
  0
VERTEX
  8
gg1
 10
0.476000
 20
0.344000
  0
VERTEX
  8
gg1
 10
0.516000
 20
0.344000
  0
VERTEX
  8
gg1
 10
0.526000
 20
0.334000
  0
VERTEX
  8
gg1
 10
0.526000
 20
0.314000
  0
VERTEX
  8
gg1
 10
0.516000
 20
0.304000
  0
VERTEX
  8
gg1
 10
0.476000
 20
0.304000
  0
SEQEND
  8
gg1
  0
POLYLINE
  8
gg1
 62
1
 40
0.000000
 41
0.000000
 66
  1
  0
VERTEX
  8
gg1
 10
0.526000
 20
0.364000
  0
VERTEX
  8
gg1
 10
0.486000
 20
0.364000
  0
VERTEX
  8
gg1
 10
0.486000
 20
0.374000
  0
VERTEX
  8
gg1
 10
0.496000
 20
0.384000
  0
VERTEX
  8
gg1
 10
0.526000
 20
0.384000
  0
VERTEX
  8
gg1
 10
0.496000
 20
0.384000
  0
VERTEX
  8
gg1
 10
0.486000
 20
0.394000
  0
VERTEX
  8
gg1
 10
0.496000
 20
0.404000
  0
VERTEX
  8
gg1
 10
0.526000
 20
0.404000
  0
SEQEND
  8
gg1
  0
POLYLINE
  8
gg1
 62
1
 40
0.000000
 41
0.000000
 66
  1
  0
VERTEX
  8
gg1
 10
0.526000
 20
0.424000
  0
VERTEX
  8
gg1
 10
0.526000
 20
0.444000
  0
VERTEX
  8
gg1
 10
0.526000
 20
0.434000
  0
VERTEX
  8
gg1
 10
0.486000
 20
0.434000
  0
VERTEX
  8
gg1
 10
0.486000
 20
0.424000
  0
SEQEND
  8
gg1
  0
POLYLINE
  8
gg1
 62
1
 40
0.000000
 41
0.000000
 66
  1
  0
VERTEX
  8
gg1
 10
0.526000
 20
0.474000
  0
VERTEX
  8
gg1
 10
0.526000
 20
0.493900
  0
VERTEX
  8
gg1
 10
0.526000
 20
0.484000
  0
VERTEX
  8
gg1
 10
0.466000
 20
0.484000
  0
VERTEX
  8
gg1
 10
0.466000
 20
0.474000
  0
SEQEND
  8
gg1
  0
POLYLINE
  8
gg1
 62
1
 40
0.000000
 41
0.000000
 66
  1
  0
VERTEX
  8
gg1
 10
0.961800
 20
0.658800
  0
VERTEX
  8
gg1
 10
0.981800
 20
0.658800
  0
SEQEND
  8
gg1
  0
POLYLINE
  8
gg1
 62
1
 40
0.000000
 41
0.000000
 66
  1
  0
VERTEX
  8
gg1
 10
0.971800
 20
0.648800
  0
VERTEX
  8
gg1
 10
0.971800
 20
0.668800
  0
SEQEND
  8
gg1
  0
POLYLINE
  8
gg1
 62
1
 40
0.000000
 41
0.000000
 66
  1
  0
VERTEX
  8
gg1
 10
0.764300
 20
0.217100
  0
VERTEX
  8
gg1
 10
0.784300
 20
0.217100
  0
SEQEND
  8
gg1
  0
POLYLINE
  8
gg1
 62
1
 40
0.000000
 41
0.000000
 66
  1
  0
VERTEX
  8
gg1
 10
0.774300
 20
0.207100
  0
VERTEX
  8
gg1
 10
0.774300
 20
0.227100
  0
SEQEND
  8
gg1
  0
POLYLINE
  8
gg1
 62
1
 40
0.000000
 41
0.000000
 66
  1
  0
VERTEX
  8
gg1
 10
0.783000
 20
0.677000
  0
VERTEX
  8
gg1
 10
0.803000
 20
0.677000
  0
SEQEND
  8
gg1
  0
POLYLINE
  8
gg1
 62
1
 40
0.000000
 41
0.000000
 66
  1
  0
VERTEX
  8
gg1
 10
0.793000
 20
0.667000
  0
VERTEX
  8
gg1
 10
0.793000
 20
0.687000
  0
SEQEND
  8
gg1
  0
POLYLINE
  8
gg1
 62
1
 40
0.000000
 41
0.000000
 66
  1
  0
VERTEX
  8
gg1
 10
0.605000
 20
0.005000
  0
VERTEX
  8
gg1
 10
0.645000
 20
0.005000
  0
SEQEND
  8
gg1
  0
POLYLINE
  8
gg1
 62
1
 40
0.000000
 41
0.000000
 66
  1
  0
VERTEX
  8
gg1
 10
0.625000
 20
-0.015000
  0
VERTEX
  8
gg1
 10
0.625000
 20
0.025000
  0
SEQEND
  8
gg1
  0
POLYLINE
  8
gg1
 62
1
 40
0.000000
 41
0.000000
 66
  1
  0
VERTEX
  8
gg1
 10
0.705000
 20
0.005000
  0
VERTEX
  8
gg1
 10
0.745000
 20
0.005000
  0
SEQEND
  8
gg1
  0
POLYLINE
  8
gg1
 62
1
 40
0.000000
 41
0.000000
 66
  1
  0
VERTEX
  8
gg1
 10
0.725000
 20
-0.015000
  0
VERTEX
  8
gg1
 10
0.725000
 20
0.025000
  0
SEQEND
  8
gg1
  0
POLYLINE
  8
gg1
 62
1
 40
0.000000
 41
0.000000
 66
  1
  0
VERTEX
  8
gg1
 10
1.105000
 20
0.505000
  0
VERTEX
  8
gg1
 10
1.145000
 20
0.505000
  0
SEQEND
  8
gg1
  0
POLYLINE
  8
gg1
 62
1
 40
0.000000
 41
0.000000
 66
  1
  0
VERTEX
  8
gg1
 10
1.125000
 20
0.485000
  0
VERTEX
  8
gg1
 10
1.125000
 20
0.525000
  0
SEQEND
  8
gg1
  0
POLYLINE
  8
gg1
 62
1
 40
0.000000
 41
0.000000
 66
  1
  0
VERTEX
  8
gg1
 10
1.105000
 20
0.605000
  0
VERTEX
  8
gg1
 10
1.145000
 20
0.605000
  0
SEQEND
  8
gg1
  0
POLYLINE
  8
gg1
 62
1
 40
0.000000
 41
0.000000
 66
  1
  0
VERTEX
  8
gg1
 10
1.125000
 20
0.585000
  0
VERTEX
  8
gg1
 10
1.125000
 20
0.625000
  0
SEQEND
  8
gg1
  0
POLYLINE
  8
gg1
 62
1
 40
0.000000
 41
0.000000
 66
  1
  0
VERTEX
  8
gg1
 10
1.105000
 20
0.105000
  0
VERTEX
  8
gg1
 10
1.145000
 20
0.105000
  0
SEQEND
  8
gg1
  0
POLYLINE
  8
gg1
 62
1
 40
0.000000
 41
0.000000
 66
  1
  0
VERTEX
  8
gg1
 10
1.125000
 20
0.085000
  0
VERTEX
  8
gg1
 10
1.125000
 20
0.125000
  0
SEQEND
  8
gg1
  0
POLYLINE
  8
gg1
 62
1
 40
0.000000
 41
0.000000
 66
  1
  0
VERTEX
  8
gg1
 10
1.105000
 20
0.205000
  0
VERTEX
  8
gg1
 10
1.145000
 20
0.205000
  0
SEQEND
  8
gg1
  0
POLYLINE
  8
gg1
 62
1
 40
0.000000
 41
0.000000
 66
  1
  0
VERTEX
  8
gg1
 10
1.125000
 20
0.185000
  0
VERTEX
  8
gg1
 10
1.125000
 20
0.225000
  0
SEQEND
  8
gg1
  0
POLYLINE
  8
gg1
 62
1
 40
0.000000
 41
0.000000
 66
  1
  0
VERTEX
  8
gg1
 10
1.105000
 20
0.304900
  0
VERTEX
  8
gg1
 10
1.145000
 20
0.304900
  0
SEQEND
  8
gg1
  0
POLYLINE
  8
gg1
 62
1
 40
0.000000
 41
0.000000
 66
  1
  0
VERTEX
  8
gg1
 10
1.125000
 20
0.284900
  0
VERTEX
  8
gg1
 10
1.125000
 20
0.324900
  0
SEQEND
  8
gg1
  0
POLYLINE
  8
gg1
 62
1
 40
0.000000
 41
0.000000
 66
  1
  0
VERTEX
  8
gg1
 10
1.105000
 20
0.404900
  0
VERTEX
  8
gg1
 10
1.145000
 20
0.404900
  0
SEQEND
  8
gg1
  0
POLYLINE
  8
gg1
 62
1
 40
0.000000
 41
0.000000
 66
  1
  0
VERTEX
  8
gg1
 10
1.125000
 20
0.384900
  0
VERTEX
  8
gg1
 10
1.125000
 20
0.424900
  0
SEQEND
  8
gg1
  0
POLYLINE
  8
gg1
 62
1
 40
0.000000
 41
0.000000
 66
  1
  0
VERTEX
  8
gg1
 10
0.605000
 20
0.505000
  0
VERTEX
  8
gg1
 10
0.645000
 20
0.505000
  0
SEQEND
  8
gg1
  0
POLYLINE
  8
gg1
 62
1
 40
0.000000
 41
0.000000
 66
  1
  0
VERTEX
  8
gg1
 10
0.625000
 20
0.485000
  0
VERTEX
  8
gg1
 10
0.625000
 20
0.525000
  0
SEQEND
  8
gg1
  0
POLYLINE
  8
gg1
 62
1
 40
0.000000
 41
0.000000
 66
  1
  0
VERTEX
  8
gg1
 10
0.605000
 20
0.005000
  0
VERTEX
  8
gg1
 10
0.645000
 20
0.005000
  0
SEQEND
  8
gg1
  0
POLYLINE
  8
gg1
 62
1
 40
0.000000
 41
0.000000
 66
  1
  0
VERTEX
  8
gg1
 10
0.625000
 20
-0.015000
  0
VERTEX
  8
gg1
 10
0.625000
 20
0.025000
  0
SEQEND
  8
gg1
  0
POLYLINE
  8
gg1
 62
1
 40
0.000000
 41
0.000000
 66
  1
  0
VERTEX
  8
gg1
 10
0.605000
 20
0.105000
  0
VERTEX
  8
gg1
 10
0.645000
 20
0.105000
  0
SEQEND
  8
gg1
  0
POLYLINE
  8
gg1
 62
1
 40
0.000000
 41
0.000000
 66
  1
  0
VERTEX
  8
gg1
 10
0.625000
 20
0.085000
  0
VERTEX
  8
gg1
 10
0.625000
 20
0.125000
  0
SEQEND
  8
gg1
  0
POLYLINE
  8
gg1
 62
1
 40
0.000000
 41
0.000000
 66
  1
  0
VERTEX
  8
gg1
 10
0.605000
 20
0.205000
  0
VERTEX
  8
gg1
 10
0.645000
 20
0.205000
  0
SEQEND
  8
gg1
  0
POLYLINE
  8
gg1
 62
1
 40
0.000000
 41
0.000000
 66
  1
  0
VERTEX
  8
gg1
 10
0.625000
 20
0.185000
  0
VERTEX
  8
gg1
 10
0.625000
 20
0.225000
  0
SEQEND
  8
gg1
  0
POLYLINE
  8
gg1
 62
1
 40
0.000000
 41
0.000000
 66
  1
  0
VERTEX
  8
gg1
 10
0.605000
 20
0.305000
  0
VERTEX
  8
gg1
 10
0.645000
 20
0.305000
  0
SEQEND
  8
gg1
  0
POLYLINE
  8
gg1
 62
1
 40
0.000000
 41
0.000000
 66
  1
  0
VERTEX
  8
gg1
 10
0.625000
 20
0.285000
  0
VERTEX
  8
gg1
 10
0.625000
 20
0.325000
  0
SEQEND
  8
gg1
  0
POLYLINE
  8
gg1
 62
1
 40
0.000000
 41
0.000000
 66
  1
  0
VERTEX
  8
gg1
 10
0.605000
 20
0.405000
  0
VERTEX
  8
gg1
 10
0.645000
 20
0.405000
  0
SEQEND
  8
gg1
  0
POLYLINE
  8
gg1
 62
1
 40
0.000000
 41
0.000000
 66
  1
  0
VERTEX
  8
gg1
 10
0.625000
 20
0.385000
  0
VERTEX
  8
gg1
 10
0.625000
 20
0.425000
  0
SEQEND
  8
gg1
  0
POLYLINE
  8
gg1
 62
1
 40
0.000000
 41
0.000000
 66
  1
  0
VERTEX
  8
gg1
 10
0.605000
 20
0.705000
  0
VERTEX
  8
gg1
 10
0.645000
 20
0.705000
  0
SEQEND
  8
gg1
  0
POLYLINE
  8
gg1
 62
1
 40
0.000000
 41
0.000000
 66
  1
  0
VERTEX
  8
gg1
 10
0.625000
 20
0.685000
  0
VERTEX
  8
gg1
 10
0.625000
 20
0.725000
  0
SEQEND
  8
gg1
  0
POLYLINE
  8
gg1
 62
1
 40
0.000000
 41
0.000000
 66
  1
  0
VERTEX
  8
gg1
 10
0.605000
 20
0.605000
  0
VERTEX
  8
gg1
 10
0.645000
 20
0.605000
  0
SEQEND
  8
gg1
  0
POLYLINE
  8
gg1
 62
1
 40
0.000000
 41
0.000000
 66
  1
  0
VERTEX
  8
gg1
 10
0.625000
 20
0.585000
  0
VERTEX
  8
gg1
 10
0.625000
 20
0.625000
  0
SEQEND
  8
gg1
  0
ENDSEC
  0
EOF
