  0
SECTION
  2
HEADER
  9
$EXTMIN
 10
0.531000
 20
-0.039000
  9
$EXTMAX
 10
1.505000
 20
1.155000
  9
$LIMMIN
 10
0.531000
 20
-0.039000
  9
$LIMMAX
 10
1.505000
 20
1.155000
  9
$FILLMODE
 70
  1
  0
ENDSEC
  0
SECTION
  2
TABLES
  0
TABLE
  2
LTYPE
 70
  1
  0
LTYPE
  2
CONTINUOUS
 70
 64
  3
Solid line
 72
 65
 73
  0
 40
0.0
  0
ENDTAB
  0
TABLE
  2
LAYER
 70
 1
  0
LAYER
  2
0
 70
  0
 62
7
  6
CONTINUOUS
  0
LAYER
  2
gg1
 70
  0
 62
1
  6
CONTINUOUS
  0
ENDTAB
  0
TABLE
  2
STYLE
 70
  1
  0
STYLE
  2
STANDARD
 70
  0
 40
0.0
 41
1.0
 50
0.0
 71
  0
 42
0.2
  3
txt
  4

  0
ENDTAB
  0
ENDSEC
  0
SECTION
  2
BLOCKS
  0
BLOCK
  8
0
  2
D10
 70
64
 10
0.0
 20
0.0
  3
D10
  0
CIRCLE
  8
0
 10
0.000000
 20
0.000000
 40
0.005000
 0
ENDBLK
  8
0
  0
BLOCK
  8
0
  2
D11
 70
64
 10
0.0
 20
0.0
  3
D11
  0
CIRCLE
  8
0
 10
0.000000
 20
0.000000
 40
0.003000
 0
ENDBLK
  8
0
  0
BLOCK
  8
0
  2
D12
 70
64
 10
0.0
 20
0.0
  3
D12
  0
CIRCLE
  8
0
 10
0.000000
 20
0.000000
 40
0.001000
 0
ENDBLK
  8
0
  0
ENDSEC
  0
SECTION
  2
ENTITIES
  0
POLYLINE
  8
gg1
 62
1
 40
0.000000
 41
0.000000
 66
  1
  0
VERTEX
  8
gg1
 10
1.500000
 20
0.800000
  0
VERTEX
  8
gg1
 10
1.500000
 20
0.800000
  0
VERTEX
  8
gg1
 10
1.500000
 20
0.800000
 42
1.000000
  0
VERTEX
  8
gg1
 10
0.800000
 20
0.800000
  0
VERTEX
  8
gg1
 10
0.800000
 20
0.800000
  0
SEQEND
  8
gg1
  0
POLYLINE
  8
gg1
 62
1
 40
0.000000
 41
0.000000
 66
  1
  0
VERTEX
  8
gg1
 10
0.800000
 20
0.200000
  0
VERTEX
  8
gg1
 10
0.800000
 20
0.800000
  0
SEQEND
  8
gg1
  0
POLYLINE
  8
gg1
 62
1
 40
0.000000
 41
0.000000
 66
  1
  0
VERTEX
  8
gg1
 10
1.500000
 20
0.200000
  0
VERTEX
  8
gg1
 10
1.500000
 20
0.800000
  0
SEQEND
  8
gg1
  0
POLYLINE
  8
gg1
 62
1
 40
0.000000
 41
0.000000
 66
  1
  0
VERTEX
  8
gg1
 10
0.800000
 20
0.200000
  0
VERTEX
  8
gg1
 10
1.500000
 20
0.200000
  0
SEQEND
  8
gg1
  0
POLYLINE
  8
gg1
 62
1
 40
0.000000
 41
0.000000
 66
  1
  0
VERTEX
  8
gg1
 10
0.580000
 20
0.260000
  0
VERTEX
  8
gg1
 10
0.600000
 20
0.200000
  0
VERTEX
  8
gg1
 10
0.620000
 20
0.260000
  0
SEQEND
  8
gg1
  0
POLYLINE
  8
gg1
 62
1
 40
0.000000
 41
0.000000
 66
  1
  0
VERTEX
  8
gg1
 10
0.600000
 20
1.150000
  0
VERTEX
  8
gg1
 10
0.620000
 20
1.090000
  0
SEQEND
  8
gg1
  0
POLYLINE
  8
gg1
 62
1
 40
0.000000
 41
0.000000
 66
  1
  0
VERTEX
  8
gg1
 10
0.580000
 20
1.090000
  0
VERTEX
  8
gg1
 10
0.600000
 20
1.150000
  0
SEQEND
  8
gg1
  0
POLYLINE
  8
gg1
 62
1
 40
0.000000
 41
0.000000
 66
  1
  0
VERTEX
  8
gg1
 10
0.600000
 20
0.200000
  0
VERTEX
  8
gg1
 10
0.600000
 20
0.490000
  0
SEQEND
  8
gg1
  0
POLYLINE
  8
gg1
 62
1
 40
0.000000
 41
0.000000
 66
  1
  0
VERTEX
  8
gg1
 10
0.600000
 20
0.831900
  0
VERTEX
  8
gg1
 10
0.600000
 20
1.150000
  0
SEQEND
  8
gg1
  0
POLYLINE
  8
gg1
 62
1
 40
0.000000
 41
0.000000
 66
  1
  0
VERTEX
  8
gg1
 10
0.590000
 20
0.200000
  0
VERTEX
  8
gg1
 10
0.785000
 20
0.200000
  0
SEQEND
  8
gg1
  0
POLYLINE
  8
gg1
 62
1
 40
0.000000
 41
0.000000
 66
  1
  0
VERTEX
  8
gg1
 10
0.590000
 20
1.150000
  0
VERTEX
  8
gg1
 10
1.135000
 20
1.150000
  0
SEQEND
  8
gg1
  0
POLYLINE
  8
gg1
 62
1
 40
0.000000
 41
0.000000
 66
  1
  0
VERTEX
  8
gg1
 10
0.800000
 20
0.000000
  0
VERTEX
  8
gg1
 10
0.860000
 20
0.020000
  0
SEQEND
  8
gg1
  0
POLYLINE
  8
gg1
 62
1
 40
0.000000
 41
0.000000
 66
  1
  0
VERTEX
  8
gg1
 10
0.800000
 20
0.000000
  0
VERTEX
  8
gg1
 10
0.860000
 20
-0.020000
  0
SEQEND
  8
gg1
  0
POLYLINE
  8
gg1
 62
1
 40
0.000000
 41
0.000000
 66
  1
  0
VERTEX
  8
gg1
 10
1.440000
 20
-0.020000
  0
VERTEX
  8
gg1
 10
1.500000
 20
0.000000
  0
SEQEND
  8
gg1
  0
POLYLINE
  8
gg1
 62
1
 40
0.000000
 41
0.000000
 66
  1
  0
VERTEX
  8
gg1
 10
1.440000
 20
0.020000
  0
VERTEX
  8
gg1
 10
1.500000
 20
0.000000
  0
SEQEND
  8
gg1
  0
POLYLINE
  8
gg1
 62
1
 40
0.000000
 41
0.000000
 66
  1
  0
VERTEX
  8
gg1
 10
0.800000
 20
0.000000
  0
VERTEX
  8
gg1
 10
0.963100
 20
0.000000
  0
SEQEND
  8
gg1
  0
POLYLINE
  8
gg1
 62
1
 40
0.000000
 41
0.000000
 66
  1
  0
VERTEX
  8
gg1
 10
1.304900
 20
0.000000
  0
VERTEX
  8
gg1
 10
1.500000
 20
0.000000
  0
SEQEND
  8
gg1
  0
POLYLINE
  8
gg1
 62
1
 40
0.000000
 41
0.000000
 66
  1
  0
VERTEX
  8
gg1
 10
0.800000
 20
-0.010000
  0
VERTEX
  8
gg1
 10
0.800000
 20
0.185000
  0
SEQEND
  8
gg1
  0
POLYLINE
  8
gg1
 62
1
 40
0.000000
 41
0.000000
 66
  1
  0
VERTEX
  8
gg1
 10
1.500000
 20
-0.010000
  0
VERTEX
  8
gg1
 10
1.500000
 20
0.185000
  0
SEQEND
  8
gg1
  0
POLYLINE
  8
gg1
 62
1
 40
0.000000
 41
0.000000
 66
  1
  0
VERTEX
  8
gg1
 10
0.584000
 20
0.506000
  0
VERTEX
  8
gg1
 10
0.594000
 20
0.516000
  0
VERTEX
  8
gg1
 10
0.594000
 20
0.536000
  0
VERTEX
  8
gg1
 10
0.584000
 20
0.546000
  0
VERTEX
  8
gg1
 10
0.544000
 20
0.546000
  0
VERTEX
  8
gg1
 10
0.534000
 20
0.536000
  0
VERTEX
  8
gg1
 10
0.534000
 20
0.516000
  0
VERTEX
  8
gg1
 10
0.544000
 20
0.506000
  0
VERTEX
  8
gg1
 10
0.554000
 20
0.506000
  0
VERTEX
  8
gg1
 10
0.564000
 20
0.516000
  0
VERTEX
  8
gg1
 10
0.564000
 20
0.546000
  0
SEQEND
  8
gg1
  0
POLYLINE
  8
gg1
 62
1
 40
0.000000
 41
0.000000
 66
  1
  0
VERTEX
  8
gg1
 10
0.534000
 20
0.606000
  0
VERTEX
  8
gg1
 10
0.534000
 20
0.566000
  0
VERTEX
  8
gg1
 10
0.564000
 20
0.566000
  0
VERTEX
  8
gg1
 10
0.554000
 20
0.586000
  0
VERTEX
  8
gg1
 10
0.554000
 20
0.596000
  0
VERTEX
  8
gg1
 10
0.564000
 20
0.606000
  0
VERTEX
  8
gg1
 10
0.584000
 20
0.606000
  0
VERTEX
  8
gg1
 10
0.594000
 20
0.596000
  0
VERTEX
  8
gg1
 10
0.594000
 20
0.576000
  0
VERTEX
  8
gg1
 10
0.584000
 20
0.566000
  0
SEQEND
  8
gg1
  0
POLYLINE
  8
gg1
 62
1
 40
0.000000
 41
0.000000
 66
  1
  0
VERTEX
  8
gg1
 10
0.544000
 20
0.626000
  0
VERTEX
  8
gg1
 10
0.534000
 20
0.636000
  0
VERTEX
  8
gg1
 10
0.534000
 20
0.656000
  0
VERTEX
  8
gg1
 10
0.544000
 20
0.665900
  0
VERTEX
  8
gg1
 10
0.584000
 20
0.665900
  0
VERTEX
  8
gg1
 10
0.594000
 20
0.656000
  0
VERTEX
  8
gg1
 10
0.594000
 20
0.636000
  0
VERTEX
  8
gg1
 10
0.584000
 20
0.626000
  0
VERTEX
  8
gg1
 10
0.544000
 20
0.626000
  0
SEQEND
  8
gg1
  0
POLYLINE
  8
gg1
 62
1
 40
0.000000
 41
0.000000
 66
  1
  0
VERTEX
  8
gg1
 10
0.594000
 20
0.685900
  0
VERTEX
  8
gg1
 10
0.554000
 20
0.685900
  0
VERTEX
  8
gg1
 10
0.554000
 20
0.695900
  0
VERTEX
  8
gg1
 10
0.564000
 20
0.705900
  0
VERTEX
  8
gg1
 10
0.594000
 20
0.705900
  0
VERTEX
  8
gg1
 10
0.564000
 20
0.705900
  0
VERTEX
  8
gg1
 10
0.554000
 20
0.715900
  0
VERTEX
  8
gg1
 10
0.564000
 20
0.725900
  0
VERTEX
  8
gg1
 10
0.594000
 20
0.725900
  0
SEQEND
  8
gg1
  0
POLYLINE
  8
gg1
 62
1
 40
0.000000
 41
0.000000
 66
  1
  0
VERTEX
  8
gg1
 10
0.594000
 20
0.745900
  0
VERTEX
  8
gg1
 10
0.594000
 20
0.765900
  0
VERTEX
  8
gg1
 10
0.594000
 20
0.755900
  0
VERTEX
  8
gg1
 10
0.554000
 20
0.755900
  0
VERTEX
  8
gg1
 10
0.554000
 20
0.745900
  0
SEQEND
  8
gg1
  0
POLYLINE
  8
gg1
 62
1
 40
0.000000
 41
0.000000
 66
  1
  0
VERTEX
  8
gg1
 10
0.594000
 20
0.795900
  0
VERTEX
  8
gg1
 10
0.594000
 20
0.815900
  0
VERTEX
  8
gg1
 10
0.594000
 20
0.805900
  0
VERTEX
  8
gg1
 10
0.534000
 20
0.805900
  0
VERTEX
  8
gg1
 10
0.534000
 20
0.795900
  0
SEQEND
  8
gg1
  0
POLYLINE
  8
gg1
 62
1
 40
0.000000
 41
0.000000
 66
  1
  0
VERTEX
  8
gg1
 10
0.979000
 20
0.024000
  0
VERTEX
  8
gg1
 10
1.019000
 20
0.024000
  0
VERTEX
  8
gg1
 10
1.019000
 20
0.014000
  0
VERTEX
  8
gg1
 10
0.979000
 20
-0.026000
  0
VERTEX
  8
gg1
 10
0.979000
 20
-0.036000
  0
SEQEND
  8
gg1
  0
POLYLINE
  8
gg1
 62
1
 40
0.000000
 41
0.000000
 66
  1
  0
VERTEX
  8
gg1
 10
1.039000
 20
0.014000
  0
VERTEX
  8
gg1
 10
1.049000
 20
0.024000
  0
VERTEX
  8
gg1
 10
1.069000
 20
0.024000
  0
VERTEX
  8
gg1
 10
1.079000
 20
0.014000
  0
VERTEX
  8
gg1
 10
1.079000
 20
-0.026000
  0
VERTEX
  8
gg1
 10
1.069000
 20
-0.036000
  0
VERTEX
  8
gg1
 10
1.049000
 20
-0.036000
  0
VERTEX
  8
gg1
 10
1.039000
 20
-0.026000
  0
VERTEX
  8
gg1
 10
1.039000
 20
0.014000
  0
SEQEND
  8
gg1
  0
POLYLINE
  8
gg1
 62
1
 40
0.000000
 41
0.000000
 66
  1
  0
VERTEX
  8
gg1
 10
1.099000
 20
0.014000
  0
VERTEX
  8
gg1
 10
1.109000
 20
0.024000
  0
VERTEX
  8
gg1
 10
1.129000
 20
0.024000
  0
VERTEX
  8
gg1
 10
1.139000
 20
0.014000
  0
VERTEX
  8
gg1
 10
1.139000
 20
-0.026000
  0
VERTEX
  8
gg1
 10
1.129000
 20
-0.036000
  0
VERTEX
  8
gg1
 10
1.109000
 20
-0.036000
  0
VERTEX
  8
gg1
 10
1.099000
 20
-0.026000
  0
VERTEX
  8
gg1
 10
1.099000
 20
0.014000
  0
SEQEND
  8
gg1
  0
POLYLINE
  8
gg1
 62
1
 40
0.000000
 41
0.000000
 66
  1
  0
VERTEX
  8
gg1
 10
1.159000
 20
-0.036000
  0
VERTEX
  8
gg1
 10
1.159000
 20
0.004000
  0
VERTEX
  8
gg1
 10
1.169000
 20
0.004000
  0
VERTEX
  8
gg1
 10
1.179000
 20
-0.006000
  0
VERTEX
  8
gg1
 10
1.179000
 20
-0.036000
  0
VERTEX
  8
gg1
 10
1.179000
 20
-0.006000
  0
VERTEX
  8
gg1
 10
1.189000
 20
0.004000
  0
VERTEX
  8
gg1
 10
1.199000
 20
-0.006000
  0
VERTEX
  8
gg1
 10
1.199000
 20
-0.036000
  0
SEQEND
  8
gg1
  0
POLYLINE
  8
gg1
 62
1
 40
0.000000
 41
0.000000
 66
  1
  0
VERTEX
  8
gg1
 10
1.219000
 20
-0.036000
  0
VERTEX
  8
gg1
 10
1.239000
 20
-0.036000
  0
VERTEX
  8
gg1
 10
1.229000
 20
-0.036000
  0
VERTEX
  8
gg1
 10
1.229000
 20
0.004000
  0
VERTEX
  8
gg1
 10
1.219000
 20
0.004000
  0
SEQEND
  8
gg1
  0
POLYLINE
  8
gg1
 62
1
 40
0.000000
 41
0.000000
 66
  1
  0
VERTEX
  8
gg1
 10
1.269000
 20
-0.036000
  0
VERTEX
  8
gg1
 10
1.288900
 20
-0.036000
  0
VERTEX
  8
gg1
 10
1.279000
 20
-0.036000
  0
VERTEX
  8
gg1
 10
1.279000
 20
0.024000
  0
VERTEX
  8
gg1
 10
1.269000
 20
0.024000
  0
SEQEND
  8
gg1
  0
POLYLINE
  8
gg1
 62
1
 40
0.000000
 41
0.000000
 66
  1
  0
VERTEX
  8
gg1
 10
1.087500
 20
0.800000
  0
VERTEX
  8
gg1
 10
1.212500
 20
0.800000
  0
SEQEND
  8
gg1
  0
POLYLINE
  8
gg1
 62
1
 40
0.000000
 41
0.000000
 66
  1
  0
VERTEX
  8
gg1
 10
1.150000
 20
0.737500
  0
VERTEX
  8
gg1
 10
1.150000
 20
0.862500
  0
SEQEND
  8
gg1
  0
POLYLINE
  8
gg1
 62
1
 40
0.000000
 41
0.000000
 66
  1
  0
VERTEX
  8
gg1
 10
0.938000
 20
0.800000
  0
VERTEX
  8
gg1
 10
0.988000
 20
0.800000
  0
SEQEND
  8
gg1
  0
POLYLINE
  8
gg1
 62
1
 40
0.000000
 41
0.000000
 66
  1
  0
VERTEX
  8
gg1
 10
0.963000
 20
0.775000
  0
VERTEX
  8
gg1
 10
0.963000
 20
0.825000
  0
SEQEND
  8
gg1
  0
POLYLINE
  8
gg1
 62
1
 40
0.000000
 41
0.000000
 66
  1
  0
VERTEX
  8
gg1
 10
0.992800
 20
0.667800
  0
VERTEX
  8
gg1
 10
1.042800
 20
0.667800
  0
SEQEND
  8
gg1
  0
POLYLINE
  8
gg1
 62
1
 40
0.000000
 41
0.000000
 66
  1
  0
VERTEX
  8
gg1
 10
1.017800
 20
0.642800
  0
VERTEX
  8
gg1
 10
1.017800
 20
0.692800
  0
SEQEND
  8
gg1
  0
POLYLINE
  8
gg1
 62
1
 40
0.000000
 41
0.000000
 66
  1
  0
VERTEX
  8
gg1
 10
0.992800
 20
0.932200
  0
VERTEX
  8
gg1
 10
1.042800
 20
0.932200
  0
SEQEND
  8
gg1
  0
POLYLINE
  8
gg1
 62
1
 40
0.000000
 41
0.000000
 66
  1
  0
VERTEX
  8
gg1
 10
1.017800
 20
0.907200
  0
VERTEX
  8
gg1
 10
1.017800
 20
0.957200
  0
SEQEND
  8
gg1
  0
POLYLINE
  8
gg1
 62
1
 40
0.000000
 41
0.000000
 66
  1
  0
VERTEX
  8
gg1
 10
1.257200
 20
0.932200
  0
VERTEX
  8
gg1
 10
1.307200
 20
0.932200
  0
SEQEND
  8
gg1
  0
POLYLINE
  8
gg1
 62
1
 40
0.000000
 41
0.000000
 66
  1
  0
VERTEX
  8
gg1
 10
1.282200
 20
0.907200
  0
VERTEX
  8
gg1
 10
1.282200
 20
0.957200
  0
SEQEND
  8
gg1
  0
POLYLINE
  8
gg1
 62
1
 40
0.000000
 41
0.000000
 66
  1
  0
VERTEX
  8
gg1
 10
1.257200
 20
0.667800
  0
VERTEX
  8
gg1
 10
1.307200
 20
0.667800
  0
SEQEND
  8
gg1
  0
POLYLINE
  8
gg1
 62
1
 40
0.000000
 41
0.000000
 66
  1
  0
VERTEX
  8
gg1
 10
1.282200
 20
0.642800
  0
VERTEX
  8
gg1
 10
1.282200
 20
0.692800
  0
SEQEND
  8
gg1
  0
POLYLINE
  8
gg1
 62
1
 40
0.000000
 41
0.000000
 66
  1
  0
VERTEX
  8
gg1
 10
1.312000
 20
0.800000
  0
VERTEX
  8
gg1
 10
1.362000
 20
0.800000
  0
SEQEND
  8
gg1
  0
POLYLINE
  8
gg1
 62
1
 40
0.000000
 41
0.000000
 66
  1
  0
VERTEX
  8
gg1
 10
1.337000
 20
0.775000
  0
VERTEX
  8
gg1
 10
1.337000
 20
0.825000
  0
SEQEND
  8
gg1
  0
POLYLINE
  8
gg1
 62
1
 40
0.000000
 41
0.000000
 66
  1
  0
VERTEX
  8
gg1
 10
1.357000
 20
0.300000
  0
VERTEX
  8
gg1
 10
1.443000
 20
0.300000
  0
SEQEND
  8
gg1
  0
POLYLINE
  8
gg1
 62
1
 40
0.000000
 41
0.000000
 66
  1
  0
VERTEX
  8
gg1
 10
1.400000
 20
0.257000
  0
VERTEX
  8
gg1
 10
1.400000
 20
0.343000
  0
SEQEND
  8
gg1
  0
POLYLINE
  8
gg1
 62
1
 40
0.000000
 41
0.000000
 66
  1
  0
VERTEX
  8
gg1
 10
0.857000
 20
0.300000
  0
VERTEX
  8
gg1
 10
0.943000
 20
0.300000
  0
SEQEND
  8
gg1
  0
POLYLINE
  8
gg1
 62
1
 40
0.000000
 41
0.000000
 66
  1
  0
VERTEX
  8
gg1
 10
0.900000
 20
0.257000
  0
VERTEX
  8
gg1
 10
0.900000
 20
0.343000
  0
SEQEND
  8
gg1
  0
POLYLINE
  8
gg1
 62
1
 40
0.000000
 41
0.000000
 66
  1
  0
VERTEX
  8
gg1
 10
1.030000
 20
0.250000
  0
VERTEX
  8
gg1
 10
1.070000
 20
0.250000
  0
SEQEND
  8
gg1
  0
POLYLINE
  8
gg1
 62
1
 40
0.000000
 41
0.000000
 66
  1
  0
VERTEX
  8
gg1
 10
1.050000
 20
0.230000
  0
VERTEX
  8
gg1
 10
1.050000
 20
0.270000
  0
SEQEND
  8
gg1
  0
POLYLINE
  8
gg1
 62
1
 40
0.000000
 41
0.000000
 66
  1
  0
VERTEX
  8
gg1
 10
1.130000
 20
0.250000
  0
VERTEX
  8
gg1
 10
1.170000
 20
0.250000
  0
SEQEND
  8
gg1
  0
POLYLINE
  8
gg1
 62
1
 40
0.000000
 41
0.000000
 66
  1
  0
VERTEX
  8
gg1
 10
1.150000
 20
0.230000
  0
VERTEX
  8
gg1
 10
1.150000
 20
0.270000
  0
SEQEND
  8
gg1
  0
POLYLINE
  8
gg1
 62
1
 40
0.000000
 41
0.000000
 66
  1
  0
VERTEX
  8
gg1
 10
1.230000
 20
0.250000
  0
VERTEX
  8
gg1
 10
1.270000
 20
0.250000
  0
SEQEND
  8
gg1
  0
POLYLINE
  8
gg1
 62
1
 40
0.000000
 41
0.000000
 66
  1
  0
VERTEX
  8
gg1
 10
1.250000
 20
0.230000
  0
VERTEX
  8
gg1
 10
1.250000
 20
0.270000
  0
SEQEND
  8
gg1
  0
POLYLINE
  8
gg1
 62
1
 40
0.000000
 41
0.000000
 66
  1
  0
VERTEX
  8
gg1
 10
1.182500
 20
0.350000
  0
VERTEX
  8
gg1
 10
1.217500
 20
0.350000
  0
SEQEND
  8
gg1
  0
POLYLINE
  8
gg1
 62
1
 40
0.000000
 41
0.000000
 66
  1
  0
VERTEX
  8
gg1
 10
1.200000
 20
0.332500
  0
VERTEX
  8
gg1
 10
1.200000
 20
0.367500
  0
SEQEND
  8
gg1
  0
POLYLINE
  8
gg1
 62
1
 40
0.000000
 41
0.000000
 66
  1
  0
VERTEX
  8
gg1
 10
1.082500
 20
0.350000
  0
VERTEX
  8
gg1
 10
1.117500
 20
0.350000
  0
SEQEND
  8
gg1
  0
POLYLINE
  8
gg1
 62
1
 40
0.000000
 41
0.000000
 66
  1
  0
VERTEX
  8
gg1
 10
1.100000
 20
0.332500
  0
VERTEX
  8
gg1
 10
1.100000
 20
0.367500
  0
SEQEND
  8
gg1
  0
POLYLINE
  8
gg1
 62
1
 40
0.000000
 41
0.000000
 66
  1
  0
VERTEX
  8
gg1
 10
0.882500
 20
0.440000
  0
VERTEX
  8
gg1
 10
0.917500
 20
0.440000
  0
SEQEND
  8
gg1
  0
POLYLINE
  8
gg1
 62
1
 40
0.000000
 41
0.000000
 66
  1
  0
VERTEX
  8
gg1
 10
0.900000
 20
0.422500
  0
VERTEX
  8
gg1
 10
0.900000
 20
0.457500
  0
SEQEND
  8
gg1
  0
POLYLINE
  8
gg1
 62
1
 40
0.000000
 41
0.000000
 66
  1
  0
VERTEX
  8
gg1
 10
1.382500
 20
0.440000
  0
VERTEX
  8
gg1
 10
1.417500
 20
0.440000
  0
SEQEND
  8
gg1
  0
POLYLINE
  8
gg1
 62
1
 40
0.000000
 41
0.000000
 66
  1
  0
VERTEX
  8
gg1
 10
1.400000
 20
0.422500
  0
VERTEX
  8
gg1
 10
1.400000
 20
0.457500
  0
SEQEND
  8
gg1
  0
ENDSEC
  0
EOF
