  0
SECTION
  2
HEADER
  9
$EXTMIN
 10
0.138000
 20
0.116000
  9
$EXTMAX
 10
0.770000
 20
1.160000
  9
$LIMMIN
 10
0.138000
 20
0.116000
  9
$LIMMAX
 10
0.770000
 20
1.160000
  9
$FILLMODE
 70
  1
  0
ENDSEC
  0
SECTION
  2
TABLES
  0
TABLE
  2
LTYPE
 70
  1
  0
LTYPE
  2
CONTINUOUS
 70
 64
  3
Solid line
 72
 65
 73
  0
 40
0.0
  0
ENDTAB
  0
TABLE
  2
LAYER
 70
 1
  0
LAYER
  2
0
 70
  0
 62
7
  6
CONTINUOUS
  0
LAYER
  2
gg1
 70
  0
 62
1
  6
CONTINUOUS
  0
ENDTAB
  0
TABLE
  2
STYLE
 70
  1
  0
STYLE
  2
STANDARD
 70
  0
 40
0.0
 41
1.0
 50
0.0
 71
  0
 42
0.2
  3
txt
  4

  0
ENDTAB
  0
ENDSEC
  0
SECTION
  2
BLOCKS
  0
BLOCK
  8
0
  2
D10
 70
64
 10
0.0
 20
0.0
  3
D10
  0
CIRCLE
  8
0
 10
0.000000
 20
0.000000
 40
0.002500
 0
ENDBLK
  8
0
  0
BLOCK
  8
0
  2
D11
 70
64
 10
0.0
 20
0.0
  3
D11
  0
CIRCLE
  8
0
 10
0.000000
 20
0.000000
 40
0.005000
 0
ENDBLK
  8
0
  0
BLOCK
  8
0
  2
D12
 70
64
 10
0.0
 20
0.0
  3
D12
  0
CIRCLE
  8
0
 10
0.000000
 20
0.000000
 40
0.003000
 0
ENDBLK
  8
0
  0
ENDSEC
  0
SECTION
  2
ENTITIES
  0
POLYLINE
  8
gg1
 62
1
 40
0.000000
 41
0.000000
 66
  1
  0
VERTEX
  8
gg1
 10
0.265000
 20
0.255000
  0
VERTEX
  8
gg1
 10
0.265000
 20
1.155000
  0
SEQEND
  8
gg1
  0
POLYLINE
  8
gg1
 62
1
 40
0.000000
 41
0.000000
 66
  1
  0
VERTEX
  8
gg1
 10
0.265000
 20
1.155000
  0
VERTEX
  8
gg1
 10
0.765000
 20
1.155000
  0
SEQEND
  8
gg1
  0
POLYLINE
  8
gg1
 62
1
 40
0.000000
 41
0.000000
 66
  1
  0
VERTEX
  8
gg1
 10
0.765000
 20
0.255000
  0
VERTEX
  8
gg1
 10
0.765000
 20
1.155000
  0
SEQEND
  8
gg1
  0
POLYLINE
  8
gg1
 62
1
 40
0.000000
 41
0.000000
 66
  1
  0
VERTEX
  8
gg1
 10
0.265000
 20
0.255000
  0
VERTEX
  8
gg1
 10
0.765000
 20
0.255000
  0
SEQEND
  8
gg1
  0
POLYLINE
  8
gg1
 62
1
 40
0.000000
 41
0.000000
 66
  1
  0
VERTEX
  8
gg1
 10
0.622000
 20
0.355000
  0
VERTEX
  8
gg1
 10
0.708000
 20
0.355000
  0
SEQEND
  8
gg1
  0
POLYLINE
  8
gg1
 62
1
 40
0.000000
 41
0.000000
 66
  1
  0
VERTEX
  8
gg1
 10
0.665000
 20
0.312000
  0
VERTEX
  8
gg1
 10
0.665000
 20
0.398000
  0
SEQEND
  8
gg1
  0
POLYLINE
  8
gg1
 62
1
 40
0.000000
 41
0.000000
 66
  1
  0
VERTEX
  8
gg1
 10
0.622000
 20
1.055000
  0
VERTEX
  8
gg1
 10
0.708000
 20
1.055000
  0
SEQEND
  8
gg1
  0
POLYLINE
  8
gg1
 62
1
 40
0.000000
 41
0.000000
 66
  1
  0
VERTEX
  8
gg1
 10
0.665000
 20
1.012000
  0
VERTEX
  8
gg1
 10
0.665000
 20
1.098000
  0
SEQEND
  8
gg1
  0
POLYLINE
  8
gg1
 62
1
 40
0.000000
 41
0.000000
 66
  1
  0
VERTEX
  8
gg1
 10
0.695000
 20
0.505000
  0
VERTEX
  8
gg1
 10
0.735000
 20
0.505000
  0
SEQEND
  8
gg1
  0
POLYLINE
  8
gg1
 62
1
 40
0.000000
 41
0.000000
 66
  1
  0
VERTEX
  8
gg1
 10
0.715000
 20
0.485000
  0
VERTEX
  8
gg1
 10
0.715000
 20
0.525000
  0
SEQEND
  8
gg1
  0
POLYLINE
  8
gg1
 62
1
 40
0.000000
 41
0.000000
 66
  1
  0
VERTEX
  8
gg1
 10
0.695000
 20
0.605000
  0
VERTEX
  8
gg1
 10
0.735000
 20
0.605000
  0
SEQEND
  8
gg1
  0
POLYLINE
  8
gg1
 62
1
 40
0.000000
 41
0.000000
 66
  1
  0
VERTEX
  8
gg1
 10
0.715000
 20
0.585000
  0
VERTEX
  8
gg1
 10
0.715000
 20
0.625000
  0
SEQEND
  8
gg1
  0
POLYLINE
  8
gg1
 62
1
 40
0.000000
 41
0.000000
 66
  1
  0
VERTEX
  8
gg1
 10
0.695000
 20
0.705000
  0
VERTEX
  8
gg1
 10
0.735000
 20
0.705000
  0
SEQEND
  8
gg1
  0
POLYLINE
  8
gg1
 62
1
 40
0.000000
 41
0.000000
 66
  1
  0
VERTEX
  8
gg1
 10
0.715000
 20
0.685000
  0
VERTEX
  8
gg1
 10
0.715000
 20
0.725000
  0
SEQEND
  8
gg1
  0
POLYLINE
  8
gg1
 62
1
 40
0.000000
 41
0.000000
 66
  1
  0
VERTEX
  8
gg1
 10
0.695000
 20
0.805000
  0
VERTEX
  8
gg1
 10
0.735000
 20
0.805000
  0
SEQEND
  8
gg1
  0
POLYLINE
  8
gg1
 62
1
 40
0.000000
 41
0.000000
 66
  1
  0
VERTEX
  8
gg1
 10
0.715000
 20
0.785000
  0
VERTEX
  8
gg1
 10
0.715000
 20
0.825000
  0
SEQEND
  8
gg1
  0
POLYLINE
  8
gg1
 62
1
 40
0.000000
 41
0.000000
 66
  1
  0
VERTEX
  8
gg1
 10
0.695000
 20
0.905000
  0
VERTEX
  8
gg1
 10
0.735000
 20
0.905000
  0
SEQEND
  8
gg1
  0
POLYLINE
  8
gg1
 62
1
 40
0.000000
 41
0.000000
 66
  1
  0
VERTEX
  8
gg1
 10
0.715000
 20
0.885000
  0
VERTEX
  8
gg1
 10
0.715000
 20
0.925000
  0
SEQEND
  8
gg1
  0
POLYLINE
  8
gg1
 62
1
 40
0.000000
 41
0.000000
 66
  1
  0
VERTEX
  8
gg1
 10
0.295000
 20
0.705000
  0
VERTEX
  8
gg1
 10
0.335000
 20
0.705000
  0
SEQEND
  8
gg1
  0
POLYLINE
  8
gg1
 62
1
 40
0.000000
 41
0.000000
 66
  1
  0
VERTEX
  8
gg1
 10
0.315000
 20
0.685000
  0
VERTEX
  8
gg1
 10
0.315000
 20
0.725000
  0
SEQEND
  8
gg1
  0
POLYLINE
  8
gg1
 62
1
 40
0.000000
 41
0.000000
 66
  1
  0
VERTEX
  8
gg1
 10
0.295000
 20
0.805000
  0
VERTEX
  8
gg1
 10
0.335000
 20
0.805000
  0
SEQEND
  8
gg1
  0
POLYLINE
  8
gg1
 62
1
 40
0.000000
 41
0.000000
 66
  1
  0
VERTEX
  8
gg1
 10
0.315000
 20
0.785000
  0
VERTEX
  8
gg1
 10
0.315000
 20
0.825000
  0
SEQEND
  8
gg1
  0
POLYLINE
  8
gg1
 62
1
 40
0.000000
 41
0.000000
 66
  1
  0
VERTEX
  8
gg1
 10
0.295000
 20
0.905000
  0
VERTEX
  8
gg1
 10
0.335000
 20
0.905000
  0
SEQEND
  8
gg1
  0
POLYLINE
  8
gg1
 62
1
 40
0.000000
 41
0.000000
 66
  1
  0
VERTEX
  8
gg1
 10
0.315000
 20
0.885000
  0
VERTEX
  8
gg1
 10
0.315000
 20
0.925000
  0
SEQEND
  8
gg1
  0
POLYLINE
  8
gg1
 62
1
 40
0.000000
 41
0.000000
 66
  1
  0
VERTEX
  8
gg1
 10
0.295000
 20
1.005000
  0
VERTEX
  8
gg1
 10
0.335000
 20
1.005000
  0
SEQEND
  8
gg1
  0
POLYLINE
  8
gg1
 62
1
 40
0.000000
 41
0.000000
 66
  1
  0
VERTEX
  8
gg1
 10
0.315000
 20
0.985000
  0
VERTEX
  8
gg1
 10
0.315000
 20
1.025000
  0
SEQEND
  8
gg1
  0
POLYLINE
  8
gg1
 62
1
 40
0.000000
 41
0.000000
 66
  1
  0
VERTEX
  8
gg1
 10
0.295000
 20
1.105000
  0
VERTEX
  8
gg1
 10
0.335000
 20
1.105000
  0
SEQEND
  8
gg1
  0
POLYLINE
  8
gg1
 62
1
 40
0.000000
 41
0.000000
 66
  1
  0
VERTEX
  8
gg1
 10
0.315000
 20
1.085000
  0
VERTEX
  8
gg1
 10
0.315000
 20
1.125000
  0
SEQEND
  8
gg1
  0
POLYLINE
  8
gg1
 62
1
 40
0.000000
 41
0.000000
 66
  1
  0
VERTEX
  8
gg1
 10
0.295000
 20
0.605000
  0
VERTEX
  8
gg1
 10
0.335000
 20
0.605000
  0
SEQEND
  8
gg1
  0
POLYLINE
  8
gg1
 62
1
 40
0.000000
 41
0.000000
 66
  1
  0
VERTEX
  8
gg1
 10
0.315000
 20
0.585000
  0
VERTEX
  8
gg1
 10
0.315000
 20
0.625000
  0
SEQEND
  8
gg1
  0
POLYLINE
  8
gg1
 62
1
 40
0.000000
 41
0.000000
 66
  1
  0
VERTEX
  8
gg1
 10
0.295000
 20
0.505000
  0
VERTEX
  8
gg1
 10
0.335000
 20
0.505000
  0
SEQEND
  8
gg1
  0
POLYLINE
  8
gg1
 62
1
 40
0.000000
 41
0.000000
 66
  1
  0
VERTEX
  8
gg1
 10
0.315000
 20
0.485000
  0
VERTEX
  8
gg1
 10
0.315000
 20
0.525000
  0
SEQEND
  8
gg1
  0
POLYLINE
  8
gg1
 62
1
 40
0.000000
 41
0.000000
 66
  1
  0
VERTEX
  8
gg1
 10
0.295000
 20
0.405000
  0
VERTEX
  8
gg1
 10
0.335000
 20
0.405000
  0
SEQEND
  8
gg1
  0
POLYLINE
  8
gg1
 62
1
 40
0.000000
 41
0.000000
 66
  1
  0
VERTEX
  8
gg1
 10
0.315000
 20
0.385000
  0
VERTEX
  8
gg1
 10
0.315000
 20
0.425000
  0
SEQEND
  8
gg1
  0
POLYLINE
  8
gg1
 62
1
 40
0.000000
 41
0.000000
 66
  1
  0
VERTEX
  8
gg1
 10
0.295000
 20
0.305000
  0
VERTEX
  8
gg1
 10
0.335000
 20
0.305000
  0
SEQEND
  8
gg1
  0
POLYLINE
  8
gg1
 62
1
 40
0.000000
 41
0.000000
 66
  1
  0
VERTEX
  8
gg1
 10
0.315000
 20
0.285000
  0
VERTEX
  8
gg1
 10
0.315000
 20
0.325000
  0
SEQEND
  8
gg1
  0
POLYLINE
  8
gg1
 62
1
 40
0.000000
 41
0.000000
 66
  1
  0
VERTEX
  8
gg1
 10
0.606500
 20
0.680000
  0
VERTEX
  8
gg1
 10
0.621500
 20
0.680000
  0
SEQEND
  8
gg1
  0
POLYLINE
  8
gg1
 62
1
 40
0.000000
 41
0.000000
 66
  1
  0
VERTEX
  8
gg1
 10
0.614000
 20
0.672500
  0
VERTEX
  8
gg1
 10
0.614000
 20
0.687500
  0
SEQEND
  8
gg1
  0
POLYLINE
  8
gg1
 62
1
 40
0.000000
 41
0.000000
 66
  1
  0
VERTEX
  8
gg1
 10
0.497500
 20
0.455000
  0
VERTEX
  8
gg1
 10
0.512500
 20
0.455000
  0
SEQEND
  8
gg1
  0
POLYLINE
  8
gg1
 62
1
 40
0.000000
 41
0.000000
 66
  1
  0
VERTEX
  8
gg1
 10
0.505000
 20
0.447500
  0
VERTEX
  8
gg1
 10
0.505000
 20
0.462500
  0
SEQEND
  8
gg1
  0
POLYLINE
  8
gg1
 62
1
 40
0.000000
 41
0.000000
 66
  1
  0
VERTEX
  8
gg1
 10
0.572500
 20
0.975000
  0
VERTEX
  8
gg1
 10
0.587500
 20
0.975000
  0
SEQEND
  8
gg1
  0
POLYLINE
  8
gg1
 62
1
 40
0.000000
 41
0.000000
 66
  1
  0
VERTEX
  8
gg1
 10
0.580000
 20
0.967500
  0
VERTEX
  8
gg1
 10
0.580000
 20
0.982500
  0
SEQEND
  8
gg1
  0
POLYLINE
  8
gg1
 62
1
 40
0.000000
 41
0.000000
 66
  1
  0
VERTEX
  8
gg1
 10
0.549500
 20
1.108000
  0
VERTEX
  8
gg1
 10
0.564500
 20
1.108000
  0
SEQEND
  8
gg1
  0
POLYLINE
  8
gg1
 62
1
 40
0.000000
 41
0.000000
 66
  1
  0
VERTEX
  8
gg1
 10
0.557000
 20
1.100500
  0
VERTEX
  8
gg1
 10
0.557000
 20
1.115500
  0
SEQEND
  8
gg1
  0
POLYLINE
  8
gg1
 62
1
 40
0.000000
 41
0.000000
 66
  1
  0
VERTEX
  8
gg1
 10
0.602500
 20
0.900000
  0
VERTEX
  8
gg1
 10
0.617500
 20
0.900000
  0
SEQEND
  8
gg1
  0
POLYLINE
  8
gg1
 62
1
 40
0.000000
 41
0.000000
 66
  1
  0
VERTEX
  8
gg1
 10
0.610000
 20
0.892500
  0
VERTEX
  8
gg1
 10
0.610000
 20
0.907500
  0
SEQEND
  8
gg1
  0
POLYLINE
  8
gg1
 62
1
 40
0.000000
 41
0.000000
 66
  1
  0
VERTEX
  8
gg1
 10
0.350500
 20
0.464000
  0
VERTEX
  8
gg1
 10
0.365500
 20
0.464000
  0
SEQEND
  8
gg1
  0
POLYLINE
  8
gg1
 62
1
 40
0.000000
 41
0.000000
 66
  1
  0
VERTEX
  8
gg1
 10
0.358000
 20
0.456500
  0
VERTEX
  8
gg1
 10
0.358000
 20
0.471500
  0
SEQEND
  8
gg1
  0
POLYLINE
  8
gg1
 62
1
 40
0.000000
 41
0.000000
 66
  1
  0
VERTEX
  8
gg1
 10
0.584500
 20
0.819000
  0
VERTEX
  8
gg1
 10
0.599500
 20
0.819000
  0
SEQEND
  8
gg1
  0
POLYLINE
  8
gg1
 62
1
 40
0.000000
 41
0.000000
 66
  1
  0
VERTEX
  8
gg1
 10
0.592000
 20
0.811500
  0
VERTEX
  8
gg1
 10
0.592000
 20
0.826500
  0
SEQEND
  8
gg1
  0
POLYLINE
  8
gg1
 62
1
 40
0.000000
 41
0.000000
 66
  1
  0
VERTEX
  8
gg1
 10
0.480500
 20
0.838000
  0
VERTEX
  8
gg1
 10
0.495500
 20
0.838000
  0
SEQEND
  8
gg1
  0
POLYLINE
  8
gg1
 62
1
 40
0.000000
 41
0.000000
 66
  1
  0
VERTEX
  8
gg1
 10
0.488000
 20
0.830500
  0
VERTEX
  8
gg1
 10
0.488000
 20
0.845500
  0
SEQEND
  8
gg1
  0
POLYLINE
  8
gg1
 62
1
 40
0.000000
 41
0.000000
 66
  1
  0
VERTEX
  8
gg1
 10
0.416000
 20
0.410000
  0
VERTEX
  8
gg1
 10
0.431000
 20
0.410000
  0
SEQEND
  8
gg1
  0
POLYLINE
  8
gg1
 62
1
 40
0.000000
 41
0.000000
 66
  1
  0
VERTEX
  8
gg1
 10
0.423500
 20
0.402500
  0
VERTEX
  8
gg1
 10
0.423500
 20
0.417500
  0
SEQEND
  8
gg1
  0
POLYLINE
  8
gg1
 62
1
 40
0.000000
 41
0.000000
 66
  1
  0
VERTEX
  8
gg1
 10
0.447500
 20
0.650000
  0
VERTEX
  8
gg1
 10
0.462500
 20
0.650000
  0
SEQEND
  8
gg1
  0
POLYLINE
  8
gg1
 62
1
 40
0.000000
 41
0.000000
 66
  1
  0
VERTEX
  8
gg1
 10
0.455000
 20
0.642500
  0
VERTEX
  8
gg1
 10
0.455000
 20
0.657500
  0
SEQEND
  8
gg1
  0
POLYLINE
  8
gg1
 62
1
 40
0.000000
 41
0.000000
 66
  1
  0
VERTEX
  8
gg1
 10
0.372500
 20
0.602000
  0
VERTEX
  8
gg1
 10
0.387500
 20
0.602000
  0
SEQEND
  8
gg1
  0
POLYLINE
  8
gg1
 62
1
 40
0.000000
 41
0.000000
 66
  1
  0
VERTEX
  8
gg1
 10
0.380000
 20
0.594500
  0
VERTEX
  8
gg1
 10
0.380000
 20
0.609500
  0
SEQEND
  8
gg1
  0
POLYLINE
  8
gg1
 62
1
 40
0.000000
 41
0.000000
 66
  1
  0
VERTEX
  8
gg1
 10
0.527500
 20
0.425000
  0
VERTEX
  8
gg1
 10
0.542500
 20
0.425000
  0
SEQEND
  8
gg1
  0
POLYLINE
  8
gg1
 62
1
 40
0.000000
 41
0.000000
 66
  1
  0
VERTEX
  8
gg1
 10
0.535000
 20
0.417500
  0
VERTEX
  8
gg1
 10
0.535000
 20
0.432500
  0
SEQEND
  8
gg1
  0
POLYLINE
  8
gg1
 62
1
 40
0.000000
 41
0.000000
 66
  1
  0
VERTEX
  8
gg1
 10
0.567500
 20
0.505000
  0
VERTEX
  8
gg1
 10
0.582500
 20
0.505000
  0
SEQEND
  8
gg1
  0
POLYLINE
  8
gg1
 62
1
 40
0.000000
 41
0.000000
 66
  1
  0
VERTEX
  8
gg1
 10
0.575000
 20
0.497500
  0
VERTEX
  8
gg1
 10
0.575000
 20
0.512500
  0
SEQEND
  8
gg1
  0
POLYLINE
  8
gg1
 62
1
 40
0.000000
 41
0.000000
 66
  1
  0
VERTEX
  8
gg1
 10
0.572500
 20
0.615000
  0
VERTEX
  8
gg1
 10
0.587500
 20
0.615000
  0
SEQEND
  8
gg1
  0
POLYLINE
  8
gg1
 62
1
 40
0.000000
 41
0.000000
 66
  1
  0
VERTEX
  8
gg1
 10
0.580000
 20
0.607500
  0
VERTEX
  8
gg1
 10
0.580000
 20
0.622500
  0
SEQEND
  8
gg1
  0
POLYLINE
  8
gg1
 62
1
 40
0.000000
 41
0.000000
 66
  1
  0
VERTEX
  8
gg1
 10
0.527500
 20
0.687000
  0
VERTEX
  8
gg1
 10
0.542500
 20
0.687000
  0
SEQEND
  8
gg1
  0
POLYLINE
  8
gg1
 62
1
 40
0.000000
 41
0.000000
 66
  1
  0
VERTEX
  8
gg1
 10
0.535000
 20
0.679500
  0
VERTEX
  8
gg1
 10
0.535000
 20
0.694500
  0
SEQEND
  8
gg1
  0
POLYLINE
  8
gg1
 62
1
 40
0.000000
 41
0.000000
 66
  1
  0
VERTEX
  8
gg1
 10
0.365500
 20
0.924000
  0
VERTEX
  8
gg1
 10
0.380500
 20
0.924000
  0
SEQEND
  8
gg1
  0
POLYLINE
  8
gg1
 62
1
 40
0.000000
 41
0.000000
 66
  1
  0
VERTEX
  8
gg1
 10
0.373000
 20
0.916500
  0
VERTEX
  8
gg1
 10
0.373000
 20
0.931500
  0
SEQEND
  8
gg1
  0
POLYLINE
  8
gg1
 62
1
 40
0.000000
 41
0.000000
 66
  1
  0
VERTEX
  8
gg1
 10
0.145000
 20
0.315000
  0
VERTEX
  8
gg1
 10
0.165000
 20
0.255000
  0
VERTEX
  8
gg1
 10
0.185000
 20
0.315000
  0
SEQEND
  8
gg1
  0
POLYLINE
  8
gg1
 62
1
 40
0.000000
 41
0.000000
 66
  1
  0
VERTEX
  8
gg1
 10
0.165000
 20
1.155000
  0
VERTEX
  8
gg1
 10
0.185000
 20
1.095000
  0
SEQEND
  8
gg1
  0
POLYLINE
  8
gg1
 62
1
 40
0.000000
 41
0.000000
 66
  1
  0
VERTEX
  8
gg1
 10
0.145000
 20
1.095000
  0
VERTEX
  8
gg1
 10
0.165000
 20
1.155000
  0
SEQEND
  8
gg1
  0
POLYLINE
  8
gg1
 62
1
 40
0.000000
 41
0.000000
 66
  1
  0
VERTEX
  8
gg1
 10
0.165000
 20
0.255000
  0
VERTEX
  8
gg1
 10
0.165000
 20
0.518100
  0
SEQEND
  8
gg1
  0
POLYLINE
  8
gg1
 62
1
 40
0.000000
 41
0.000000
 66
  1
  0
VERTEX
  8
gg1
 10
0.165000
 20
0.859900
  0
VERTEX
  8
gg1
 10
0.165000
 20
1.155000
  0
SEQEND
  8
gg1
  0
POLYLINE
  8
gg1
 62
1
 40
0.000000
 41
0.000000
 66
  1
  0
VERTEX
  8
gg1
 10
0.155000
 20
0.255000
  0
VERTEX
  8
gg1
 10
0.252500
 20
0.255000
  0
SEQEND
  8
gg1
  0
POLYLINE
  8
gg1
 62
1
 40
0.000000
 41
0.000000
 66
  1
  0
VERTEX
  8
gg1
 10
0.155000
 20
1.155000
  0
VERTEX
  8
gg1
 10
0.252500
 20
1.155000
  0
SEQEND
  8
gg1
  0
POLYLINE
  8
gg1
 62
1
 40
0.000000
 41
0.000000
 66
  1
  0
VERTEX
  8
gg1
 10
0.265000
 20
0.155000
  0
VERTEX
  8
gg1
 10
0.325000
 20
0.175000
  0
SEQEND
  8
gg1
  0
POLYLINE
  8
gg1
 62
1
 40
0.000000
 41
0.000000
 66
  1
  0
VERTEX
  8
gg1
 10
0.265000
 20
0.155000
  0
VERTEX
  8
gg1
 10
0.325000
 20
0.135000
  0
SEQEND
  8
gg1
  0
POLYLINE
  8
gg1
 62
1
 40
0.000000
 41
0.000000
 66
  1
  0
VERTEX
  8
gg1
 10
0.705000
 20
0.135000
  0
VERTEX
  8
gg1
 10
0.765000
 20
0.155000
  0
SEQEND
  8
gg1
  0
POLYLINE
  8
gg1
 62
1
 40
0.000000
 41
0.000000
 66
  1
  0
VERTEX
  8
gg1
 10
0.705000
 20
0.175000
  0
VERTEX
  8
gg1
 10
0.765000
 20
0.155000
  0
SEQEND
  8
gg1
  0
POLYLINE
  8
gg1
 62
1
 40
0.000000
 41
0.000000
 66
  1
  0
VERTEX
  8
gg1
 10
0.265000
 20
0.155000
  0
VERTEX
  8
gg1
 10
0.328000
 20
0.155000
  0
SEQEND
  8
gg1
  0
POLYLINE
  8
gg1
 62
1
 40
0.000000
 41
0.000000
 66
  1
  0
VERTEX
  8
gg1
 10
0.670000
 20
0.155000
  0
VERTEX
  8
gg1
 10
0.765000
 20
0.155000
  0
SEQEND
  8
gg1
  0
POLYLINE
  8
gg1
 62
1
 40
0.000000
 41
0.000000
 66
  1
  0
VERTEX
  8
gg1
 10
0.265000
 20
0.145000
  0
VERTEX
  8
gg1
 10
0.265000
 20
0.242500
  0
SEQEND
  8
gg1
  0
POLYLINE
  8
gg1
 62
1
 40
0.000000
 41
0.000000
 66
  1
  0
VERTEX
  8
gg1
 10
0.765000
 20
0.145000
  0
VERTEX
  8
gg1
 10
0.765000
 20
0.242500
  0
SEQEND
  8
gg1
  0
POLYLINE
  8
gg1
 62
1
 40
0.000000
 41
0.000000
 66
  1
  0
VERTEX
  8
gg1
 10
0.191000
 20
0.534000
  0
VERTEX
  8
gg1
 10
0.201000
 20
0.544000
  0
VERTEX
  8
gg1
 10
0.201000
 20
0.564000
  0
VERTEX
  8
gg1
 10
0.191000
 20
0.574000
  0
VERTEX
  8
gg1
 10
0.151000
 20
0.574000
  0
VERTEX
  8
gg1
 10
0.141000
 20
0.564000
  0
VERTEX
  8
gg1
 10
0.141000
 20
0.544000
  0
VERTEX
  8
gg1
 10
0.151000
 20
0.534000
  0
VERTEX
  8
gg1
 10
0.161000
 20
0.534000
  0
VERTEX
  8
gg1
 10
0.171000
 20
0.544000
  0
VERTEX
  8
gg1
 10
0.171000
 20
0.574000
  0
SEQEND
  8
gg1
  0
POLYLINE
  8
gg1
 62
1
 40
0.000000
 41
0.000000
 66
  1
  0
VERTEX
  8
gg1
 10
0.151000
 20
0.594000
  0
VERTEX
  8
gg1
 10
0.141000
 20
0.604000
  0
VERTEX
  8
gg1
 10
0.141000
 20
0.624000
  0
VERTEX
  8
gg1
 10
0.151000
 20
0.634000
  0
VERTEX
  8
gg1
 10
0.191000
 20
0.634000
  0
VERTEX
  8
gg1
 10
0.201000
 20
0.624000
  0
VERTEX
  8
gg1
 10
0.201000
 20
0.604000
  0
VERTEX
  8
gg1
 10
0.191000
 20
0.594000
  0
VERTEX
  8
gg1
 10
0.151000
 20
0.594000
  0
SEQEND
  8
gg1
  0
POLYLINE
  8
gg1
 62
1
 40
0.000000
 41
0.000000
 66
  1
  0
VERTEX
  8
gg1
 10
0.151000
 20
0.654000
  0
VERTEX
  8
gg1
 10
0.141000
 20
0.664000
  0
VERTEX
  8
gg1
 10
0.141000
 20
0.684000
  0
VERTEX
  8
gg1
 10
0.151000
 20
0.694000
  0
VERTEX
  8
gg1
 10
0.191000
 20
0.694000
  0
VERTEX
  8
gg1
 10
0.201000
 20
0.684000
  0
VERTEX
  8
gg1
 10
0.201000
 20
0.664000
  0
VERTEX
  8
gg1
 10
0.191000
 20
0.654000
  0
VERTEX
  8
gg1
 10
0.151000
 20
0.654000
  0
SEQEND
  8
gg1
  0
POLYLINE
  8
gg1
 62
1
 40
0.000000
 41
0.000000
 66
  1
  0
VERTEX
  8
gg1
 10
0.201000
 20
0.714000
  0
VERTEX
  8
gg1
 10
0.161000
 20
0.714000
  0
VERTEX
  8
gg1
 10
0.161000
 20
0.724000
  0
VERTEX
  8
gg1
 10
0.171000
 20
0.734000
  0
VERTEX
  8
gg1
 10
0.201000
 20
0.734000
  0
VERTEX
  8
gg1
 10
0.171000
 20
0.734000
  0
VERTEX
  8
gg1
 10
0.161000
 20
0.744000
  0
VERTEX
  8
gg1
 10
0.171000
 20
0.754000
  0
VERTEX
  8
gg1
 10
0.201000
 20
0.754000
  0
SEQEND
  8
gg1
  0
POLYLINE
  8
gg1
 62
1
 40
0.000000
 41
0.000000
 66
  1
  0
VERTEX
  8
gg1
 10
0.201000
 20
0.774000
  0
VERTEX
  8
gg1
 10
0.201000
 20
0.794000
  0
VERTEX
  8
gg1
 10
0.201000
 20
0.784000
  0
VERTEX
  8
gg1
 10
0.161000
 20
0.784000
  0
VERTEX
  8
gg1
 10
0.161000
 20
0.774000
  0
SEQEND
  8
gg1
  0
POLYLINE
  8
gg1
 62
1
 40
0.000000
 41
0.000000
 66
  1
  0
VERTEX
  8
gg1
 10
0.201000
 20
0.824000
  0
VERTEX
  8
gg1
 10
0.201000
 20
0.843900
  0
VERTEX
  8
gg1
 10
0.201000
 20
0.834000
  0
VERTEX
  8
gg1
 10
0.141000
 20
0.834000
  0
VERTEX
  8
gg1
 10
0.141000
 20
0.824000
  0
SEQEND
  8
gg1
  0
POLYLINE
  8
gg1
 62
1
 40
0.000000
 41
0.000000
 66
  1
  0
VERTEX
  8
gg1
 10
0.384000
 20
0.179000
  0
VERTEX
  8
gg1
 10
0.344000
 20
0.179000
  0
VERTEX
  8
gg1
 10
0.344000
 20
0.149000
  0
VERTEX
  8
gg1
 10
0.364000
 20
0.159000
  0
VERTEX
  8
gg1
 10
0.374000
 20
0.159000
  0
VERTEX
  8
gg1
 10
0.384000
 20
0.149000
  0
VERTEX
  8
gg1
 10
0.384000
 20
0.129000
  0
VERTEX
  8
gg1
 10
0.374000
 20
0.119000
  0
VERTEX
  8
gg1
 10
0.354000
 20
0.119000
  0
VERTEX
  8
gg1
 10
0.344000
 20
0.129000
  0
SEQEND
  8
gg1
  0
POLYLINE
  8
gg1
 62
1
 40
0.000000
 41
0.000000
 66
  1
  0
VERTEX
  8
gg1
 10
0.404000
 20
0.169000
  0
VERTEX
  8
gg1
 10
0.414000
 20
0.179000
  0
VERTEX
  8
gg1
 10
0.434000
 20
0.179000
  0
VERTEX
  8
gg1
 10
0.444000
 20
0.169000
  0
VERTEX
  8
gg1
 10
0.444000
 20
0.129000
  0
VERTEX
  8
gg1
 10
0.434000
 20
0.119000
  0
VERTEX
  8
gg1
 10
0.414000
 20
0.119000
  0
VERTEX
  8
gg1
 10
0.404000
 20
0.129000
  0
VERTEX
  8
gg1
 10
0.404000
 20
0.169000
  0
SEQEND
  8
gg1
  0
POLYLINE
  8
gg1
 62
1
 40
0.000000
 41
0.000000
 66
  1
  0
VERTEX
  8
gg1
 10
0.464000
 20
0.169000
  0
VERTEX
  8
gg1
 10
0.474000
 20
0.179000
  0
VERTEX
  8
gg1
 10
0.494000
 20
0.179000
  0
VERTEX
  8
gg1
 10
0.504000
 20
0.169000
  0
VERTEX
  8
gg1
 10
0.504000
 20
0.129000
  0
VERTEX
  8
gg1
 10
0.494000
 20
0.119000
  0
VERTEX
  8
gg1
 10
0.474000
 20
0.119000
  0
VERTEX
  8
gg1
 10
0.464000
 20
0.129000
  0
VERTEX
  8
gg1
 10
0.464000
 20
0.169000
  0
SEQEND
  8
gg1
  0
POLYLINE
  8
gg1
 62
1
 40
0.000000
 41
0.000000
 66
  1
  0
VERTEX
  8
gg1
 10
0.524000
 20
0.119000
  0
VERTEX
  8
gg1
 10
0.524000
 20
0.159000
  0
VERTEX
  8
gg1
 10
0.534000
 20
0.159000
  0
VERTEX
  8
gg1
 10
0.544000
 20
0.149000
  0
VERTEX
  8
gg1
 10
0.544000
 20
0.119000
  0
VERTEX
  8
gg1
 10
0.544000
 20
0.149000
  0
VERTEX
  8
gg1
 10
0.554000
 20
0.159000
  0
VERTEX
  8
gg1
 10
0.564000
 20
0.149000
  0
VERTEX
  8
gg1
 10
0.564000
 20
0.119000
  0
SEQEND
  8
gg1
  0
POLYLINE
  8
gg1
 62
1
 40
0.000000
 41
0.000000
 66
  1
  0
VERTEX
  8
gg1
 10
0.584000
 20
0.119000
  0
VERTEX
  8
gg1
 10
0.604000
 20
0.119000
  0
VERTEX
  8
gg1
 10
0.594000
 20
0.119000
  0
VERTEX
  8
gg1
 10
0.594000
 20
0.159000
  0
VERTEX
  8
gg1
 10
0.584000
 20
0.159000
  0
SEQEND
  8
gg1
  0
POLYLINE
  8
gg1
 62
1
 40
0.000000
 41
0.000000
 66
  1
  0
VERTEX
  8
gg1
 10
0.634000
 20
0.119000
  0
VERTEX
  8
gg1
 10
0.653900
 20
0.119000
  0
VERTEX
  8
gg1
 10
0.644000
 20
0.119000
  0
VERTEX
  8
gg1
 10
0.644000
 20
0.179000
  0
VERTEX
  8
gg1
 10
0.634000
 20
0.179000
  0
SEQEND
  8
gg1
  0
ENDSEC
  0
EOF
