  0
SECTION
  2
HEADER
  9
$EXTMIN
 10
-0.127000
 20
-0.139000
  9
$EXTMAX
 10
2.561000
 20
2.207000
  9
$LIMMIN
 10
-0.127000
 20
-0.139000
  9
$LIMMAX
 10
2.561000
 20
2.207000
  9
$FILLMODE
 70
  1
  0
ENDSEC
  0
SECTION
  2
TABLES
  0
TABLE
  2
LTYPE
 70
  1
  0
LTYPE
  2
CONTINUOUS
 70
 64
  3
Solid line
 72
 65
 73
  0
 40
0.0
  0
ENDTAB
  0
TABLE
  2
LAYER
 70
 1
  0
LAYER
  2
0
 70
  0
 62
7
  6
CONTINUOUS
  0
LAYER
  2
gg1
 70
  0
 62
1
  6
CONTINUOUS
  0
ENDTAB
  0
TABLE
  2
STYLE
 70
  1
  0
STYLE
  2
STANDARD
 70
  0
 40
0.0
 41
1.0
 50
0.0
 71
  0
 42
0.2
  3
txt
  4

  0
ENDTAB
  0
ENDSEC
  0
SECTION
  2
BLOCKS
  0
BLOCK
  8
0
  2
D10
 70
64
 10
0.0
 20
0.0
  3
D10
  0
CIRCLE
  8
0
 10
0.000000
 20
0.000000
 40
0.002500
 0
ENDBLK
  8
0
  0
BLOCK
  8
0
  2
D11
 70
64
 10
0.0
 20
0.0
  3
D11
  0
CIRCLE
  8
0
 10
0.000000
 20
0.000000
 40
0.003000
 0
ENDBLK
  8
0
  0
BLOCK
  8
0
  2
D12
 70
64
 10
0.0
 20
0.0
  3
D12
  0
CIRCLE
  8
0
 10
0.000000
 20
0.000000
 40
0.001000
 0
ENDBLK
  8
0
  0
ENDSEC
  0
SECTION
  2
ENTITIES
  0
POLYLINE
  8
gg1
 62
1
 40
0.000000
 41
0.000000
 66
  1
  0
VERTEX
  8
gg1
 10
0.000000
 20
0.118100
  0
VERTEX
  8
gg1
 10
0.000000
 20
0.118100
  0
VERTEX
  8
gg1
 10
0.000000
 20
0.118100
 42
0.414214
  0
VERTEX
  8
gg1
 10
0.118100
 20
0.000000
  0
VERTEX
  8
gg1
 10
0.118100
 20
0.000000
  0
SEQEND
  8
gg1
  0
POLYLINE
  8
gg1
 62
1
 40
0.000000
 41
0.000000
 66
  1
  0
VERTEX
  8
gg1
 10
2.440900
 20
0.000000
  0
VERTEX
  8
gg1
 10
2.440900
 20
0.000000
  0
VERTEX
  8
gg1
 10
2.440900
 20
0.000000
 42
0.413615
  0
VERTEX
  8
gg1
 10
2.559100
 20
0.118100
  0
VERTEX
  8
gg1
 10
2.559100
 20
0.118100
  0
SEQEND
  8
gg1
  0
POLYLINE
  8
gg1
 62
1
 40
0.000000
 41
0.000000
 66
  1
  0
VERTEX
  8
gg1
 10
0.118100
 20
2.204700
  0
VERTEX
  8
gg1
 10
0.118100
 20
2.204700
  0
VERTEX
  8
gg1
 10
0.118100
 20
2.204700
 42
0.414214
  0
VERTEX
  8
gg1
 10
0.000000
 20
2.086600
  0
VERTEX
  8
gg1
 10
0.000000
 20
2.086600
  0
SEQEND
  8
gg1
  0
POLYLINE
  8
gg1
 62
1
 40
0.000000
 41
0.000000
 66
  1
  0
VERTEX
  8
gg1
 10
2.559100
 20
2.086600
  0
VERTEX
  8
gg1
 10
2.559100
 20
2.086600
  0
VERTEX
  8
gg1
 10
2.559100
 20
2.086600
 42
0.414461
  0
VERTEX
  8
gg1
 10
2.440900
 20
2.204700
  0
VERTEX
  8
gg1
 10
2.440900
 20
2.204700
  0
SEQEND
  8
gg1
  0
POLYLINE
  8
gg1
 62
1
 40
0.000000
 41
0.000000
 66
  1
  0
VERTEX
  8
gg1
 10
0.039400
 20
0.767700
  0
VERTEX
  8
gg1
 10
0.039400
 20
0.767700
  0
VERTEX
  8
gg1
 10
0.039400
 20
0.767700
 42
0.414214
  0
VERTEX
  8
gg1
 10
0.000000
 20
0.728300
  0
VERTEX
  8
gg1
 10
0.000000
 20
0.728300
  0
SEQEND
  8
gg1
  0
POLYLINE
  8
gg1
 62
1
 40
0.000000
 41
0.000000
 66
  1
  0
VERTEX
  8
gg1
 10
0.157500
 20
0.767700
  0
VERTEX
  8
gg1
 10
0.157500
 20
0.767700
  0
VERTEX
  8
gg1
 10
0.157500
 20
0.767700
 42
0.414214
  0
VERTEX
  8
gg1
 10
0.196900
 20
0.807100
  0
VERTEX
  8
gg1
 10
0.196900
 20
0.807100
  0
SEQEND
  8
gg1
  0
POLYLINE
  8
gg1
 62
1
 40
0.000000
 41
0.000000
 66
  1
  0
VERTEX
  8
gg1
 10
0.196900
 20
1.397600
  0
VERTEX
  8
gg1
 10
0.196900
 20
1.397600
  0
VERTEX
  8
gg1
 10
0.196900
 20
1.397600
 42
0.414214
  0
VERTEX
  8
gg1
 10
0.157500
 20
1.437000
  0
VERTEX
  8
gg1
 10
0.157500
 20
1.437000
  0
SEQEND
  8
gg1
  0
POLYLINE
  8
gg1
 62
1
 40
0.000000
 41
0.000000
 66
  1
  0
VERTEX
  8
gg1
 10
0.000000
 20
1.476400
  0
VERTEX
  8
gg1
 10
0.000000
 20
1.476400
  0
VERTEX
  8
gg1
 10
0.000000
 20
1.476400
 42
0.414214
  0
VERTEX
  8
gg1
 10
0.039400
 20
1.437000
  0
VERTEX
  8
gg1
 10
0.039400
 20
1.437000
  0
SEQEND
  8
gg1
  0
POLYLINE
  8
gg1
 62
1
 40
0.000000
 41
0.000000
 66
  1
  0
VERTEX
  8
gg1
 10
1.811000
 20
0.748000
  0
VERTEX
  8
gg1
 10
1.811000
 20
0.748000
  0
VERTEX
  8
gg1
 10
1.811000
 20
0.748000
 42
1.000000
  0
VERTEX
  8
gg1
 10
1.732300
 20
0.748000
  0
VERTEX
  8
gg1
 10
1.732300
 20
0.748000
  0
SEQEND
  8
gg1
  0
POLYLINE
  8
gg1
 62
1
 40
0.000000
 41
0.000000
 66
  1
  0
VERTEX
  8
gg1
 10
1.732300
 20
0.157500
  0
VERTEX
  8
gg1
 10
1.732300
 20
0.157500
  0
VERTEX
  8
gg1
 10
1.732300
 20
0.157500
 42
1.000000
  0
VERTEX
  8
gg1
 10
1.811000
 20
0.157500
  0
VERTEX
  8
gg1
 10
1.811000
 20
0.157500
  0
SEQEND
  8
gg1
  0
POLYLINE
  8
gg1
 62
1
 40
0.000000
 41
0.000000
 66
  1
  0
VERTEX
  8
gg1
 10
2.559100
 20
0.118100
  0
VERTEX
  8
gg1
 10
2.559100
 20
2.086600
  0
SEQEND
  8
gg1
  0
POLYLINE
  8
gg1
 62
1
 40
0.000000
 41
0.000000
 66
  1
  0
VERTEX
  8
gg1
 10
0.118100
 20
0.000000
  0
VERTEX
  8
gg1
 10
2.440900
 20
0.000000
  0
SEQEND
  8
gg1
  0
POLYLINE
  8
gg1
 62
1
 40
0.000000
 41
0.000000
 66
  1
  0
VERTEX
  8
gg1
 10
0.118100
 20
2.204700
  0
VERTEX
  8
gg1
 10
2.440900
 20
2.204700
  0
SEQEND
  8
gg1
  0
POLYLINE
  8
gg1
 62
1
 40
0.000000
 41
0.000000
 66
  1
  0
VERTEX
  8
gg1
 10
0.000000
 20
1.476400
  0
VERTEX
  8
gg1
 10
0.000000
 20
2.086600
  0
SEQEND
  8
gg1
  0
POLYLINE
  8
gg1
 62
1
 40
0.000000
 41
0.000000
 66
  1
  0
VERTEX
  8
gg1
 10
0.039400
 20
1.437000
  0
VERTEX
  8
gg1
 10
0.157500
 20
1.437000
  0
SEQEND
  8
gg1
  0
POLYLINE
  8
gg1
 62
1
 40
0.000000
 41
0.000000
 66
  1
  0
VERTEX
  8
gg1
 10
0.196900
 20
0.807100
  0
VERTEX
  8
gg1
 10
0.196900
 20
1.397600
  0
SEQEND
  8
gg1
  0
POLYLINE
  8
gg1
 62
1
 40
0.000000
 41
0.000000
 66
  1
  0
VERTEX
  8
gg1
 10
0.039400
 20
0.767700
  0
VERTEX
  8
gg1
 10
0.157500
 20
0.767700
  0
SEQEND
  8
gg1
  0
POLYLINE
  8
gg1
 62
1
 40
0.000000
 41
0.000000
 66
  1
  0
VERTEX
  8
gg1
 10
0.000000
 20
0.118100
  0
VERTEX
  8
gg1
 10
0.000000
 20
0.728300
  0
SEQEND
  8
gg1
  0
POLYLINE
  8
gg1
 62
1
 40
0.000000
 41
0.000000
 66
  1
  0
VERTEX
  8
gg1
 10
1.811000
 20
0.157500
  0
VERTEX
  8
gg1
 10
1.811000
 20
0.748000
  0
SEQEND
  8
gg1
  0
POLYLINE
  8
gg1
 62
1
 40
0.000000
 41
0.000000
 66
  1
  0
VERTEX
  8
gg1
 10
1.732300
 20
0.155500
  0
VERTEX
  8
gg1
 10
1.732300
 20
0.748000
  0
SEQEND
  8
gg1
  0
POLYLINE
  8
gg1
 62
1
 40
0.000000
 41
0.000000
 66
  1
  0
VERTEX
  8
gg1
 10
-0.120000
 20
0.060000
  0
VERTEX
  8
gg1
 10
-0.100000
 20
0.000000
  0
VERTEX
  8
gg1
 10
-0.080000
 20
0.060000
  0
SEQEND
  8
gg1
  0
POLYLINE
  8
gg1
 62
1
 40
0.000000
 41
0.000000
 66
  1
  0
VERTEX
  8
gg1
 10
-0.100000
 20
2.204700
  0
VERTEX
  8
gg1
 10
-0.080000
 20
2.144700
  0
SEQEND
  8
gg1
  0
POLYLINE
  8
gg1
 62
1
 40
0.000000
 41
0.000000
 66
  1
  0
VERTEX
  8
gg1
 10
-0.120000
 20
2.144700
  0
VERTEX
  8
gg1
 10
-0.100000
 20
2.204700
  0
SEQEND
  8
gg1
  0
POLYLINE
  8
gg1
 62
1
 40
0.000000
 41
0.000000
 66
  1
  0
VERTEX
  8
gg1
 10
-0.100000
 20
0.000000
  0
VERTEX
  8
gg1
 10
-0.100000
 20
0.905400
  0
SEQEND
  8
gg1
  0
POLYLINE
  8
gg1
 62
1
 40
0.000000
 41
0.000000
 66
  1
  0
VERTEX
  8
gg1
 10
-0.100000
 20
1.267300
  0
VERTEX
  8
gg1
 10
-0.100000
 20
2.204700
  0
SEQEND
  8
gg1
  0
POLYLINE
  8
gg1
 62
1
 40
0.000000
 41
0.000000
 66
  1
  0
VERTEX
  8
gg1
 10
-0.110000
 20
0.000000
  0
VERTEX
  8
gg1
 10
0.040600
 20
0.000000
  0
SEQEND
  8
gg1
  0
POLYLINE
  8
gg1
 62
1
 40
0.000000
 41
0.000000
 66
  1
  0
VERTEX
  8
gg1
 10
-0.110000
 20
2.204700
  0
VERTEX
  8
gg1
 10
0.043100
 20
2.204700
  0
SEQEND
  8
gg1
  0
POLYLINE
  8
gg1
 62
1
 40
0.000000
 41
0.000000
 66
  1
  0
VERTEX
  8
gg1
 10
0.000000
 20
-0.100000
  0
VERTEX
  8
gg1
 10
0.060000
 20
-0.080000
  0
SEQEND
  8
gg1
  0
POLYLINE
  8
gg1
 62
1
 40
0.000000
 41
0.000000
 66
  1
  0
VERTEX
  8
gg1
 10
0.000000
 20
-0.100000
  0
VERTEX
  8
gg1
 10
0.060000
 20
-0.120000
  0
SEQEND
  8
gg1
  0
POLYLINE
  8
gg1
 62
1
 40
0.000000
 41
0.000000
 66
  1
  0
VERTEX
  8
gg1
 10
2.499100
 20
-0.120000
  0
VERTEX
  8
gg1
 10
2.559100
 20
-0.100000
  0
SEQEND
  8
gg1
  0
POLYLINE
  8
gg1
 62
1
 40
0.000000
 41
0.000000
 66
  1
  0
VERTEX
  8
gg1
 10
2.499100
 20
-0.080000
  0
VERTEX
  8
gg1
 10
2.559100
 20
-0.100000
  0
SEQEND
  8
gg1
  0
POLYLINE
  8
gg1
 62
1
 40
0.000000
 41
0.000000
 66
  1
  0
VERTEX
  8
gg1
 10
0.000000
 20
-0.100000
  0
VERTEX
  8
gg1
 10
1.082600
 20
-0.100000
  0
SEQEND
  8
gg1
  0
POLYLINE
  8
gg1
 62
1
 40
0.000000
 41
0.000000
 66
  1
  0
VERTEX
  8
gg1
 10
1.444500
 20
-0.100000
  0
VERTEX
  8
gg1
 10
2.559100
 20
-0.100000
  0
SEQEND
  8
gg1
  0
POLYLINE
  8
gg1
 62
1
 40
0.000000
 41
0.000000
 66
  1
  0
VERTEX
  8
gg1
 10
0.000000
 20
-0.110000
  0
VERTEX
  8
gg1
 10
0.000000
 20
0.040600
  0
SEQEND
  8
gg1
  0
POLYLINE
  8
gg1
 62
1
 40
0.000000
 41
0.000000
 66
  1
  0
VERTEX
  8
gg1
 10
2.559100
 20
-0.110000
  0
VERTEX
  8
gg1
 10
2.559100
 20
0.040600
  0
SEQEND
  8
gg1
  0
POLYLINE
  8
gg1
 62
1
 40
0.000000
 41
0.000000
 66
  1
  0
VERTEX
  8
gg1
 10
-0.124000
 20
0.961400
  0
VERTEX
  8
gg1
 10
-0.124000
 20
0.921400
  0
VERTEX
  8
gg1
 10
-0.094000
 20
0.921400
  0
VERTEX
  8
gg1
 10
-0.104000
 20
0.941400
  0
VERTEX
  8
gg1
 10
-0.104000
 20
0.951400
  0
VERTEX
  8
gg1
 10
-0.094000
 20
0.961400
  0
VERTEX
  8
gg1
 10
-0.074000
 20
0.961400
  0
VERTEX
  8
gg1
 10
-0.064000
 20
0.951400
  0
VERTEX
  8
gg1
 10
-0.064000
 20
0.931400
  0
VERTEX
  8
gg1
 10
-0.074000
 20
0.921400
  0
SEQEND
  8
gg1
  0
POLYLINE
  8
gg1
 62
1
 40
0.000000
 41
0.000000
 66
  1
  0
VERTEX
  8
gg1
 10
-0.124000
 20
1.021400
  0
VERTEX
  8
gg1
 10
-0.114000
 20
1.001400
  0
VERTEX
  8
gg1
 10
-0.094000
 20
0.981400
  0
VERTEX
  8
gg1
 10
-0.074000
 20
0.981400
  0
VERTEX
  8
gg1
 10
-0.064000
 20
0.991400
  0
VERTEX
  8
gg1
 10
-0.064000
 20
1.011400
  0
VERTEX
  8
gg1
 10
-0.074000
 20
1.021400
  0
VERTEX
  8
gg1
 10
-0.084000
 20
1.021400
  0
VERTEX
  8
gg1
 10
-0.094000
 20
1.011400
  0
VERTEX
  8
gg1
 10
-0.094000
 20
0.981400
  0
SEQEND
  8
gg1
  0
POLYLINE
  8
gg1
 62
1
 40
0.000000
 41
0.000000
 66
  1
  0
VERTEX
  8
gg1
 10
-0.064000
 20
1.041400
  0
VERTEX
  8
gg1
 10
-0.074000
 20
1.041400
  0
VERTEX
  8
gg1
 10
-0.074000
 20
1.051400
  0
VERTEX
  8
gg1
 10
-0.064000
 20
1.051400
  0
VERTEX
  8
gg1
 10
-0.064000
 20
1.041400
  0
SEQEND
  8
gg1
  0
POLYLINE
  8
gg1
 62
1
 40
0.000000
 41
0.000000
 66
  1
  0
VERTEX
  8
gg1
 10
-0.114000
 20
1.091400
  0
VERTEX
  8
gg1
 10
-0.124000
 20
1.101400
  0
VERTEX
  8
gg1
 10
-0.124000
 20
1.121400
  0
VERTEX
  8
gg1
 10
-0.114000
 20
1.131300
  0
VERTEX
  8
gg1
 10
-0.074000
 20
1.131300
  0
VERTEX
  8
gg1
 10
-0.064000
 20
1.121400
  0
VERTEX
  8
gg1
 10
-0.064000
 20
1.101400
  0
VERTEX
  8
gg1
 10
-0.074000
 20
1.091400
  0
VERTEX
  8
gg1
 10
-0.114000
 20
1.091400
  0
SEQEND
  8
gg1
  0
POLYLINE
  8
gg1
 62
1
 40
0.000000
 41
0.000000
 66
  1
  0
VERTEX
  8
gg1
 10
-0.064000
 20
1.151300
  0
VERTEX
  8
gg1
 10
-0.104000
 20
1.151300
  0
VERTEX
  8
gg1
 10
-0.104000
 20
1.161300
  0
VERTEX
  8
gg1
 10
-0.094000
 20
1.171300
  0
VERTEX
  8
gg1
 10
-0.064000
 20
1.171300
  0
VERTEX
  8
gg1
 10
-0.094000
 20
1.171300
  0
VERTEX
  8
gg1
 10
-0.104000
 20
1.181300
  0
VERTEX
  8
gg1
 10
-0.094000
 20
1.191300
  0
VERTEX
  8
gg1
 10
-0.064000
 20
1.191300
  0
SEQEND
  8
gg1
  0
POLYLINE
  8
gg1
 62
1
 40
0.000000
 41
0.000000
 66
  1
  0
VERTEX
  8
gg1
 10
-0.064000
 20
1.211300
  0
VERTEX
  8
gg1
 10
-0.104000
 20
1.211300
  0
VERTEX
  8
gg1
 10
-0.104000
 20
1.221300
  0
VERTEX
  8
gg1
 10
-0.094000
 20
1.231300
  0
VERTEX
  8
gg1
 10
-0.064000
 20
1.231300
  0
VERTEX
  8
gg1
 10
-0.094000
 20
1.231300
  0
VERTEX
  8
gg1
 10
-0.104000
 20
1.241300
  0
VERTEX
  8
gg1
 10
-0.094000
 20
1.251300
  0
VERTEX
  8
gg1
 10
-0.064000
 20
1.251300
  0
SEQEND
  8
gg1
  0
POLYLINE
  8
gg1
 62
1
 40
0.000000
 41
0.000000
 66
  1
  0
VERTEX
  8
gg1
 10
1.138600
 20
-0.076000
  0
VERTEX
  8
gg1
 10
1.118600
 20
-0.086000
  0
VERTEX
  8
gg1
 10
1.098600
 20
-0.106000
  0
VERTEX
  8
gg1
 10
1.098600
 20
-0.126000
  0
VERTEX
  8
gg1
 10
1.108600
 20
-0.136000
  0
VERTEX
  8
gg1
 10
1.128600
 20
-0.136000
  0
VERTEX
  8
gg1
 10
1.138600
 20
-0.126000
  0
VERTEX
  8
gg1
 10
1.138600
 20
-0.116000
  0
VERTEX
  8
gg1
 10
1.128600
 20
-0.106000
  0
VERTEX
  8
gg1
 10
1.098600
 20
-0.106000
  0
SEQEND
  8
gg1
  0
POLYLINE
  8
gg1
 62
1
 40
0.000000
 41
0.000000
 66
  1
  0
VERTEX
  8
gg1
 10
1.198500
 20
-0.076000
  0
VERTEX
  8
gg1
 10
1.158600
 20
-0.076000
  0
VERTEX
  8
gg1
 10
1.158600
 20
-0.106000
  0
VERTEX
  8
gg1
 10
1.178600
 20
-0.096000
  0
VERTEX
  8
gg1
 10
1.188600
 20
-0.096000
  0
VERTEX
  8
gg1
 10
1.198500
 20
-0.106000
  0
VERTEX
  8
gg1
 10
1.198500
 20
-0.126000
  0
VERTEX
  8
gg1
 10
1.188600
 20
-0.136000
  0
VERTEX
  8
gg1
 10
1.168600
 20
-0.136000
  0
VERTEX
  8
gg1
 10
1.158600
 20
-0.126000
  0
SEQEND
  8
gg1
  0
POLYLINE
  8
gg1
 62
1
 40
0.000000
 41
0.000000
 66
  1
  0
VERTEX
  8
gg1
 10
1.218500
 20
-0.136000
  0
VERTEX
  8
gg1
 10
1.218500
 20
-0.126000
  0
VERTEX
  8
gg1
 10
1.228500
 20
-0.126000
  0
VERTEX
  8
gg1
 10
1.228500
 20
-0.136000
  0
VERTEX
  8
gg1
 10
1.218500
 20
-0.136000
  0
SEQEND
  8
gg1
  0
POLYLINE
  8
gg1
 62
1
 40
0.000000
 41
0.000000
 66
  1
  0
VERTEX
  8
gg1
 10
1.268500
 20
-0.086000
  0
VERTEX
  8
gg1
 10
1.278500
 20
-0.076000
  0
VERTEX
  8
gg1
 10
1.298500
 20
-0.076000
  0
VERTEX
  8
gg1
 10
1.308500
 20
-0.086000
  0
VERTEX
  8
gg1
 10
1.308500
 20
-0.126000
  0
VERTEX
  8
gg1
 10
1.298500
 20
-0.136000
  0
VERTEX
  8
gg1
 10
1.278500
 20
-0.136000
  0
VERTEX
  8
gg1
 10
1.268500
 20
-0.126000
  0
VERTEX
  8
gg1
 10
1.268500
 20
-0.086000
  0
SEQEND
  8
gg1
  0
POLYLINE
  8
gg1
 62
1
 40
0.000000
 41
0.000000
 66
  1
  0
VERTEX
  8
gg1
 10
1.328500
 20
-0.136000
  0
VERTEX
  8
gg1
 10
1.328500
 20
-0.096000
  0
VERTEX
  8
gg1
 10
1.338500
 20
-0.096000
  0
VERTEX
  8
gg1
 10
1.348500
 20
-0.106000
  0
VERTEX
  8
gg1
 10
1.348500
 20
-0.136000
  0
VERTEX
  8
gg1
 10
1.348500
 20
-0.106000
  0
VERTEX
  8
gg1
 10
1.358500
 20
-0.096000
  0
VERTEX
  8
gg1
 10
1.368500
 20
-0.106000
  0
VERTEX
  8
gg1
 10
1.368500
 20
-0.136000
  0
SEQEND
  8
gg1
  0
POLYLINE
  8
gg1
 62
1
 40
0.000000
 41
0.000000
 66
  1
  0
VERTEX
  8
gg1
 10
1.388500
 20
-0.136000
  0
VERTEX
  8
gg1
 10
1.388500
 20
-0.096000
  0
VERTEX
  8
gg1
 10
1.398500
 20
-0.096000
  0
VERTEX
  8
gg1
 10
1.408500
 20
-0.106000
  0
VERTEX
  8
gg1
 10
1.408500
 20
-0.136000
  0
VERTEX
  8
gg1
 10
1.408500
 20
-0.106000
  0
VERTEX
  8
gg1
 10
1.418500
 20
-0.096000
  0
VERTEX
  8
gg1
 10
1.428500
 20
-0.106000
  0
VERTEX
  8
gg1
 10
1.428500
 20
-0.136000
  0
SEQEND
  8
gg1
  0
POLYLINE
  8
gg1
 62
1
 40
0.000000
 41
0.000000
 66
  1
  0
VERTEX
  8
gg1
 10
0.140000
 20
0.705000
  0
VERTEX
  8
gg1
 10
0.180000
 20
0.705000
  0
SEQEND
  8
gg1
  0
POLYLINE
  8
gg1
 62
1
 40
0.000000
 41
0.000000
 66
  1
  0
VERTEX
  8
gg1
 10
0.160000
 20
0.685000
  0
VERTEX
  8
gg1
 10
0.160000
 20
0.725000
  0
SEQEND
  8
gg1
  0
POLYLINE
  8
gg1
 62
1
 40
0.000000
 41
0.000000
 66
  1
  0
VERTEX
  8
gg1
 10
0.040000
 20
0.705000
  0
VERTEX
  8
gg1
 10
0.080000
 20
0.705000
  0
SEQEND
  8
gg1
  0
POLYLINE
  8
gg1
 62
1
 40
0.000000
 41
0.000000
 66
  1
  0
VERTEX
  8
gg1
 10
0.060000
 20
0.685000
  0
VERTEX
  8
gg1
 10
0.060000
 20
0.725000
  0
SEQEND
  8
gg1
  0
POLYLINE
  8
gg1
 62
1
 40
0.000000
 41
0.000000
 66
  1
  0
VERTEX
  8
gg1
 10
1.460000
 20
1.585000
  0
VERTEX
  8
gg1
 10
1.480000
 20
1.585000
  0
SEQEND
  8
gg1
  0
POLYLINE
  8
gg1
 62
1
 40
0.000000
 41
0.000000
 66
  1
  0
VERTEX
  8
gg1
 10
1.470000
 20
1.575000
  0
VERTEX
  8
gg1
 10
1.470000
 20
1.595000
  0
SEQEND
  8
gg1
  0
POLYLINE
  8
gg1
 62
1
 40
0.000000
 41
0.000000
 66
  1
  0
VERTEX
  8
gg1
 10
0.360000
 20
1.770000
  0
VERTEX
  8
gg1
 10
0.400000
 20
1.770000
  0
SEQEND
  8
gg1
  0
POLYLINE
  8
gg1
 62
1
 40
0.000000
 41
0.000000
 66
  1
  0
VERTEX
  8
gg1
 10
0.380000
 20
1.750000
  0
VERTEX
  8
gg1
 10
0.380000
 20
1.790000
  0
SEQEND
  8
gg1
  0
POLYLINE
  8
gg1
 62
1
 40
0.000000
 41
0.000000
 66
  1
  0
VERTEX
  8
gg1
 10
0.360000
 20
1.670000
  0
VERTEX
  8
gg1
 10
0.400000
 20
1.670000
  0
SEQEND
  8
gg1
  0
POLYLINE
  8
gg1
 62
1
 40
0.000000
 41
0.000000
 66
  1
  0
VERTEX
  8
gg1
 10
0.380000
 20
1.650000
  0
VERTEX
  8
gg1
 10
0.380000
 20
1.690000
  0
SEQEND
  8
gg1
  0
POLYLINE
  8
gg1
 62
1
 40
0.000000
 41
0.000000
 66
  1
  0
VERTEX
  8
gg1
 10
0.560000
 20
1.770000
  0
VERTEX
  8
gg1
 10
0.600000
 20
1.770000
  0
SEQEND
  8
gg1
  0
POLYLINE
  8
gg1
 62
1
 40
0.000000
 41
0.000000
 66
  1
  0
VERTEX
  8
gg1
 10
0.580000
 20
1.750000
  0
VERTEX
  8
gg1
 10
0.580000
 20
1.790000
  0
SEQEND
  8
gg1
  0
POLYLINE
  8
gg1
 62
1
 40
0.000000
 41
0.000000
 66
  1
  0
VERTEX
  8
gg1
 10
0.460000
 20
1.770000
  0
VERTEX
  8
gg1
 10
0.500000
 20
1.770000
  0
SEQEND
  8
gg1
  0
POLYLINE
  8
gg1
 62
1
 40
0.000000
 41
0.000000
 66
  1
  0
VERTEX
  8
gg1
 10
0.480000
 20
1.750000
  0
VERTEX
  8
gg1
 10
0.480000
 20
1.790000
  0
SEQEND
  8
gg1
  0
POLYLINE
  8
gg1
 62
1
 40
0.000000
 41
0.000000
 66
  1
  0
VERTEX
  8
gg1
 10
0.460000
 20
1.670000
  0
VERTEX
  8
gg1
 10
0.500000
 20
1.670000
  0
SEQEND
  8
gg1
  0
POLYLINE
  8
gg1
 62
1
 40
0.000000
 41
0.000000
 66
  1
  0
VERTEX
  8
gg1
 10
0.480000
 20
1.650000
  0
VERTEX
  8
gg1
 10
0.480000
 20
1.690000
  0
SEQEND
  8
gg1
  0
POLYLINE
  8
gg1
 62
1
 40
0.000000
 41
0.000000
 66
  1
  0
VERTEX
  8
gg1
 10
0.560000
 20
1.670000
  0
VERTEX
  8
gg1
 10
0.600000
 20
1.670000
  0
SEQEND
  8
gg1
  0
POLYLINE
  8
gg1
 62
1
 40
0.000000
 41
0.000000
 66
  1
  0
VERTEX
  8
gg1
 10
0.580000
 20
1.650000
  0
VERTEX
  8
gg1
 10
0.580000
 20
1.690000
  0
SEQEND
  8
gg1
  0
POLYLINE
  8
gg1
 62
1
 40
0.000000
 41
0.000000
 66
  1
  0
VERTEX
  8
gg1
 10
2.080000
 20
1.200000
  0
VERTEX
  8
gg1
 10
2.100000
 20
1.200000
  0
SEQEND
  8
gg1
  0
POLYLINE
  8
gg1
 62
1
 40
0.000000
 41
0.000000
 66
  1
  0
VERTEX
  8
gg1
 10
2.090000
 20
1.190000
  0
VERTEX
  8
gg1
 10
2.090000
 20
1.210000
  0
SEQEND
  8
gg1
  0
POLYLINE
  8
gg1
 62
1
 40
0.000000
 41
0.000000
 66
  1
  0
VERTEX
  8
gg1
 10
2.130000
 20
1.275000
  0
VERTEX
  8
gg1
 10
2.150000
 20
1.275000
  0
SEQEND
  8
gg1
  0
POLYLINE
  8
gg1
 62
1
 40
0.000000
 41
0.000000
 66
  1
  0
VERTEX
  8
gg1
 10
2.140000
 20
1.265000
  0
VERTEX
  8
gg1
 10
2.140000
 20
1.285000
  0
SEQEND
  8
gg1
  0
POLYLINE
  8
gg1
 62
1
 40
0.000000
 41
0.000000
 66
  1
  0
VERTEX
  8
gg1
 10
2.165000
 20
1.495000
  0
VERTEX
  8
gg1
 10
2.185000
 20
1.495000
  0
SEQEND
  8
gg1
  0
POLYLINE
  8
gg1
 62
1
 40
0.000000
 41
0.000000
 66
  1
  0
VERTEX
  8
gg1
 10
2.175000
 20
1.485000
  0
VERTEX
  8
gg1
 10
2.175000
 20
1.505000
  0
SEQEND
  8
gg1
  0
POLYLINE
  8
gg1
 62
1
 40
0.000000
 41
0.000000
 66
  1
  0
VERTEX
  8
gg1
 10
2.297500
 20
0.600000
  0
VERTEX
  8
gg1
 10
2.342500
 20
0.600000
  0
SEQEND
  8
gg1
  0
POLYLINE
  8
gg1
 62
1
 40
0.000000
 41
0.000000
 66
  1
  0
VERTEX
  8
gg1
 10
2.320000
 20
0.577500
  0
VERTEX
  8
gg1
 10
2.320000
 20
0.622500
  0
SEQEND
  8
gg1
  0
POLYLINE
  8
gg1
 62
1
 40
0.000000
 41
0.000000
 66
  1
  0
VERTEX
  8
gg1
 10
2.002200
 20
0.600000
  0
VERTEX
  8
gg1
 10
2.047200
 20
0.600000
  0
SEQEND
  8
gg1
  0
POLYLINE
  8
gg1
 62
1
 40
0.000000
 41
0.000000
 66
  1
  0
VERTEX
  8
gg1
 10
2.024700
 20
0.577500
  0
VERTEX
  8
gg1
 10
2.024700
 20
0.622500
  0
SEQEND
  8
gg1
  0
POLYLINE
  8
gg1
 62
1
 40
0.000000
 41
0.000000
 66
  1
  0
VERTEX
  8
gg1
 10
0.083700
 20
0.137800
  0
VERTEX
  8
gg1
 10
0.191900
 20
0.137800
  0
SEQEND
  8
gg1
  0
POLYLINE
  8
gg1
 62
1
 40
0.000000
 41
0.000000
 66
  1
  0
VERTEX
  8
gg1
 10
0.137800
 20
0.083700
  0
VERTEX
  8
gg1
 10
0.137800
 20
0.191900
  0
SEQEND
  8
gg1
  0
POLYLINE
  8
gg1
 62
1
 40
0.000000
 41
0.000000
 66
  1
  0
VERTEX
  8
gg1
 10
2.367100
 20
0.137800
  0
VERTEX
  8
gg1
 10
2.475400
 20
0.137800
  0
SEQEND
  8
gg1
  0
POLYLINE
  8
gg1
 62
1
 40
0.000000
 41
0.000000
 66
  1
  0
VERTEX
  8
gg1
 10
2.421300
 20
0.083700
  0
VERTEX
  8
gg1
 10
2.421300
 20
0.191900
  0
SEQEND
  8
gg1
  0
POLYLINE
  8
gg1
 62
1
 40
0.000000
 41
0.000000
 66
  1
  0
VERTEX
  8
gg1
 10
0.083700
 20
2.066900
  0
VERTEX
  8
gg1
 10
0.191900
 20
2.066900
  0
SEQEND
  8
gg1
  0
POLYLINE
  8
gg1
 62
1
 40
0.000000
 41
0.000000
 66
  1
  0
VERTEX
  8
gg1
 10
0.137800
 20
2.012800
  0
VERTEX
  8
gg1
 10
0.137800
 20
2.121100
  0
SEQEND
  8
gg1
  0
POLYLINE
  8
gg1
 62
1
 40
0.000000
 41
0.000000
 66
  1
  0
VERTEX
  8
gg1
 10
2.100000
 20
0.065000
  0
VERTEX
  8
gg1
 10
2.140000
 20
0.065000
  0
SEQEND
  8
gg1
  0
POLYLINE
  8
gg1
 62
1
 40
0.000000
 41
0.000000
 66
  1
  0
VERTEX
  8
gg1
 10
2.120000
 20
0.045000
  0
VERTEX
  8
gg1
 10
2.120000
 20
0.085000
  0
SEQEND
  8
gg1
  0
POLYLINE
  8
gg1
 62
1
 40
0.000000
 41
0.000000
 66
  1
  0
VERTEX
  8
gg1
 10
1.903100
 20
0.065000
  0
VERTEX
  8
gg1
 10
1.943200
 20
0.065000
  0
SEQEND
  8
gg1
  0
POLYLINE
  8
gg1
 62
1
 40
0.000000
 41
0.000000
 66
  1
  0
VERTEX
  8
gg1
 10
1.923100
 20
0.045000
  0
VERTEX
  8
gg1
 10
1.923100
 20
0.085000
  0
SEQEND
  8
gg1
  0
POLYLINE
  8
gg1
 62
1
 40
0.000000
 41
0.000000
 66
  1
  0
VERTEX
  8
gg1
 10
0.641700
 20
0.175000
  0
VERTEX
  8
gg1
 10
0.727700
 20
0.175000
  0
SEQEND
  8
gg1
  0
POLYLINE
  8
gg1
 62
1
 40
0.000000
 41
0.000000
 66
  1
  0
VERTEX
  8
gg1
 10
0.684700
 20
0.132000
  0
VERTEX
  8
gg1
 10
0.684700
 20
0.218000
  0
SEQEND
  8
gg1
  0
POLYLINE
  8
gg1
 62
1
 40
0.000000
 41
0.000000
 66
  1
  0
VERTEX
  8
gg1
 10
0.444900
 20
0.175000
  0
VERTEX
  8
gg1
 10
0.530900
 20
0.175000
  0
SEQEND
  8
gg1
  0
POLYLINE
  8
gg1
 62
1
 40
0.000000
 41
0.000000
 66
  1
  0
VERTEX
  8
gg1
 10
0.487900
 20
0.132000
  0
VERTEX
  8
gg1
 10
0.487900
 20
0.218000
  0
SEQEND
  8
gg1
  0
POLYLINE
  8
gg1
 62
1
 40
0.000000
 41
0.000000
 66
  1
  0
VERTEX
  8
gg1
 10
1.035400
 20
0.175000
  0
VERTEX
  8
gg1
 10
1.121400
 20
0.175000
  0
SEQEND
  8
gg1
  0
POLYLINE
  8
gg1
 62
1
 40
0.000000
 41
0.000000
 66
  1
  0
VERTEX
  8
gg1
 10
1.078400
 20
0.132000
  0
VERTEX
  8
gg1
 10
1.078400
 20
0.218000
  0
SEQEND
  8
gg1
  0
POLYLINE
  8
gg1
 62
1
 40
0.000000
 41
0.000000
 66
  1
  0
VERTEX
  8
gg1
 10
0.838600
 20
0.175000
  0
VERTEX
  8
gg1
 10
0.924600
 20
0.175000
  0
SEQEND
  8
gg1
  0
POLYLINE
  8
gg1
 62
1
 40
0.000000
 41
0.000000
 66
  1
  0
VERTEX
  8
gg1
 10
0.881600
 20
0.132000
  0
VERTEX
  8
gg1
 10
0.881600
 20
0.218000
  0
SEQEND
  8
gg1
  0
POLYLINE
  8
gg1
 62
1
 40
0.000000
 41
0.000000
 66
  1
  0
VERTEX
  8
gg1
 10
1.429100
 20
0.175000
  0
VERTEX
  8
gg1
 10
1.515100
 20
0.175000
  0
SEQEND
  8
gg1
  0
POLYLINE
  8
gg1
 62
1
 40
0.000000
 41
0.000000
 66
  1
  0
VERTEX
  8
gg1
 10
1.472100
 20
0.132000
  0
VERTEX
  8
gg1
 10
1.472100
 20
0.218000
  0
SEQEND
  8
gg1
  0
POLYLINE
  8
gg1
 62
1
 40
0.000000
 41
0.000000
 66
  1
  0
VERTEX
  8
gg1
 10
1.232300
 20
0.175000
  0
VERTEX
  8
gg1
 10
1.318300
 20
0.175000
  0
SEQEND
  8
gg1
  0
POLYLINE
  8
gg1
 62
1
 40
0.000000
 41
0.000000
 66
  1
  0
VERTEX
  8
gg1
 10
1.275300
 20
0.132000
  0
VERTEX
  8
gg1
 10
1.275300
 20
0.218000
  0
SEQEND
  8
gg1
  0
POLYLINE
  8
gg1
 62
1
 40
0.000000
 41
0.000000
 66
  1
  0
VERTEX
  8
gg1
 10
2.065000
 20
1.400000
  0
VERTEX
  8
gg1
 10
2.085000
 20
1.400000
  0
SEQEND
  8
gg1
  0
POLYLINE
  8
gg1
 62
1
 40
0.000000
 41
0.000000
 66
  1
  0
VERTEX
  8
gg1
 10
2.075000
 20
1.390000
  0
VERTEX
  8
gg1
 10
2.075000
 20
1.410000
  0
SEQEND
  8
gg1
  0
POLYLINE
  8
gg1
 62
1
 40
0.000000
 41
0.000000
 66
  1
  0
VERTEX
  8
gg1
 10
0.249100
 20
0.375900
  0
VERTEX
  8
gg1
 10
0.269100
 20
0.375900
  0
SEQEND
  8
gg1
  0
POLYLINE
  8
gg1
 62
1
 40
0.000000
 41
0.000000
 66
  1
  0
VERTEX
  8
gg1
 10
0.259100
 20
0.365900
  0
VERTEX
  8
gg1
 10
0.259100
 20
0.385900
  0
SEQEND
  8
gg1
  0
POLYLINE
  8
gg1
 62
1
 40
0.000000
 41
0.000000
 66
  1
  0
VERTEX
  8
gg1
 10
1.875000
 20
1.415000
  0
VERTEX
  8
gg1
 10
1.895000
 20
1.415000
  0
SEQEND
  8
gg1
  0
POLYLINE
  8
gg1
 62
1
 40
0.000000
 41
0.000000
 66
  1
  0
VERTEX
  8
gg1
 10
1.885000
 20
1.405000
  0
VERTEX
  8
gg1
 10
1.885000
 20
1.425000
  0
SEQEND
  8
gg1
  0
POLYLINE
  8
gg1
 62
1
 40
0.000000
 41
0.000000
 66
  1
  0
VERTEX
  8
gg1
 10
1.510000
 20
0.105000
  0
VERTEX
  8
gg1
 10
1.550000
 20
0.105000
  0
SEQEND
  8
gg1
  0
POLYLINE
  8
gg1
 62
1
 40
0.000000
 41
0.000000
 66
  1
  0
VERTEX
  8
gg1
 10
1.530000
 20
0.085000
  0
VERTEX
  8
gg1
 10
1.530000
 20
0.125000
  0
SEQEND
  8
gg1
  0
POLYLINE
  8
gg1
 62
1
 40
0.000000
 41
0.000000
 66
  1
  0
VERTEX
  8
gg1
 10
1.410000
 20
0.105000
  0
VERTEX
  8
gg1
 10
1.450000
 20
0.105000
  0
SEQEND
  8
gg1
  0
POLYLINE
  8
gg1
 62
1
 40
0.000000
 41
0.000000
 66
  1
  0
VERTEX
  8
gg1
 10
1.430000
 20
0.085000
  0
VERTEX
  8
gg1
 10
1.430000
 20
0.125000
  0
SEQEND
  8
gg1
  0
POLYLINE
  8
gg1
 62
1
 40
0.000000
 41
0.000000
 66
  1
  0
VERTEX
  8
gg1
 10
1.310000
 20
0.105000
  0
VERTEX
  8
gg1
 10
1.350000
 20
0.105000
  0
SEQEND
  8
gg1
  0
POLYLINE
  8
gg1
 62
1
 40
0.000000
 41
0.000000
 66
  1
  0
VERTEX
  8
gg1
 10
1.330000
 20
0.085000
  0
VERTEX
  8
gg1
 10
1.330000
 20
0.125000
  0
SEQEND
  8
gg1
  0
POLYLINE
  8
gg1
 62
1
 40
0.000000
 41
0.000000
 66
  1
  0
VERTEX
  8
gg1
 10
0.810000
 20
0.105000
  0
VERTEX
  8
gg1
 10
0.850000
 20
0.105000
  0
SEQEND
  8
gg1
  0
POLYLINE
  8
gg1
 62
1
 40
0.000000
 41
0.000000
 66
  1
  0
VERTEX
  8
gg1
 10
0.830000
 20
0.085000
  0
VERTEX
  8
gg1
 10
0.830000
 20
0.125000
  0
SEQEND
  8
gg1
  0
POLYLINE
  8
gg1
 62
1
 40
0.000000
 41
0.000000
 66
  1
  0
VERTEX
  8
gg1
 10
0.710000
 20
0.105000
  0
VERTEX
  8
gg1
 10
0.750000
 20
0.105000
  0
SEQEND
  8
gg1
  0
POLYLINE
  8
gg1
 62
1
 40
0.000000
 41
0.000000
 66
  1
  0
VERTEX
  8
gg1
 10
0.730000
 20
0.085000
  0
VERTEX
  8
gg1
 10
0.730000
 20
0.125000
  0
SEQEND
  8
gg1
  0
POLYLINE
  8
gg1
 62
1
 40
0.000000
 41
0.000000
 66
  1
  0
VERTEX
  8
gg1
 10
0.610000
 20
0.105000
  0
VERTEX
  8
gg1
 10
0.650000
 20
0.105000
  0
SEQEND
  8
gg1
  0
POLYLINE
  8
gg1
 62
1
 40
0.000000
 41
0.000000
 66
  1
  0
VERTEX
  8
gg1
 10
0.630000
 20
0.085000
  0
VERTEX
  8
gg1
 10
0.630000
 20
0.125000
  0
SEQEND
  8
gg1
  0
POLYLINE
  8
gg1
 62
1
 40
0.000000
 41
0.000000
 66
  1
  0
VERTEX
  8
gg1
 10
0.510000
 20
0.105000
  0
VERTEX
  8
gg1
 10
0.550000
 20
0.105000
  0
SEQEND
  8
gg1
  0
POLYLINE
  8
gg1
 62
1
 40
0.000000
 41
0.000000
 66
  1
  0
VERTEX
  8
gg1
 10
0.530000
 20
0.085000
  0
VERTEX
  8
gg1
 10
0.530000
 20
0.125000
  0
SEQEND
  8
gg1
  0
POLYLINE
  8
gg1
 62
1
 40
0.000000
 41
0.000000
 66
  1
  0
VERTEX
  8
gg1
 10
0.410000
 20
0.105000
  0
VERTEX
  8
gg1
 10
0.450000
 20
0.105000
  0
SEQEND
  8
gg1
  0
POLYLINE
  8
gg1
 62
1
 40
0.000000
 41
0.000000
 66
  1
  0
VERTEX
  8
gg1
 10
0.430000
 20
0.085000
  0
VERTEX
  8
gg1
 10
0.430000
 20
0.125000
  0
SEQEND
  8
gg1
  0
POLYLINE
  8
gg1
 62
1
 40
0.000000
 41
0.000000
 66
  1
  0
VERTEX
  8
gg1
 10
0.910000
 20
0.105000
  0
VERTEX
  8
gg1
 10
0.950000
 20
0.105000
  0
SEQEND
  8
gg1
  0
POLYLINE
  8
gg1
 62
1
 40
0.000000
 41
0.000000
 66
  1
  0
VERTEX
  8
gg1
 10
0.930000
 20
0.085000
  0
VERTEX
  8
gg1
 10
0.930000
 20
0.125000
  0
SEQEND
  8
gg1
  0
POLYLINE
  8
gg1
 62
1
 40
0.000000
 41
0.000000
 66
  1
  0
VERTEX
  8
gg1
 10
1.010000
 20
0.105000
  0
VERTEX
  8
gg1
 10
1.050000
 20
0.105000
  0
SEQEND
  8
gg1
  0
POLYLINE
  8
gg1
 62
1
 40
0.000000
 41
0.000000
 66
  1
  0
VERTEX
  8
gg1
 10
1.030000
 20
0.085000
  0
VERTEX
  8
gg1
 10
1.030000
 20
0.125000
  0
SEQEND
  8
gg1
  0
POLYLINE
  8
gg1
 62
1
 40
0.000000
 41
0.000000
 66
  1
  0
VERTEX
  8
gg1
 10
1.110000
 20
0.105000
  0
VERTEX
  8
gg1
 10
1.150000
 20
0.105000
  0
SEQEND
  8
gg1
  0
POLYLINE
  8
gg1
 62
1
 40
0.000000
 41
0.000000
 66
  1
  0
VERTEX
  8
gg1
 10
1.130000
 20
0.085000
  0
VERTEX
  8
gg1
 10
1.130000
 20
0.125000
  0
SEQEND
  8
gg1
  0
POLYLINE
  8
gg1
 62
1
 40
0.000000
 41
0.000000
 66
  1
  0
VERTEX
  8
gg1
 10
1.210000
 20
0.105000
  0
VERTEX
  8
gg1
 10
1.250000
 20
0.105000
  0
SEQEND
  8
gg1
  0
POLYLINE
  8
gg1
 62
1
 40
0.000000
 41
0.000000
 66
  1
  0
VERTEX
  8
gg1
 10
1.230000
 20
0.085000
  0
VERTEX
  8
gg1
 10
1.230000
 20
0.125000
  0
SEQEND
  8
gg1
  0
POLYLINE
  8
gg1
 62
1
 40
0.000000
 41
0.000000
 66
  1
  0
VERTEX
  8
gg1
 10
2.460000
 20
1.770000
  0
VERTEX
  8
gg1
 10
2.500000
 20
1.770000
  0
SEQEND
  8
gg1
  0
POLYLINE
  8
gg1
 62
1
 40
0.000000
 41
0.000000
 66
  1
  0
VERTEX
  8
gg1
 10
2.480000
 20
1.750000
  0
VERTEX
  8
gg1
 10
2.480000
 20
1.790000
  0
SEQEND
  8
gg1
  0
POLYLINE
  8
gg1
 62
1
 40
0.000000
 41
0.000000
 66
  1
  0
VERTEX
  8
gg1
 10
2.367100
 20
2.066900
  0
VERTEX
  8
gg1
 10
2.475400
 20
2.066900
  0
SEQEND
  8
gg1
  0
POLYLINE
  8
gg1
 62
1
 40
0.000000
 41
0.000000
 66
  1
  0
VERTEX
  8
gg1
 10
2.421300
 20
2.012800
  0
VERTEX
  8
gg1
 10
2.421300
 20
2.121100
  0
SEQEND
  8
gg1
  0
POLYLINE
  8
gg1
 62
1
 40
0.000000
 41
0.000000
 66
  1
  0
VERTEX
  8
gg1
 10
0.295000
 20
1.150000
  0
VERTEX
  8
gg1
 10
0.335000
 20
1.150000
  0
SEQEND
  8
gg1
  0
POLYLINE
  8
gg1
 62
1
 40
0.000000
 41
0.000000
 66
  1
  0
VERTEX
  8
gg1
 10
0.315000
 20
1.130000
  0
VERTEX
  8
gg1
 10
0.315000
 20
1.170000
  0
SEQEND
  8
gg1
  0
POLYLINE
  8
gg1
 62
1
 40
0.000000
 41
0.000000
 66
  1
  0
VERTEX
  8
gg1
 10
0.295000
 20
1.250000
  0
VERTEX
  8
gg1
 10
0.335000
 20
1.250000
  0
SEQEND
  8
gg1
  0
POLYLINE
  8
gg1
 62
1
 40
0.000000
 41
0.000000
 66
  1
  0
VERTEX
  8
gg1
 10
0.315000
 20
1.230000
  0
VERTEX
  8
gg1
 10
0.315000
 20
1.270000
  0
SEQEND
  8
gg1
  0
POLYLINE
  8
gg1
 62
1
 40
0.000000
 41
0.000000
 66
  1
  0
VERTEX
  8
gg1
 10
0.295000
 20
1.350000
  0
VERTEX
  8
gg1
 10
0.335000
 20
1.350000
  0
SEQEND
  8
gg1
  0
POLYLINE
  8
gg1
 62
1
 40
0.000000
 41
0.000000
 66
  1
  0
VERTEX
  8
gg1
 10
0.315000
 20
1.330000
  0
VERTEX
  8
gg1
 10
0.315000
 20
1.370000
  0
SEQEND
  8
gg1
  0
POLYLINE
  8
gg1
 62
1
 40
0.000000
 41
0.000000
 66
  1
  0
VERTEX
  8
gg1
 10
1.530000
 20
1.530000
  0
VERTEX
  8
gg1
 10
1.550000
 20
1.530000
  0
SEQEND
  8
gg1
  0
POLYLINE
  8
gg1
 62
1
 40
0.000000
 41
0.000000
 66
  1
  0
VERTEX
  8
gg1
 10
1.540000
 20
1.520000
  0
VERTEX
  8
gg1
 10
1.540000
 20
1.540000
  0
SEQEND
  8
gg1
  0
POLYLINE
  8
gg1
 62
1
 40
0.000000
 41
0.000000
 66
  1
  0
VERTEX
  8
gg1
 10
1.650000
 20
1.550000
  0
VERTEX
  8
gg1
 10
1.670000
 20
1.550000
  0
SEQEND
  8
gg1
  0
POLYLINE
  8
gg1
 62
1
 40
0.000000
 41
0.000000
 66
  1
  0
VERTEX
  8
gg1
 10
1.660000
 20
1.540000
  0
VERTEX
  8
gg1
 10
1.660000
 20
1.560000
  0
SEQEND
  8
gg1
  0
POLYLINE
  8
gg1
 62
1
 40
0.000000
 41
0.000000
 66
  1
  0
VERTEX
  8
gg1
 10
1.460000
 20
1.685000
  0
VERTEX
  8
gg1
 10
1.480000
 20
1.685000
  0
SEQEND
  8
gg1
  0
POLYLINE
  8
gg1
 62
1
 40
0.000000
 41
0.000000
 66
  1
  0
VERTEX
  8
gg1
 10
1.470000
 20
1.675000
  0
VERTEX
  8
gg1
 10
1.470000
 20
1.695000
  0
SEQEND
  8
gg1
  0
POLYLINE
  8
gg1
 62
1
 40
0.000000
 41
0.000000
 66
  1
  0
VERTEX
  8
gg1
 10
2.225000
 20
1.200000
  0
VERTEX
  8
gg1
 10
2.245000
 20
1.200000
  0
SEQEND
  8
gg1
  0
POLYLINE
  8
gg1
 62
1
 40
0.000000
 41
0.000000
 66
  1
  0
VERTEX
  8
gg1
 10
2.235000
 20
1.190000
  0
VERTEX
  8
gg1
 10
2.235000
 20
1.210000
  0
SEQEND
  8
gg1
  0
POLYLINE
  8
gg1
 62
1
 40
0.000000
 41
0.000000
 66
  1
  0
VERTEX
  8
gg1
 10
0.309500
 20
2.016900
  0
VERTEX
  8
gg1
 10
0.349500
 20
2.016900
  0
SEQEND
  8
gg1
  0
POLYLINE
  8
gg1
 62
1
 40
0.000000
 41
0.000000
 66
  1
  0
VERTEX
  8
gg1
 10
0.329500
 20
1.996900
  0
VERTEX
  8
gg1
 10
0.329500
 20
2.036900
  0
SEQEND
  8
gg1
  0
POLYLINE
  8
gg1
 62
1
 40
0.000000
 41
0.000000
 66
  1
  0
VERTEX
  8
gg1
 10
0.309500
 20
2.116900
  0
VERTEX
  8
gg1
 10
0.349500
 20
2.116900
  0
SEQEND
  8
gg1
  0
POLYLINE
  8
gg1
 62
1
 40
0.000000
 41
0.000000
 66
  1
  0
VERTEX
  8
gg1
 10
0.329500
 20
2.096900
  0
VERTEX
  8
gg1
 10
0.329500
 20
2.136900
  0
SEQEND
  8
gg1
  0
POLYLINE
  8
gg1
 62
1
 40
0.000000
 41
0.000000
 66
  1
  0
VERTEX
  8
gg1
 10
0.409500
 20
2.016900
  0
VERTEX
  8
gg1
 10
0.449500
 20
2.016900
  0
SEQEND
  8
gg1
  0
POLYLINE
  8
gg1
 62
1
 40
0.000000
 41
0.000000
 66
  1
  0
VERTEX
  8
gg1
 10
0.429500
 20
1.996900
  0
VERTEX
  8
gg1
 10
0.429500
 20
2.036900
  0
SEQEND
  8
gg1
  0
POLYLINE
  8
gg1
 62
1
 40
0.000000
 41
0.000000
 66
  1
  0
VERTEX
  8
gg1
 10
0.409500
 20
2.116900
  0
VERTEX
  8
gg1
 10
0.449500
 20
2.116900
  0
SEQEND
  8
gg1
  0
POLYLINE
  8
gg1
 62
1
 40
0.000000
 41
0.000000
 66
  1
  0
VERTEX
  8
gg1
 10
0.429500
 20
2.096900
  0
VERTEX
  8
gg1
 10
0.429500
 20
2.136900
  0
SEQEND
  8
gg1
  0
POLYLINE
  8
gg1
 62
1
 40
0.000000
 41
0.000000
 66
  1
  0
VERTEX
  8
gg1
 10
0.509500
 20
2.016900
  0
VERTEX
  8
gg1
 10
0.549500
 20
2.016900
  0
SEQEND
  8
gg1
  0
POLYLINE
  8
gg1
 62
1
 40
0.000000
 41
0.000000
 66
  1
  0
VERTEX
  8
gg1
 10
0.529500
 20
1.996900
  0
VERTEX
  8
gg1
 10
0.529500
 20
2.036900
  0
SEQEND
  8
gg1
  0
POLYLINE
  8
gg1
 62
1
 40
0.000000
 41
0.000000
 66
  1
  0
VERTEX
  8
gg1
 10
0.509500
 20
2.116900
  0
VERTEX
  8
gg1
 10
0.549500
 20
2.116900
  0
SEQEND
  8
gg1
  0
POLYLINE
  8
gg1
 62
1
 40
0.000000
 41
0.000000
 66
  1
  0
VERTEX
  8
gg1
 10
0.529500
 20
2.096900
  0
VERTEX
  8
gg1
 10
0.529500
 20
2.136900
  0
SEQEND
  8
gg1
  0
POLYLINE
  8
gg1
 62
1
 40
0.000000
 41
0.000000
 66
  1
  0
VERTEX
  8
gg1
 10
0.609500
 20
2.016900
  0
VERTEX
  8
gg1
 10
0.649500
 20
2.016900
  0
SEQEND
  8
gg1
  0
POLYLINE
  8
gg1
 62
1
 40
0.000000
 41
0.000000
 66
  1
  0
VERTEX
  8
gg1
 10
0.629500
 20
1.996900
  0
VERTEX
  8
gg1
 10
0.629500
 20
2.036900
  0
SEQEND
  8
gg1
  0
POLYLINE
  8
gg1
 62
1
 40
0.000000
 41
0.000000
 66
  1
  0
VERTEX
  8
gg1
 10
0.609500
 20
2.116900
  0
VERTEX
  8
gg1
 10
0.649500
 20
2.116900
  0
SEQEND
  8
gg1
  0
POLYLINE
  8
gg1
 62
1
 40
0.000000
 41
0.000000
 66
  1
  0
VERTEX
  8
gg1
 10
0.629500
 20
2.096900
  0
VERTEX
  8
gg1
 10
0.629500
 20
2.136900
  0
SEQEND
  8
gg1
  0
POLYLINE
  8
gg1
 62
1
 40
0.000000
 41
0.000000
 66
  1
  0
VERTEX
  8
gg1
 10
0.709500
 20
2.016900
  0
VERTEX
  8
gg1
 10
0.749500
 20
2.016900
  0
SEQEND
  8
gg1
  0
POLYLINE
  8
gg1
 62
1
 40
0.000000
 41
0.000000
 66
  1
  0
VERTEX
  8
gg1
 10
0.729500
 20
1.996900
  0
VERTEX
  8
gg1
 10
0.729500
 20
2.036900
  0
SEQEND
  8
gg1
  0
POLYLINE
  8
gg1
 62
1
 40
0.000000
 41
0.000000
 66
  1
  0
VERTEX
  8
gg1
 10
0.709500
 20
2.116900
  0
VERTEX
  8
gg1
 10
0.749500
 20
2.116900
  0
SEQEND
  8
gg1
  0
POLYLINE
  8
gg1
 62
1
 40
0.000000
 41
0.000000
 66
  1
  0
VERTEX
  8
gg1
 10
0.729500
 20
2.096900
  0
VERTEX
  8
gg1
 10
0.729500
 20
2.136900
  0
SEQEND
  8
gg1
  0
POLYLINE
  8
gg1
 62
1
 40
0.000000
 41
0.000000
 66
  1
  0
VERTEX
  8
gg1
 10
0.809500
 20
2.016900
  0
VERTEX
  8
gg1
 10
0.849500
 20
2.016900
  0
SEQEND
  8
gg1
  0
POLYLINE
  8
gg1
 62
1
 40
0.000000
 41
0.000000
 66
  1
  0
VERTEX
  8
gg1
 10
0.829500
 20
1.996900
  0
VERTEX
  8
gg1
 10
0.829500
 20
2.036900
  0
SEQEND
  8
gg1
  0
POLYLINE
  8
gg1
 62
1
 40
0.000000
 41
0.000000
 66
  1
  0
VERTEX
  8
gg1
 10
0.809500
 20
2.116900
  0
VERTEX
  8
gg1
 10
0.849500
 20
2.116900
  0
SEQEND
  8
gg1
  0
POLYLINE
  8
gg1
 62
1
 40
0.000000
 41
0.000000
 66
  1
  0
VERTEX
  8
gg1
 10
0.829500
 20
2.096900
  0
VERTEX
  8
gg1
 10
0.829500
 20
2.136900
  0
SEQEND
  8
gg1
  0
POLYLINE
  8
gg1
 62
1
 40
0.000000
 41
0.000000
 66
  1
  0
VERTEX
  8
gg1
 10
0.909500
 20
2.016900
  0
VERTEX
  8
gg1
 10
0.949500
 20
2.016900
  0
SEQEND
  8
gg1
  0
POLYLINE
  8
gg1
 62
1
 40
0.000000
 41
0.000000
 66
  1
  0
VERTEX
  8
gg1
 10
0.929500
 20
1.996900
  0
VERTEX
  8
gg1
 10
0.929500
 20
2.036900
  0
SEQEND
  8
gg1
  0
POLYLINE
  8
gg1
 62
1
 40
0.000000
 41
0.000000
 66
  1
  0
VERTEX
  8
gg1
 10
0.909500
 20
2.116900
  0
VERTEX
  8
gg1
 10
0.949500
 20
2.116900
  0
SEQEND
  8
gg1
  0
POLYLINE
  8
gg1
 62
1
 40
0.000000
 41
0.000000
 66
  1
  0
VERTEX
  8
gg1
 10
0.929500
 20
2.096900
  0
VERTEX
  8
gg1
 10
0.929500
 20
2.136900
  0
SEQEND
  8
gg1
  0
POLYLINE
  8
gg1
 62
1
 40
0.000000
 41
0.000000
 66
  1
  0
VERTEX
  8
gg1
 10
1.009500
 20
2.016900
  0
VERTEX
  8
gg1
 10
1.049500
 20
2.016900
  0
SEQEND
  8
gg1
  0
POLYLINE
  8
gg1
 62
1
 40
0.000000
 41
0.000000
 66
  1
  0
VERTEX
  8
gg1
 10
1.029500
 20
1.996900
  0
VERTEX
  8
gg1
 10
1.029500
 20
2.036900
  0
SEQEND
  8
gg1
  0
POLYLINE
  8
gg1
 62
1
 40
0.000000
 41
0.000000
 66
  1
  0
VERTEX
  8
gg1
 10
1.009500
 20
2.116900
  0
VERTEX
  8
gg1
 10
1.049500
 20
2.116900
  0
SEQEND
  8
gg1
  0
POLYLINE
  8
gg1
 62
1
 40
0.000000
 41
0.000000
 66
  1
  0
VERTEX
  8
gg1
 10
1.029500
 20
2.096900
  0
VERTEX
  8
gg1
 10
1.029500
 20
2.136900
  0
SEQEND
  8
gg1
  0
POLYLINE
  8
gg1
 62
1
 40
0.000000
 41
0.000000
 66
  1
  0
VERTEX
  8
gg1
 10
1.109500
 20
2.016900
  0
VERTEX
  8
gg1
 10
1.149500
 20
2.016900
  0
SEQEND
  8
gg1
  0
POLYLINE
  8
gg1
 62
1
 40
0.000000
 41
0.000000
 66
  1
  0
VERTEX
  8
gg1
 10
1.129500
 20
1.996900
  0
VERTEX
  8
gg1
 10
1.129500
 20
2.036900
  0
SEQEND
  8
gg1
  0
POLYLINE
  8
gg1
 62
1
 40
0.000000
 41
0.000000
 66
  1
  0
VERTEX
  8
gg1
 10
1.109500
 20
2.116900
  0
VERTEX
  8
gg1
 10
1.149500
 20
2.116900
  0
SEQEND
  8
gg1
  0
POLYLINE
  8
gg1
 62
1
 40
0.000000
 41
0.000000
 66
  1
  0
VERTEX
  8
gg1
 10
1.129500
 20
2.096900
  0
VERTEX
  8
gg1
 10
1.129500
 20
2.136900
  0
SEQEND
  8
gg1
  0
POLYLINE
  8
gg1
 62
1
 40
0.000000
 41
0.000000
 66
  1
  0
VERTEX
  8
gg1
 10
1.209500
 20
2.016900
  0
VERTEX
  8
gg1
 10
1.249500
 20
2.016900
  0
SEQEND
  8
gg1
  0
POLYLINE
  8
gg1
 62
1
 40
0.000000
 41
0.000000
 66
  1
  0
VERTEX
  8
gg1
 10
1.229500
 20
1.996900
  0
VERTEX
  8
gg1
 10
1.229500
 20
2.036900
  0
SEQEND
  8
gg1
  0
POLYLINE
  8
gg1
 62
1
 40
0.000000
 41
0.000000
 66
  1
  0
VERTEX
  8
gg1
 10
1.209500
 20
2.116900
  0
VERTEX
  8
gg1
 10
1.249500
 20
2.116900
  0
SEQEND
  8
gg1
  0
POLYLINE
  8
gg1
 62
1
 40
0.000000
 41
0.000000
 66
  1
  0
VERTEX
  8
gg1
 10
1.229500
 20
2.096900
  0
VERTEX
  8
gg1
 10
1.229500
 20
2.136900
  0
SEQEND
  8
gg1
  0
POLYLINE
  8
gg1
 62
1
 40
0.000000
 41
0.000000
 66
  1
  0
VERTEX
  8
gg1
 10
1.309500
 20
2.016900
  0
VERTEX
  8
gg1
 10
1.349500
 20
2.016900
  0
SEQEND
  8
gg1
  0
POLYLINE
  8
gg1
 62
1
 40
0.000000
 41
0.000000
 66
  1
  0
VERTEX
  8
gg1
 10
1.329500
 20
1.996900
  0
VERTEX
  8
gg1
 10
1.329500
 20
2.036900
  0
SEQEND
  8
gg1
  0
POLYLINE
  8
gg1
 62
1
 40
0.000000
 41
0.000000
 66
  1
  0
VERTEX
  8
gg1
 10
1.309500
 20
2.116900
  0
VERTEX
  8
gg1
 10
1.349500
 20
2.116900
  0
SEQEND
  8
gg1
  0
POLYLINE
  8
gg1
 62
1
 40
0.000000
 41
0.000000
 66
  1
  0
VERTEX
  8
gg1
 10
1.329500
 20
2.096900
  0
VERTEX
  8
gg1
 10
1.329500
 20
2.136900
  0
SEQEND
  8
gg1
  0
POLYLINE
  8
gg1
 62
1
 40
0.000000
 41
0.000000
 66
  1
  0
VERTEX
  8
gg1
 10
1.409500
 20
2.016900
  0
VERTEX
  8
gg1
 10
1.449500
 20
2.016900
  0
SEQEND
  8
gg1
  0
POLYLINE
  8
gg1
 62
1
 40
0.000000
 41
0.000000
 66
  1
  0
VERTEX
  8
gg1
 10
1.429500
 20
1.996900
  0
VERTEX
  8
gg1
 10
1.429500
 20
2.036900
  0
SEQEND
  8
gg1
  0
POLYLINE
  8
gg1
 62
1
 40
0.000000
 41
0.000000
 66
  1
  0
VERTEX
  8
gg1
 10
1.409500
 20
2.116900
  0
VERTEX
  8
gg1
 10
1.449500
 20
2.116900
  0
SEQEND
  8
gg1
  0
POLYLINE
  8
gg1
 62
1
 40
0.000000
 41
0.000000
 66
  1
  0
VERTEX
  8
gg1
 10
1.429500
 20
2.096900
  0
VERTEX
  8
gg1
 10
1.429500
 20
2.136900
  0
SEQEND
  8
gg1
  0
POLYLINE
  8
gg1
 62
1
 40
0.000000
 41
0.000000
 66
  1
  0
VERTEX
  8
gg1
 10
1.509500
 20
2.016900
  0
VERTEX
  8
gg1
 10
1.549500
 20
2.016900
  0
SEQEND
  8
gg1
  0
POLYLINE
  8
gg1
 62
1
 40
0.000000
 41
0.000000
 66
  1
  0
VERTEX
  8
gg1
 10
1.529500
 20
1.996900
  0
VERTEX
  8
gg1
 10
1.529500
 20
2.036900
  0
SEQEND
  8
gg1
  0
POLYLINE
  8
gg1
 62
1
 40
0.000000
 41
0.000000
 66
  1
  0
VERTEX
  8
gg1
 10
1.509500
 20
2.116900
  0
VERTEX
  8
gg1
 10
1.549500
 20
2.116900
  0
SEQEND
  8
gg1
  0
POLYLINE
  8
gg1
 62
1
 40
0.000000
 41
0.000000
 66
  1
  0
VERTEX
  8
gg1
 10
1.529500
 20
2.096900
  0
VERTEX
  8
gg1
 10
1.529500
 20
2.136900
  0
SEQEND
  8
gg1
  0
POLYLINE
  8
gg1
 62
1
 40
0.000000
 41
0.000000
 66
  1
  0
VERTEX
  8
gg1
 10
1.609500
 20
2.016900
  0
VERTEX
  8
gg1
 10
1.649500
 20
2.016900
  0
SEQEND
  8
gg1
  0
POLYLINE
  8
gg1
 62
1
 40
0.000000
 41
0.000000
 66
  1
  0
VERTEX
  8
gg1
 10
1.629500
 20
1.996900
  0
VERTEX
  8
gg1
 10
1.629500
 20
2.036900
  0
SEQEND
  8
gg1
  0
POLYLINE
  8
gg1
 62
1
 40
0.000000
 41
0.000000
 66
  1
  0
VERTEX
  8
gg1
 10
1.609500
 20
2.116900
  0
VERTEX
  8
gg1
 10
1.649500
 20
2.116900
  0
SEQEND
  8
gg1
  0
POLYLINE
  8
gg1
 62
1
 40
0.000000
 41
0.000000
 66
  1
  0
VERTEX
  8
gg1
 10
1.629500
 20
2.096900
  0
VERTEX
  8
gg1
 10
1.629500
 20
2.136900
  0
SEQEND
  8
gg1
  0
POLYLINE
  8
gg1
 62
1
 40
0.000000
 41
0.000000
 66
  1
  0
VERTEX
  8
gg1
 10
1.709500
 20
2.016900
  0
VERTEX
  8
gg1
 10
1.749500
 20
2.016900
  0
SEQEND
  8
gg1
  0
POLYLINE
  8
gg1
 62
1
 40
0.000000
 41
0.000000
 66
  1
  0
VERTEX
  8
gg1
 10
1.729500
 20
1.996900
  0
VERTEX
  8
gg1
 10
1.729500
 20
2.036900
  0
SEQEND
  8
gg1
  0
POLYLINE
  8
gg1
 62
1
 40
0.000000
 41
0.000000
 66
  1
  0
VERTEX
  8
gg1
 10
1.709500
 20
2.116900
  0
VERTEX
  8
gg1
 10
1.749500
 20
2.116900
  0
SEQEND
  8
gg1
  0
POLYLINE
  8
gg1
 62
1
 40
0.000000
 41
0.000000
 66
  1
  0
VERTEX
  8
gg1
 10
1.729500
 20
2.096900
  0
VERTEX
  8
gg1
 10
1.729500
 20
2.136900
  0
SEQEND
  8
gg1
  0
POLYLINE
  8
gg1
 62
1
 40
0.000000
 41
0.000000
 66
  1
  0
VERTEX
  8
gg1
 10
1.809500
 20
2.016900
  0
VERTEX
  8
gg1
 10
1.849500
 20
2.016900
  0
SEQEND
  8
gg1
  0
POLYLINE
  8
gg1
 62
1
 40
0.000000
 41
0.000000
 66
  1
  0
VERTEX
  8
gg1
 10
1.829500
 20
1.996900
  0
VERTEX
  8
gg1
 10
1.829500
 20
2.036900
  0
SEQEND
  8
gg1
  0
POLYLINE
  8
gg1
 62
1
 40
0.000000
 41
0.000000
 66
  1
  0
VERTEX
  8
gg1
 10
1.809500
 20
2.116900
  0
VERTEX
  8
gg1
 10
1.849500
 20
2.116900
  0
SEQEND
  8
gg1
  0
POLYLINE
  8
gg1
 62
1
 40
0.000000
 41
0.000000
 66
  1
  0
VERTEX
  8
gg1
 10
1.829500
 20
2.096900
  0
VERTEX
  8
gg1
 10
1.829500
 20
2.136900
  0
SEQEND
  8
gg1
  0
POLYLINE
  8
gg1
 62
1
 40
0.000000
 41
0.000000
 66
  1
  0
VERTEX
  8
gg1
 10
1.909500
 20
2.016900
  0
VERTEX
  8
gg1
 10
1.949500
 20
2.016900
  0
SEQEND
  8
gg1
  0
POLYLINE
  8
gg1
 62
1
 40
0.000000
 41
0.000000
 66
  1
  0
VERTEX
  8
gg1
 10
1.929500
 20
1.996900
  0
VERTEX
  8
gg1
 10
1.929500
 20
2.036900
  0
SEQEND
  8
gg1
  0
POLYLINE
  8
gg1
 62
1
 40
0.000000
 41
0.000000
 66
  1
  0
VERTEX
  8
gg1
 10
1.909500
 20
2.116900
  0
VERTEX
  8
gg1
 10
1.949500
 20
2.116900
  0
SEQEND
  8
gg1
  0
POLYLINE
  8
gg1
 62
1
 40
0.000000
 41
0.000000
 66
  1
  0
VERTEX
  8
gg1
 10
1.929500
 20
2.096900
  0
VERTEX
  8
gg1
 10
1.929500
 20
2.136900
  0
SEQEND
  8
gg1
  0
POLYLINE
  8
gg1
 62
1
 40
0.000000
 41
0.000000
 66
  1
  0
VERTEX
  8
gg1
 10
2.009500
 20
2.016900
  0
VERTEX
  8
gg1
 10
2.049500
 20
2.016900
  0
SEQEND
  8
gg1
  0
POLYLINE
  8
gg1
 62
1
 40
0.000000
 41
0.000000
 66
  1
  0
VERTEX
  8
gg1
 10
2.029500
 20
1.996900
  0
VERTEX
  8
gg1
 10
2.029500
 20
2.036900
  0
SEQEND
  8
gg1
  0
POLYLINE
  8
gg1
 62
1
 40
0.000000
 41
0.000000
 66
  1
  0
VERTEX
  8
gg1
 10
2.009500
 20
2.116900
  0
VERTEX
  8
gg1
 10
2.049500
 20
2.116900
  0
SEQEND
  8
gg1
  0
POLYLINE
  8
gg1
 62
1
 40
0.000000
 41
0.000000
 66
  1
  0
VERTEX
  8
gg1
 10
2.029500
 20
2.096900
  0
VERTEX
  8
gg1
 10
2.029500
 20
2.136900
  0
SEQEND
  8
gg1
  0
POLYLINE
  8
gg1
 62
1
 40
0.000000
 41
0.000000
 66
  1
  0
VERTEX
  8
gg1
 10
2.109500
 20
2.016900
  0
VERTEX
  8
gg1
 10
2.149500
 20
2.016900
  0
SEQEND
  8
gg1
  0
POLYLINE
  8
gg1
 62
1
 40
0.000000
 41
0.000000
 66
  1
  0
VERTEX
  8
gg1
 10
2.129500
 20
1.996900
  0
VERTEX
  8
gg1
 10
2.129500
 20
2.036900
  0
SEQEND
  8
gg1
  0
POLYLINE
  8
gg1
 62
1
 40
0.000000
 41
0.000000
 66
  1
  0
VERTEX
  8
gg1
 10
2.109500
 20
2.116900
  0
VERTEX
  8
gg1
 10
2.149500
 20
2.116900
  0
SEQEND
  8
gg1
  0
POLYLINE
  8
gg1
 62
1
 40
0.000000
 41
0.000000
 66
  1
  0
VERTEX
  8
gg1
 10
2.129500
 20
2.096900
  0
VERTEX
  8
gg1
 10
2.129500
 20
2.136900
  0
SEQEND
  8
gg1
  0
POLYLINE
  8
gg1
 62
1
 40
0.000000
 41
0.000000
 66
  1
  0
VERTEX
  8
gg1
 10
2.209500
 20
2.016900
  0
VERTEX
  8
gg1
 10
2.249500
 20
2.016900
  0
SEQEND
  8
gg1
  0
POLYLINE
  8
gg1
 62
1
 40
0.000000
 41
0.000000
 66
  1
  0
VERTEX
  8
gg1
 10
2.229500
 20
1.996900
  0
VERTEX
  8
gg1
 10
2.229500
 20
2.036900
  0
SEQEND
  8
gg1
  0
POLYLINE
  8
gg1
 62
1
 40
0.000000
 41
0.000000
 66
  1
  0
VERTEX
  8
gg1
 10
2.209500
 20
2.116900
  0
VERTEX
  8
gg1
 10
2.249500
 20
2.116900
  0
SEQEND
  8
gg1
  0
POLYLINE
  8
gg1
 62
1
 40
0.000000
 41
0.000000
 66
  1
  0
VERTEX
  8
gg1
 10
2.229500
 20
2.096900
  0
VERTEX
  8
gg1
 10
2.229500
 20
2.136900
  0
SEQEND
  8
gg1
  0
POLYLINE
  8
gg1
 62
1
 40
0.000000
 41
0.000000
 66
  1
  0
VERTEX
  8
gg1
 10
2.060000
 20
1.870000
  0
VERTEX
  8
gg1
 10
2.100000
 20
1.870000
  0
SEQEND
  8
gg1
  0
POLYLINE
  8
gg1
 62
1
 40
0.000000
 41
0.000000
 66
  1
  0
VERTEX
  8
gg1
 10
2.080000
 20
1.850000
  0
VERTEX
  8
gg1
 10
2.080000
 20
1.890000
  0
SEQEND
  8
gg1
  0
POLYLINE
  8
gg1
 62
1
 40
0.000000
 41
0.000000
 66
  1
  0
VERTEX
  8
gg1
 10
2.160000
 20
1.870000
  0
VERTEX
  8
gg1
 10
2.200000
 20
1.870000
  0
SEQEND
  8
gg1
  0
POLYLINE
  8
gg1
 62
1
 40
0.000000
 41
0.000000
 66
  1
  0
VERTEX
  8
gg1
 10
2.180000
 20
1.850000
  0
VERTEX
  8
gg1
 10
2.180000
 20
1.890000
  0
SEQEND
  8
gg1
  0
POLYLINE
  8
gg1
 62
1
 40
0.000000
 41
0.000000
 66
  1
  0
VERTEX
  8
gg1
 10
2.260000
 20
1.870000
  0
VERTEX
  8
gg1
 10
2.300000
 20
1.870000
  0
SEQEND
  8
gg1
  0
POLYLINE
  8
gg1
 62
1
 40
0.000000
 41
0.000000
 66
  1
  0
VERTEX
  8
gg1
 10
2.280000
 20
1.850000
  0
VERTEX
  8
gg1
 10
2.280000
 20
1.890000
  0
SEQEND
  8
gg1
  0
POLYLINE
  8
gg1
 62
1
 40
0.000000
 41
0.000000
 66
  1
  0
VERTEX
  8
gg1
 10
2.360000
 20
1.870000
  0
VERTEX
  8
gg1
 10
2.400000
 20
1.870000
  0
SEQEND
  8
gg1
  0
POLYLINE
  8
gg1
 62
1
 40
0.000000
 41
0.000000
 66
  1
  0
VERTEX
  8
gg1
 10
2.380000
 20
1.850000
  0
VERTEX
  8
gg1
 10
2.380000
 20
1.890000
  0
SEQEND
  8
gg1
  0
POLYLINE
  8
gg1
 62
1
 40
0.000000
 41
0.000000
 66
  1
  0
VERTEX
  8
gg1
 10
2.460000
 20
1.870000
  0
VERTEX
  8
gg1
 10
2.500000
 20
1.870000
  0
SEQEND
  8
gg1
  0
POLYLINE
  8
gg1
 62
1
 40
0.000000
 41
0.000000
 66
  1
  0
VERTEX
  8
gg1
 10
2.480000
 20
1.850000
  0
VERTEX
  8
gg1
 10
2.480000
 20
1.890000
  0
SEQEND
  8
gg1
  0
POLYLINE
  8
gg1
 62
1
 40
0.000000
 41
0.000000
 66
  1
  0
VERTEX
  8
gg1
 10
1.960000
 20
1.870000
  0
VERTEX
  8
gg1
 10
2.000000
 20
1.870000
  0
SEQEND
  8
gg1
  0
POLYLINE
  8
gg1
 62
1
 40
0.000000
 41
0.000000
 66
  1
  0
VERTEX
  8
gg1
 10
1.980000
 20
1.850000
  0
VERTEX
  8
gg1
 10
1.980000
 20
1.890000
  0
SEQEND
  8
gg1
  0
POLYLINE
  8
gg1
 62
1
 40
0.000000
 41
0.000000
 66
  1
  0
VERTEX
  8
gg1
 10
1.860000
 20
1.870000
  0
VERTEX
  8
gg1
 10
1.900000
 20
1.870000
  0
SEQEND
  8
gg1
  0
POLYLINE
  8
gg1
 62
1
 40
0.000000
 41
0.000000
 66
  1
  0
VERTEX
  8
gg1
 10
1.880000
 20
1.850000
  0
VERTEX
  8
gg1
 10
1.880000
 20
1.890000
  0
SEQEND
  8
gg1
  0
POLYLINE
  8
gg1
 62
1
 40
0.000000
 41
0.000000
 66
  1
  0
VERTEX
  8
gg1
 10
1.760000
 20
1.870000
  0
VERTEX
  8
gg1
 10
1.800000
 20
1.870000
  0
SEQEND
  8
gg1
  0
POLYLINE
  8
gg1
 62
1
 40
0.000000
 41
0.000000
 66
  1
  0
VERTEX
  8
gg1
 10
1.780000
 20
1.850000
  0
VERTEX
  8
gg1
 10
1.780000
 20
1.890000
  0
SEQEND
  8
gg1
  0
POLYLINE
  8
gg1
 62
1
 40
0.000000
 41
0.000000
 66
  1
  0
VERTEX
  8
gg1
 10
1.660000
 20
1.870000
  0
VERTEX
  8
gg1
 10
1.700000
 20
1.870000
  0
SEQEND
  8
gg1
  0
POLYLINE
  8
gg1
 62
1
 40
0.000000
 41
0.000000
 66
  1
  0
VERTEX
  8
gg1
 10
1.680000
 20
1.850000
  0
VERTEX
  8
gg1
 10
1.680000
 20
1.890000
  0
SEQEND
  8
gg1
  0
POLYLINE
  8
gg1
 62
1
 40
0.000000
 41
0.000000
 66
  1
  0
VERTEX
  8
gg1
 10
1.560000
 20
1.870000
  0
VERTEX
  8
gg1
 10
1.600000
 20
1.870000
  0
SEQEND
  8
gg1
  0
POLYLINE
  8
gg1
 62
1
 40
0.000000
 41
0.000000
 66
  1
  0
VERTEX
  8
gg1
 10
1.580000
 20
1.850000
  0
VERTEX
  8
gg1
 10
1.580000
 20
1.890000
  0
SEQEND
  8
gg1
  0
POLYLINE
  8
gg1
 62
1
 40
0.000000
 41
0.000000
 66
  1
  0
VERTEX
  8
gg1
 10
1.460000
 20
1.870000
  0
VERTEX
  8
gg1
 10
1.500000
 20
1.870000
  0
SEQEND
  8
gg1
  0
POLYLINE
  8
gg1
 62
1
 40
0.000000
 41
0.000000
 66
  1
  0
VERTEX
  8
gg1
 10
1.480000
 20
1.850000
  0
VERTEX
  8
gg1
 10
1.480000
 20
1.890000
  0
SEQEND
  8
gg1
  0
POLYLINE
  8
gg1
 62
1
 40
0.000000
 41
0.000000
 66
  1
  0
VERTEX
  8
gg1
 10
1.360000
 20
1.870000
  0
VERTEX
  8
gg1
 10
1.400000
 20
1.870000
  0
SEQEND
  8
gg1
  0
POLYLINE
  8
gg1
 62
1
 40
0.000000
 41
0.000000
 66
  1
  0
VERTEX
  8
gg1
 10
1.380000
 20
1.850000
  0
VERTEX
  8
gg1
 10
1.380000
 20
1.890000
  0
SEQEND
  8
gg1
  0
POLYLINE
  8
gg1
 62
1
 40
0.000000
 41
0.000000
 66
  1
  0
VERTEX
  8
gg1
 10
1.260000
 20
1.870000
  0
VERTEX
  8
gg1
 10
1.300000
 20
1.870000
  0
SEQEND
  8
gg1
  0
POLYLINE
  8
gg1
 62
1
 40
0.000000
 41
0.000000
 66
  1
  0
VERTEX
  8
gg1
 10
1.280000
 20
1.850000
  0
VERTEX
  8
gg1
 10
1.280000
 20
1.890000
  0
SEQEND
  8
gg1
  0
POLYLINE
  8
gg1
 62
1
 40
0.000000
 41
0.000000
 66
  1
  0
VERTEX
  8
gg1
 10
0.860000
 20
1.870000
  0
VERTEX
  8
gg1
 10
0.900000
 20
1.870000
  0
SEQEND
  8
gg1
  0
POLYLINE
  8
gg1
 62
1
 40
0.000000
 41
0.000000
 66
  1
  0
VERTEX
  8
gg1
 10
0.880000
 20
1.850000
  0
VERTEX
  8
gg1
 10
0.880000
 20
1.890000
  0
SEQEND
  8
gg1
  0
POLYLINE
  8
gg1
 62
1
 40
0.000000
 41
0.000000
 66
  1
  0
VERTEX
  8
gg1
 10
0.760000
 20
1.870000
  0
VERTEX
  8
gg1
 10
0.800000
 20
1.870000
  0
SEQEND
  8
gg1
  0
POLYLINE
  8
gg1
 62
1
 40
0.000000
 41
0.000000
 66
  1
  0
VERTEX
  8
gg1
 10
0.780000
 20
1.850000
  0
VERTEX
  8
gg1
 10
0.780000
 20
1.890000
  0
SEQEND
  8
gg1
  0
POLYLINE
  8
gg1
 62
1
 40
0.000000
 41
0.000000
 66
  1
  0
VERTEX
  8
gg1
 10
0.660000
 20
1.870000
  0
VERTEX
  8
gg1
 10
0.700000
 20
1.870000
  0
SEQEND
  8
gg1
  0
POLYLINE
  8
gg1
 62
1
 40
0.000000
 41
0.000000
 66
  1
  0
VERTEX
  8
gg1
 10
0.680000
 20
1.850000
  0
VERTEX
  8
gg1
 10
0.680000
 20
1.890000
  0
SEQEND
  8
gg1
  0
POLYLINE
  8
gg1
 62
1
 40
0.000000
 41
0.000000
 66
  1
  0
VERTEX
  8
gg1
 10
0.560000
 20
1.870000
  0
VERTEX
  8
gg1
 10
0.600000
 20
1.870000
  0
SEQEND
  8
gg1
  0
POLYLINE
  8
gg1
 62
1
 40
0.000000
 41
0.000000
 66
  1
  0
VERTEX
  8
gg1
 10
0.580000
 20
1.850000
  0
VERTEX
  8
gg1
 10
0.580000
 20
1.890000
  0
SEQEND
  8
gg1
  0
POLYLINE
  8
gg1
 62
1
 40
0.000000
 41
0.000000
 66
  1
  0
VERTEX
  8
gg1
 10
0.060000
 20
1.870000
  0
VERTEX
  8
gg1
 10
0.100000
 20
1.870000
  0
SEQEND
  8
gg1
  0
POLYLINE
  8
gg1
 62
1
 40
0.000000
 41
0.000000
 66
  1
  0
VERTEX
  8
gg1
 10
0.080000
 20
1.850000
  0
VERTEX
  8
gg1
 10
0.080000
 20
1.890000
  0
SEQEND
  8
gg1
  0
POLYLINE
  8
gg1
 62
1
 40
0.000000
 41
0.000000
 66
  1
  0
VERTEX
  8
gg1
 10
0.160000
 20
1.870000
  0
VERTEX
  8
gg1
 10
0.200000
 20
1.870000
  0
SEQEND
  8
gg1
  0
POLYLINE
  8
gg1
 62
1
 40
0.000000
 41
0.000000
 66
  1
  0
VERTEX
  8
gg1
 10
0.180000
 20
1.850000
  0
VERTEX
  8
gg1
 10
0.180000
 20
1.890000
  0
SEQEND
  8
gg1
  0
POLYLINE
  8
gg1
 62
1
 40
0.000000
 41
0.000000
 66
  1
  0
VERTEX
  8
gg1
 10
0.260000
 20
1.870000
  0
VERTEX
  8
gg1
 10
0.300000
 20
1.870000
  0
SEQEND
  8
gg1
  0
POLYLINE
  8
gg1
 62
1
 40
0.000000
 41
0.000000
 66
  1
  0
VERTEX
  8
gg1
 10
0.280000
 20
1.850000
  0
VERTEX
  8
gg1
 10
0.280000
 20
1.890000
  0
SEQEND
  8
gg1
  0
POLYLINE
  8
gg1
 62
1
 40
0.000000
 41
0.000000
 66
  1
  0
VERTEX
  8
gg1
 10
0.360000
 20
1.870000
  0
VERTEX
  8
gg1
 10
0.400000
 20
1.870000
  0
SEQEND
  8
gg1
  0
POLYLINE
  8
gg1
 62
1
 40
0.000000
 41
0.000000
 66
  1
  0
VERTEX
  8
gg1
 10
0.380000
 20
1.850000
  0
VERTEX
  8
gg1
 10
0.380000
 20
1.890000
  0
SEQEND
  8
gg1
  0
POLYLINE
  8
gg1
 62
1
 40
0.000000
 41
0.000000
 66
  1
  0
VERTEX
  8
gg1
 10
0.460000
 20
1.870000
  0
VERTEX
  8
gg1
 10
0.500000
 20
1.870000
  0
SEQEND
  8
gg1
  0
POLYLINE
  8
gg1
 62
1
 40
0.000000
 41
0.000000
 66
  1
  0
VERTEX
  8
gg1
 10
0.480000
 20
1.850000
  0
VERTEX
  8
gg1
 10
0.480000
 20
1.890000
  0
SEQEND
  8
gg1
  0
POLYLINE
  8
gg1
 62
1
 40
0.000000
 41
0.000000
 66
  1
  0
VERTEX
  8
gg1
 10
0.960000
 20
1.870000
  0
VERTEX
  8
gg1
 10
1.000000
 20
1.870000
  0
SEQEND
  8
gg1
  0
POLYLINE
  8
gg1
 62
1
 40
0.000000
 41
0.000000
 66
  1
  0
VERTEX
  8
gg1
 10
0.980000
 20
1.850000
  0
VERTEX
  8
gg1
 10
0.980000
 20
1.890000
  0
SEQEND
  8
gg1
  0
POLYLINE
  8
gg1
 62
1
 40
0.000000
 41
0.000000
 66
  1
  0
VERTEX
  8
gg1
 10
1.060000
 20
1.870000
  0
VERTEX
  8
gg1
 10
1.100000
 20
1.870000
  0
SEQEND
  8
gg1
  0
POLYLINE
  8
gg1
 62
1
 40
0.000000
 41
0.000000
 66
  1
  0
VERTEX
  8
gg1
 10
1.080000
 20
1.850000
  0
VERTEX
  8
gg1
 10
1.080000
 20
1.890000
  0
SEQEND
  8
gg1
  0
POLYLINE
  8
gg1
 62
1
 40
0.000000
 41
0.000000
 66
  1
  0
VERTEX
  8
gg1
 10
1.160000
 20
1.870000
  0
VERTEX
  8
gg1
 10
1.200000
 20
1.870000
  0
SEQEND
  8
gg1
  0
POLYLINE
  8
gg1
 62
1
 40
0.000000
 41
0.000000
 66
  1
  0
VERTEX
  8
gg1
 10
1.180000
 20
1.850000
  0
VERTEX
  8
gg1
 10
1.180000
 20
1.890000
  0
SEQEND
  8
gg1
  0
ENDSEC
  0
EOF
