  0
SECTION
  2
HEADER
  9
$EXTMIN
 10
0.410000
 20
-0.014000
  9
$EXTMAX
 10
1.048000
 20
0.825000
  9
$LIMMIN
 10
0.410000
 20
-0.014000
  9
$LIMMAX
 10
1.048000
 20
0.825000
  9
$FILLMODE
 70
  1
  0
ENDSEC
  0
SECTION
  2
TABLES
  0
TABLE
  2
LTYPE
 70
  1
  0
LTYPE
  2
CONTINUOUS
 70
 64
  3
Solid line
 72
 65
 73
  0
 40
0.0
  0
ENDTAB
  0
TABLE
  2
LAYER
 70
 1
  0
LAYER
  2
0
 70
  0
 62
7
  6
CONTINUOUS
  0
LAYER
  2
gg1
 70
  0
 62
1
  6
CONTINUOUS
  0
ENDTAB
  0
TABLE
  2
STYLE
 70
  1
  0
STYLE
  2
STANDARD
 70
  0
 40
0.0
 41
1.0
 50
0.0
 71
  0
 42
0.2
  3
txt
  4

  0
ENDTAB
  0
ENDSEC
  0
SECTION
  2
BLOCKS
  0
BLOCK
  8
0
  2
D10
 70
64
 10
0.0
 20
0.0
  3
D10
  0
CIRCLE
  8
0
 10
0.000000
 20
0.000000
 40
0.002500
 0
ENDBLK
  8
0
  0
BLOCK
  8
0
  2
D11
 70
64
 10
0.0
 20
0.0
  3
D11
  0
CIRCLE
  8
0
 10
0.000000
 20
0.000000
 40
0.003000
 0
ENDBLK
  8
0
  0
BLOCK
  8
0
  2
D12
 70
64
 10
0.0
 20
0.0
  3
D12
  0
CIRCLE
  8
0
 10
0.000000
 20
0.000000
 40
0.001000
 0
ENDBLK
  8
0
  0
ENDSEC
  0
SECTION
  2
ENTITIES
  0
POLYLINE
  8
gg1
 62
1
 40
0.000000
 41
0.000000
 66
  1
  0
VERTEX
  8
gg1
 10
0.546000
 20
0.123000
  0
VERTEX
  8
gg1
 10
0.546000
 20
0.823000
  0
VERTEX
  8
gg1
 10
1.046000
 20
0.823000
  0
SEQEND
  8
gg1
  0
POLYLINE
  8
gg1
 62
1
 40
0.000000
 41
0.000000
 66
  1
  0
VERTEX
  8
gg1
 10
1.046000
 20
0.123000
  0
VERTEX
  8
gg1
 10
1.046000
 20
0.823000
  0
SEQEND
  8
gg1
  0
POLYLINE
  8
gg1
 62
1
 40
0.000000
 41
0.000000
 66
  1
  0
VERTEX
  8
gg1
 10
0.546000
 20
0.123000
  0
VERTEX
  8
gg1
 10
1.046000
 20
0.123000
  0
SEQEND
  8
gg1
  0
POLYLINE
  8
gg1
 62
1
 40
0.000000
 41
0.000000
 66
  1
  0
VERTEX
  8
gg1
 10
0.417000
 20
0.183000
  0
VERTEX
  8
gg1
 10
0.437000
 20
0.123000
  0
VERTEX
  8
gg1
 10
0.457000
 20
0.183000
  0
SEQEND
  8
gg1
  0
POLYLINE
  8
gg1
 62
1
 40
0.000000
 41
0.000000
 66
  1
  0
VERTEX
  8
gg1
 10
0.437000
 20
0.823000
  0
VERTEX
  8
gg1
 10
0.457000
 20
0.763000
  0
SEQEND
  8
gg1
  0
POLYLINE
  8
gg1
 62
1
 40
0.000000
 41
0.000000
 66
  1
  0
VERTEX
  8
gg1
 10
0.417000
 20
0.763000
  0
VERTEX
  8
gg1
 10
0.437000
 20
0.823000
  0
SEQEND
  8
gg1
  0
POLYLINE
  8
gg1
 62
1
 40
0.000000
 41
0.000000
 66
  1
  0
VERTEX
  8
gg1
 10
0.437000
 20
0.123000
  0
VERTEX
  8
gg1
 10
0.437000
 20
0.286000
  0
SEQEND
  8
gg1
  0
POLYLINE
  8
gg1
 62
1
 40
0.000000
 41
0.000000
 66
  1
  0
VERTEX
  8
gg1
 10
0.437000
 20
0.628000
  0
VERTEX
  8
gg1
 10
0.437000
 20
0.823000
  0
SEQEND
  8
gg1
  0
POLYLINE
  8
gg1
 62
1
 40
0.000000
 41
0.000000
 66
  1
  0
VERTEX
  8
gg1
 10
0.427000
 20
0.123000
  0
VERTEX
  8
gg1
 10
0.518500
 20
0.123000
  0
SEQEND
  8
gg1
  0
POLYLINE
  8
gg1
 62
1
 40
0.000000
 41
0.000000
 66
  1
  0
VERTEX
  8
gg1
 10
0.427000
 20
0.823000
  0
VERTEX
  8
gg1
 10
0.518500
 20
0.823000
  0
SEQEND
  8
gg1
  0
POLYLINE
  8
gg1
 62
1
 40
0.000000
 41
0.000000
 66
  1
  0
VERTEX
  8
gg1
 10
0.546000
 20
0.013000
  0
VERTEX
  8
gg1
 10
0.606000
 20
0.033000
  0
SEQEND
  8
gg1
  0
POLYLINE
  8
gg1
 62
1
 40
0.000000
 41
0.000000
 66
  1
  0
VERTEX
  8
gg1
 10
0.546000
 20
0.013000
  0
VERTEX
  8
gg1
 10
0.606000
 20
-0.007000
  0
SEQEND
  8
gg1
  0
POLYLINE
  8
gg1
 62
1
 40
0.000000
 41
0.000000
 66
  1
  0
VERTEX
  8
gg1
 10
0.986000
 20
-0.007000
  0
VERTEX
  8
gg1
 10
1.046000
 20
0.013000
  0
SEQEND
  8
gg1
  0
POLYLINE
  8
gg1
 62
1
 40
0.000000
 41
0.000000
 66
  1
  0
VERTEX
  8
gg1
 10
0.986000
 20
0.033000
  0
VERTEX
  8
gg1
 10
1.046000
 20
0.013000
  0
SEQEND
  8
gg1
  0
POLYLINE
  8
gg1
 62
1
 40
0.000000
 41
0.000000
 66
  1
  0
VERTEX
  8
gg1
 10
0.546000
 20
0.013000
  0
VERTEX
  8
gg1
 10
0.626000
 20
0.013000
  0
SEQEND
  8
gg1
  0
POLYLINE
  8
gg1
 62
1
 40
0.000000
 41
0.000000
 66
  1
  0
VERTEX
  8
gg1
 10
0.967900
 20
0.013000
  0
VERTEX
  8
gg1
 10
1.046000
 20
0.013000
  0
SEQEND
  8
gg1
  0
POLYLINE
  8
gg1
 62
1
 40
0.000000
 41
0.000000
 66
  1
  0
VERTEX
  8
gg1
 10
0.546000
 20
0.003000
  0
VERTEX
  8
gg1
 10
0.546000
 20
0.095500
  0
SEQEND
  8
gg1
  0
POLYLINE
  8
gg1
 62
1
 40
0.000000
 41
0.000000
 66
  1
  0
VERTEX
  8
gg1
 10
1.046000
 20
0.003000
  0
VERTEX
  8
gg1
 10
1.046000
 20
0.095500
  0
SEQEND
  8
gg1
  0
POLYLINE
  8
gg1
 62
1
 40
0.000000
 41
0.000000
 66
  1
  0
VERTEX
  8
gg1
 10
0.413000
 20
0.302000
  0
VERTEX
  8
gg1
 10
0.413000
 20
0.342000
  0
VERTEX
  8
gg1
 10
0.423000
 20
0.342000
  0
VERTEX
  8
gg1
 10
0.463000
 20
0.302000
  0
VERTEX
  8
gg1
 10
0.473000
 20
0.302000
  0
SEQEND
  8
gg1
  0
POLYLINE
  8
gg1
 62
1
 40
0.000000
 41
0.000000
 66
  1
  0
VERTEX
  8
gg1
 10
0.423000
 20
0.362000
  0
VERTEX
  8
gg1
 10
0.413000
 20
0.372000
  0
VERTEX
  8
gg1
 10
0.413000
 20
0.392000
  0
VERTEX
  8
gg1
 10
0.423000
 20
0.402000
  0
VERTEX
  8
gg1
 10
0.463000
 20
0.402000
  0
VERTEX
  8
gg1
 10
0.473000
 20
0.392000
  0
VERTEX
  8
gg1
 10
0.473000
 20
0.372000
  0
VERTEX
  8
gg1
 10
0.463000
 20
0.362000
  0
VERTEX
  8
gg1
 10
0.423000
 20
0.362000
  0
SEQEND
  8
gg1
  0
POLYLINE
  8
gg1
 62
1
 40
0.000000
 41
0.000000
 66
  1
  0
VERTEX
  8
gg1
 10
0.423000
 20
0.422000
  0
VERTEX
  8
gg1
 10
0.413000
 20
0.432000
  0
VERTEX
  8
gg1
 10
0.413000
 20
0.452000
  0
VERTEX
  8
gg1
 10
0.423000
 20
0.462000
  0
VERTEX
  8
gg1
 10
0.463000
 20
0.462000
  0
VERTEX
  8
gg1
 10
0.473000
 20
0.452000
  0
VERTEX
  8
gg1
 10
0.473000
 20
0.432000
  0
VERTEX
  8
gg1
 10
0.463000
 20
0.422000
  0
VERTEX
  8
gg1
 10
0.423000
 20
0.422000
  0
SEQEND
  8
gg1
  0
POLYLINE
  8
gg1
 62
1
 40
0.000000
 41
0.000000
 66
  1
  0
VERTEX
  8
gg1
 10
0.473000
 20
0.482000
  0
VERTEX
  8
gg1
 10
0.433000
 20
0.482000
  0
VERTEX
  8
gg1
 10
0.433000
 20
0.492000
  0
VERTEX
  8
gg1
 10
0.443000
 20
0.502000
  0
VERTEX
  8
gg1
 10
0.473000
 20
0.502000
  0
VERTEX
  8
gg1
 10
0.443000
 20
0.502000
  0
VERTEX
  8
gg1
 10
0.433000
 20
0.512000
  0
VERTEX
  8
gg1
 10
0.443000
 20
0.522000
  0
VERTEX
  8
gg1
 10
0.473000
 20
0.522000
  0
SEQEND
  8
gg1
  0
POLYLINE
  8
gg1
 62
1
 40
0.000000
 41
0.000000
 66
  1
  0
VERTEX
  8
gg1
 10
0.473000
 20
0.542000
  0
VERTEX
  8
gg1
 10
0.473000
 20
0.562000
  0
VERTEX
  8
gg1
 10
0.473000
 20
0.552000
  0
VERTEX
  8
gg1
 10
0.433000
 20
0.552000
  0
VERTEX
  8
gg1
 10
0.433000
 20
0.542000
  0
SEQEND
  8
gg1
  0
POLYLINE
  8
gg1
 62
1
 40
0.000000
 41
0.000000
 66
  1
  0
VERTEX
  8
gg1
 10
0.473000
 20
0.592000
  0
VERTEX
  8
gg1
 10
0.473000
 20
0.611900
  0
VERTEX
  8
gg1
 10
0.473000
 20
0.602000
  0
VERTEX
  8
gg1
 10
0.413000
 20
0.602000
  0
VERTEX
  8
gg1
 10
0.413000
 20
0.592000
  0
SEQEND
  8
gg1
  0
POLYLINE
  8
gg1
 62
1
 40
0.000000
 41
0.000000
 66
  1
  0
VERTEX
  8
gg1
 10
0.682000
 20
0.049000
  0
VERTEX
  8
gg1
 10
0.642000
 20
0.049000
  0
VERTEX
  8
gg1
 10
0.642000
 20
0.019000
  0
VERTEX
  8
gg1
 10
0.662000
 20
0.029000
  0
VERTEX
  8
gg1
 10
0.672000
 20
0.029000
  0
VERTEX
  8
gg1
 10
0.682000
 20
0.019000
  0
VERTEX
  8
gg1
 10
0.682000
 20
-0.001000
  0
VERTEX
  8
gg1
 10
0.672000
 20
-0.011000
  0
VERTEX
  8
gg1
 10
0.652000
 20
-0.011000
  0
VERTEX
  8
gg1
 10
0.642000
 20
-0.001000
  0
SEQEND
  8
gg1
  0
POLYLINE
  8
gg1
 62
1
 40
0.000000
 41
0.000000
 66
  1
  0
VERTEX
  8
gg1
 10
0.702000
 20
0.039000
  0
VERTEX
  8
gg1
 10
0.712000
 20
0.049000
  0
VERTEX
  8
gg1
 10
0.732000
 20
0.049000
  0
VERTEX
  8
gg1
 10
0.742000
 20
0.039000
  0
VERTEX
  8
gg1
 10
0.742000
 20
-0.001000
  0
VERTEX
  8
gg1
 10
0.732000
 20
-0.011000
  0
VERTEX
  8
gg1
 10
0.712000
 20
-0.011000
  0
VERTEX
  8
gg1
 10
0.702000
 20
-0.001000
  0
VERTEX
  8
gg1
 10
0.702000
 20
0.039000
  0
SEQEND
  8
gg1
  0
POLYLINE
  8
gg1
 62
1
 40
0.000000
 41
0.000000
 66
  1
  0
VERTEX
  8
gg1
 10
0.762000
 20
0.039000
  0
VERTEX
  8
gg1
 10
0.772000
 20
0.049000
  0
VERTEX
  8
gg1
 10
0.792000
 20
0.049000
  0
VERTEX
  8
gg1
 10
0.801900
 20
0.039000
  0
VERTEX
  8
gg1
 10
0.801900
 20
-0.001000
  0
VERTEX
  8
gg1
 10
0.792000
 20
-0.011000
  0
VERTEX
  8
gg1
 10
0.772000
 20
-0.011000
  0
VERTEX
  8
gg1
 10
0.762000
 20
-0.001000
  0
VERTEX
  8
gg1
 10
0.762000
 20
0.039000
  0
SEQEND
  8
gg1
  0
POLYLINE
  8
gg1
 62
1
 40
0.000000
 41
0.000000
 66
  1
  0
VERTEX
  8
gg1
 10
0.821900
 20
-0.011000
  0
VERTEX
  8
gg1
 10
0.821900
 20
0.029000
  0
VERTEX
  8
gg1
 10
0.831900
 20
0.029000
  0
VERTEX
  8
gg1
 10
0.841900
 20
0.019000
  0
VERTEX
  8
gg1
 10
0.841900
 20
-0.011000
  0
VERTEX
  8
gg1
 10
0.841900
 20
0.019000
  0
VERTEX
  8
gg1
 10
0.851900
 20
0.029000
  0
VERTEX
  8
gg1
 10
0.861900
 20
0.019000
  0
VERTEX
  8
gg1
 10
0.861900
 20
-0.011000
  0
SEQEND
  8
gg1
  0
POLYLINE
  8
gg1
 62
1
 40
0.000000
 41
0.000000
 66
  1
  0
VERTEX
  8
gg1
 10
0.881900
 20
-0.011000
  0
VERTEX
  8
gg1
 10
0.901900
 20
-0.011000
  0
VERTEX
  8
gg1
 10
0.891900
 20
-0.011000
  0
VERTEX
  8
gg1
 10
0.891900
 20
0.029000
  0
VERTEX
  8
gg1
 10
0.881900
 20
0.029000
  0
SEQEND
  8
gg1
  0
POLYLINE
  8
gg1
 62
1
 40
0.000000
 41
0.000000
 66
  1
  0
VERTEX
  8
gg1
 10
0.931900
 20
-0.011000
  0
VERTEX
  8
gg1
 10
0.951900
 20
-0.011000
  0
VERTEX
  8
gg1
 10
0.941900
 20
-0.011000
  0
VERTEX
  8
gg1
 10
0.941900
 20
0.049000
  0
VERTEX
  8
gg1
 10
0.931900
 20
0.049000
  0
SEQEND
  8
gg1
  0
POLYLINE
  8
gg1
 62
1
 40
0.000000
 41
0.000000
 66
  1
  0
VERTEX
  8
gg1
 10
0.576000
 20
0.373000
  0
VERTEX
  8
gg1
 10
0.616000
 20
0.373000
  0
SEQEND
  8
gg1
  0
POLYLINE
  8
gg1
 62
1
 40
0.000000
 41
0.000000
 66
  1
  0
VERTEX
  8
gg1
 10
0.596000
 20
0.353000
  0
VERTEX
  8
gg1
 10
0.596000
 20
0.393000
  0
SEQEND
  8
gg1
  0
POLYLINE
  8
gg1
 62
1
 40
0.000000
 41
0.000000
 66
  1
  0
VERTEX
  8
gg1
 10
0.576000
 20
0.473000
  0
VERTEX
  8
gg1
 10
0.616000
 20
0.473000
  0
SEQEND
  8
gg1
  0
POLYLINE
  8
gg1
 62
1
 40
0.000000
 41
0.000000
 66
  1
  0
VERTEX
  8
gg1
 10
0.596000
 20
0.453000
  0
VERTEX
  8
gg1
 10
0.596000
 20
0.493000
  0
SEQEND
  8
gg1
  0
POLYLINE
  8
gg1
 62
1
 40
0.000000
 41
0.000000
 66
  1
  0
VERTEX
  8
gg1
 10
0.576000
 20
0.573000
  0
VERTEX
  8
gg1
 10
0.616000
 20
0.573000
  0
SEQEND
  8
gg1
  0
POLYLINE
  8
gg1
 62
1
 40
0.000000
 41
0.000000
 66
  1
  0
VERTEX
  8
gg1
 10
0.596000
 20
0.553000
  0
VERTEX
  8
gg1
 10
0.596000
 20
0.593000
  0
SEQEND
  8
gg1
  0
POLYLINE
  8
gg1
 62
1
 40
0.000000
 41
0.000000
 66
  1
  0
VERTEX
  8
gg1
 10
0.576000
 20
0.673000
  0
VERTEX
  8
gg1
 10
0.616000
 20
0.673000
  0
SEQEND
  8
gg1
  0
POLYLINE
  8
gg1
 62
1
 40
0.000000
 41
0.000000
 66
  1
  0
VERTEX
  8
gg1
 10
0.596000
 20
0.653000
  0
VERTEX
  8
gg1
 10
0.596000
 20
0.693000
  0
SEQEND
  8
gg1
  0
POLYLINE
  8
gg1
 62
1
 40
0.000000
 41
0.000000
 66
  1
  0
VERTEX
  8
gg1
 10
0.576000
 20
0.773000
  0
VERTEX
  8
gg1
 10
0.616000
 20
0.773000
  0
SEQEND
  8
gg1
  0
POLYLINE
  8
gg1
 62
1
 40
0.000000
 41
0.000000
 66
  1
  0
VERTEX
  8
gg1
 10
0.596000
 20
0.753000
  0
VERTEX
  8
gg1
 10
0.596000
 20
0.793000
  0
SEQEND
  8
gg1
  0
POLYLINE
  8
gg1
 62
1
 40
0.000000
 41
0.000000
 66
  1
  0
VERTEX
  8
gg1
 10
0.576000
 20
0.273000
  0
VERTEX
  8
gg1
 10
0.616000
 20
0.273000
  0
SEQEND
  8
gg1
  0
POLYLINE
  8
gg1
 62
1
 40
0.000000
 41
0.000000
 66
  1
  0
VERTEX
  8
gg1
 10
0.596000
 20
0.253000
  0
VERTEX
  8
gg1
 10
0.596000
 20
0.293000
  0
SEQEND
  8
gg1
  0
POLYLINE
  8
gg1
 62
1
 40
0.000000
 41
0.000000
 66
  1
  0
VERTEX
  8
gg1
 10
0.576000
 20
0.173000
  0
VERTEX
  8
gg1
 10
0.616000
 20
0.173000
  0
SEQEND
  8
gg1
  0
POLYLINE
  8
gg1
 62
1
 40
0.000000
 41
0.000000
 66
  1
  0
VERTEX
  8
gg1
 10
0.596000
 20
0.153000
  0
VERTEX
  8
gg1
 10
0.596000
 20
0.193000
  0
SEQEND
  8
gg1
  0
POLYLINE
  8
gg1
 62
1
 40
0.000000
 41
0.000000
 66
  1
  0
VERTEX
  8
gg1
 10
0.676000
 20
0.173000
  0
VERTEX
  8
gg1
 10
0.716000
 20
0.173000
  0
SEQEND
  8
gg1
  0
POLYLINE
  8
gg1
 62
1
 40
0.000000
 41
0.000000
 66
  1
  0
VERTEX
  8
gg1
 10
0.696000
 20
0.153000
  0
VERTEX
  8
gg1
 10
0.696000
 20
0.193000
  0
SEQEND
  8
gg1
  0
POLYLINE
  8
gg1
 62
1
 40
0.000000
 41
0.000000
 66
  1
  0
VERTEX
  8
gg1
 10
0.903000
 20
0.223000
  0
VERTEX
  8
gg1
 10
0.989000
 20
0.223000
  0
SEQEND
  8
gg1
  0
POLYLINE
  8
gg1
 62
1
 40
0.000000
 41
0.000000
 66
  1
  0
VERTEX
  8
gg1
 10
0.946000
 20
0.180000
  0
VERTEX
  8
gg1
 10
0.946000
 20
0.266000
  0
SEQEND
  8
gg1
  0
POLYLINE
  8
gg1
 62
1
 40
0.000000
 41
0.000000
 66
  1
  0
VERTEX
  8
gg1
 10
0.903000
 20
0.723000
  0
VERTEX
  8
gg1
 10
0.989000
 20
0.723000
  0
SEQEND
  8
gg1
  0
POLYLINE
  8
gg1
 62
1
 40
0.000000
 41
0.000000
 66
  1
  0
VERTEX
  8
gg1
 10
0.946000
 20
0.680000
  0
VERTEX
  8
gg1
 10
0.946000
 20
0.766000
  0
SEQEND
  8
gg1
  0
POLYLINE
  8
gg1
 62
1
 40
0.000000
 41
0.000000
 66
  1
  0
VERTEX
  8
gg1
 10
0.860500
 20
0.340700
  0
VERTEX
  8
gg1
 10
0.872500
 20
0.340700
  0
SEQEND
  8
gg1
  0
POLYLINE
  8
gg1
 62
1
 40
0.000000
 41
0.000000
 66
  1
  0
VERTEX
  8
gg1
 10
0.866500
 20
0.334700
  0
VERTEX
  8
gg1
 10
0.866500
 20
0.346700
  0
SEQEND
  8
gg1
  0
POLYLINE
  8
gg1
 62
1
 40
0.000000
 41
0.000000
 66
  1
  0
VERTEX
  8
gg1
 10
0.785000
 20
0.358000
  0
VERTEX
  8
gg1
 10
0.797000
 20
0.358000
  0
SEQEND
  8
gg1
  0
POLYLINE
  8
gg1
 62
1
 40
0.000000
 41
0.000000
 66
  1
  0
VERTEX
  8
gg1
 10
0.791000
 20
0.352000
  0
VERTEX
  8
gg1
 10
0.791000
 20
0.364000
  0
SEQEND
  8
gg1
  0
POLYLINE
  8
gg1
 62
1
 40
0.000000
 41
0.000000
 66
  1
  0
VERTEX
  8
gg1
 10
0.667000
 20
0.323000
  0
VERTEX
  8
gg1
 10
0.679000
 20
0.323000
  0
SEQEND
  8
gg1
  0
POLYLINE
  8
gg1
 62
1
 40
0.000000
 41
0.000000
 66
  1
  0
VERTEX
  8
gg1
 10
0.673000
 20
0.317000
  0
VERTEX
  8
gg1
 10
0.673000
 20
0.329000
  0
SEQEND
  8
gg1
  0
POLYLINE
  8
gg1
 62
1
 40
0.000000
 41
0.000000
 66
  1
  0
VERTEX
  8
gg1
 10
0.695000
 20
0.599000
  0
VERTEX
  8
gg1
 10
0.707000
 20
0.599000
  0
SEQEND
  8
gg1
  0
POLYLINE
  8
gg1
 62
1
 40
0.000000
 41
0.000000
 66
  1
  0
VERTEX
  8
gg1
 10
0.701000
 20
0.593000
  0
VERTEX
  8
gg1
 10
0.701000
 20
0.605000
  0
SEQEND
  8
gg1
  0
POLYLINE
  8
gg1
 62
1
 40
0.000000
 41
0.000000
 66
  1
  0
VERTEX
  8
gg1
 10
0.828000
 20
0.748000
  0
VERTEX
  8
gg1
 10
0.840000
 20
0.748000
  0
SEQEND
  8
gg1
  0
POLYLINE
  8
gg1
 62
1
 40
0.000000
 41
0.000000
 66
  1
  0
VERTEX
  8
gg1
 10
0.834000
 20
0.742000
  0
VERTEX
  8
gg1
 10
0.834000
 20
0.754000
  0
SEQEND
  8
gg1
  0
POLYLINE
  8
gg1
 62
1
 40
0.000000
 41
0.000000
 66
  1
  0
VERTEX
  8
gg1
 10
0.840000
 20
0.778000
  0
VERTEX
  8
gg1
 10
0.852000
 20
0.778000
  0
SEQEND
  8
gg1
  0
POLYLINE
  8
gg1
 62
1
 40
0.000000
 41
0.000000
 66
  1
  0
VERTEX
  8
gg1
 10
0.846000
 20
0.772000
  0
VERTEX
  8
gg1
 10
0.846000
 20
0.784000
  0
SEQEND
  8
gg1
  0
POLYLINE
  8
gg1
 62
1
 40
0.000000
 41
0.000000
 66
  1
  0
VERTEX
  8
gg1
 10
0.899100
 20
0.409900
  0
VERTEX
  8
gg1
 10
0.911100
 20
0.409900
  0
SEQEND
  8
gg1
  0
POLYLINE
  8
gg1
 62
1
 40
0.000000
 41
0.000000
 66
  1
  0
VERTEX
  8
gg1
 10
0.905100
 20
0.403900
  0
VERTEX
  8
gg1
 10
0.905100
 20
0.415900
  0
SEQEND
  8
gg1
  0
POLYLINE
  8
gg1
 62
1
 40
0.000000
 41
0.000000
 66
  1
  0
VERTEX
  8
gg1
 10
0.650000
 20
0.599000
  0
VERTEX
  8
gg1
 10
0.662000
 20
0.599000
  0
SEQEND
  8
gg1
  0
POLYLINE
  8
gg1
 62
1
 40
0.000000
 41
0.000000
 66
  1
  0
VERTEX
  8
gg1
 10
0.656000
 20
0.593000
  0
VERTEX
  8
gg1
 10
0.656000
 20
0.605000
  0
SEQEND
  8
gg1
  0
POLYLINE
  8
gg1
 62
1
 40
0.000000
 41
0.000000
 66
  1
  0
VERTEX
  8
gg1
 10
0.835000
 20
0.173000
  0
VERTEX
  8
gg1
 10
0.847000
 20
0.173000
  0
SEQEND
  8
gg1
  0
POLYLINE
  8
gg1
 62
1
 40
0.000000
 41
0.000000
 66
  1
  0
VERTEX
  8
gg1
 10
0.841000
 20
0.167000
  0
VERTEX
  8
gg1
 10
0.841000
 20
0.179000
  0
SEQEND
  8
gg1
  0
POLYLINE
  8
gg1
 62
1
 40
0.000000
 41
0.000000
 66
  1
  0
VERTEX
  8
gg1
 10
0.803000
 20
0.247000
  0
VERTEX
  8
gg1
 10
0.815000
 20
0.247000
  0
SEQEND
  8
gg1
  0
POLYLINE
  8
gg1
 62
1
 40
0.000000
 41
0.000000
 66
  1
  0
VERTEX
  8
gg1
 10
0.809000
 20
0.241000
  0
VERTEX
  8
gg1
 10
0.809000
 20
0.253000
  0
SEQEND
  8
gg1
  0
POLYLINE
  8
gg1
 62
1
 40
0.000000
 41
0.000000
 66
  1
  0
VERTEX
  8
gg1
 10
0.633000
 20
0.423000
  0
VERTEX
  8
gg1
 10
0.645000
 20
0.423000
  0
SEQEND
  8
gg1
  0
POLYLINE
  8
gg1
 62
1
 40
0.000000
 41
0.000000
 66
  1
  0
VERTEX
  8
gg1
 10
0.639000
 20
0.417000
  0
VERTEX
  8
gg1
 10
0.639000
 20
0.429000
  0
SEQEND
  8
gg1
  0
POLYLINE
  8
gg1
 62
1
 40
0.000000
 41
0.000000
 66
  1
  0
VERTEX
  8
gg1
 10
0.840000
 20
0.578000
  0
VERTEX
  8
gg1
 10
0.852000
 20
0.578000
  0
SEQEND
  8
gg1
  0
POLYLINE
  8
gg1
 62
1
 40
0.000000
 41
0.000000
 66
  1
  0
VERTEX
  8
gg1
 10
0.846000
 20
0.572000
  0
VERTEX
  8
gg1
 10
0.846000
 20
0.584000
  0
SEQEND
  8
gg1
  0
POLYLINE
  8
gg1
 62
1
 40
0.000000
 41
0.000000
 66
  1
  0
VERTEX
  8
gg1
 10
0.928600
 20
0.543000
  0
VERTEX
  8
gg1
 10
0.940600
 20
0.543000
  0
SEQEND
  8
gg1
  0
POLYLINE
  8
gg1
 62
1
 40
0.000000
 41
0.000000
 66
  1
  0
VERTEX
  8
gg1
 10
0.934600
 20
0.537000
  0
VERTEX
  8
gg1
 10
0.934600
 20
0.549000
  0
SEQEND
  8
gg1
  0
POLYLINE
  8
gg1
 62
1
 40
0.000000
 41
0.000000
 66
  1
  0
VERTEX
  8
gg1
 10
0.745000
 20
0.253000
  0
VERTEX
  8
gg1
 10
0.757000
 20
0.253000
  0
SEQEND
  8
gg1
  0
POLYLINE
  8
gg1
 62
1
 40
0.000000
 41
0.000000
 66
  1
  0
VERTEX
  8
gg1
 10
0.751000
 20
0.247000
  0
VERTEX
  8
gg1
 10
0.751000
 20
0.259000
  0
SEQEND
  8
gg1
  0
POLYLINE
  8
gg1
 62
1
 40
0.000000
 41
0.000000
 66
  1
  0
VERTEX
  8
gg1
 10
0.800000
 20
0.578000
  0
VERTEX
  8
gg1
 10
0.812000
 20
0.578000
  0
SEQEND
  8
gg1
  0
POLYLINE
  8
gg1
 62
1
 40
0.000000
 41
0.000000
 66
  1
  0
VERTEX
  8
gg1
 10
0.806000
 20
0.572000
  0
VERTEX
  8
gg1
 10
0.806000
 20
0.584000
  0
SEQEND
  8
gg1
  0
POLYLINE
  8
gg1
 62
1
 40
0.000000
 41
0.000000
 66
  1
  0
VERTEX
  8
gg1
 10
0.976900
 20
0.398000
  0
VERTEX
  8
gg1
 10
0.988900
 20
0.398000
  0
SEQEND
  8
gg1
  0
POLYLINE
  8
gg1
 62
1
 40
0.000000
 41
0.000000
 66
  1
  0
VERTEX
  8
gg1
 10
0.982900
 20
0.392000
  0
VERTEX
  8
gg1
 10
0.982900
 20
0.404000
  0
SEQEND
  8
gg1
  0
POLYLINE
  8
gg1
 62
1
 40
0.000000
 41
0.000000
 66
  1
  0
VERTEX
  8
gg1
 10
0.725000
 20
0.328000
  0
VERTEX
  8
gg1
 10
0.737000
 20
0.328000
  0
SEQEND
  8
gg1
  0
POLYLINE
  8
gg1
 62
1
 40
0.000000
 41
0.000000
 66
  1
  0
VERTEX
  8
gg1
 10
0.731000
 20
0.322000
  0
VERTEX
  8
gg1
 10
0.731000
 20
0.334000
  0
SEQEND
  8
gg1
  0
POLYLINE
  8
gg1
 62
1
 40
0.000000
 41
0.000000
 66
  1
  0
VERTEX
  8
gg1
 10
0.745000
 20
0.293000
  0
VERTEX
  8
gg1
 10
0.757000
 20
0.293000
  0
SEQEND
  8
gg1
  0
POLYLINE
  8
gg1
 62
1
 40
0.000000
 41
0.000000
 66
  1
  0
VERTEX
  8
gg1
 10
0.751000
 20
0.287000
  0
VERTEX
  8
gg1
 10
0.751000
 20
0.299000
  0
SEQEND
  8
gg1
  0
POLYLINE
  8
gg1
 62
1
 40
0.000000
 41
0.000000
 66
  1
  0
VERTEX
  8
gg1
 10
0.780900
 20
0.461200
  0
VERTEX
  8
gg1
 10
0.792900
 20
0.461200
  0
SEQEND
  8
gg1
  0
POLYLINE
  8
gg1
 62
1
 40
0.000000
 41
0.000000
 66
  1
  0
VERTEX
  8
gg1
 10
0.786900
 20
0.455200
  0
VERTEX
  8
gg1
 10
0.786900
 20
0.467200
  0
SEQEND
  8
gg1
  0
POLYLINE
  8
gg1
 62
1
 40
0.000000
 41
0.000000
 66
  1
  0
VERTEX
  8
gg1
 10
0.780900
 20
0.484800
  0
VERTEX
  8
gg1
 10
0.792900
 20
0.484800
  0
SEQEND
  8
gg1
  0
POLYLINE
  8
gg1
 62
1
 40
0.000000
 41
0.000000
 66
  1
  0
VERTEX
  8
gg1
 10
0.786900
 20
0.478800
  0
VERTEX
  8
gg1
 10
0.786900
 20
0.490800
  0
SEQEND
  8
gg1
  0
POLYLINE
  8
gg1
 62
1
 40
0.000000
 41
0.000000
 66
  1
  0
VERTEX
  8
gg1
 10
0.804600
 20
0.461200
  0
VERTEX
  8
gg1
 10
0.816600
 20
0.461200
  0
SEQEND
  8
gg1
  0
POLYLINE
  8
gg1
 62
1
 40
0.000000
 41
0.000000
 66
  1
  0
VERTEX
  8
gg1
 10
0.810600
 20
0.455200
  0
VERTEX
  8
gg1
 10
0.810600
 20
0.467200
  0
SEQEND
  8
gg1
  0
POLYLINE
  8
gg1
 62
1
 40
0.000000
 41
0.000000
 66
  1
  0
VERTEX
  8
gg1
 10
0.804600
 20
0.484800
  0
VERTEX
  8
gg1
 10
0.816600
 20
0.484800
  0
SEQEND
  8
gg1
  0
POLYLINE
  8
gg1
 62
1
 40
0.000000
 41
0.000000
 66
  1
  0
VERTEX
  8
gg1
 10
0.810600
 20
0.478800
  0
VERTEX
  8
gg1
 10
0.810600
 20
0.490800
  0
SEQEND
  8
gg1
  0
POLYLINE
  8
gg1
 62
1
 40
0.000000
 41
0.000000
 66
  1
  0
VERTEX
  8
gg1
 10
0.828200
 20
0.461200
  0
VERTEX
  8
gg1
 10
0.840200
 20
0.461200
  0
SEQEND
  8
gg1
  0
POLYLINE
  8
gg1
 62
1
 40
0.000000
 41
0.000000
 66
  1
  0
VERTEX
  8
gg1
 10
0.834200
 20
0.455200
  0
VERTEX
  8
gg1
 10
0.834200
 20
0.467200
  0
SEQEND
  8
gg1
  0
POLYLINE
  8
gg1
 62
1
 40
0.000000
 41
0.000000
 66
  1
  0
VERTEX
  8
gg1
 10
0.828200
 20
0.484800
  0
VERTEX
  8
gg1
 10
0.840200
 20
0.484800
  0
SEQEND
  8
gg1
  0
POLYLINE
  8
gg1
 62
1
 40
0.000000
 41
0.000000
 66
  1
  0
VERTEX
  8
gg1
 10
0.834200
 20
0.478800
  0
VERTEX
  8
gg1
 10
0.834200
 20
0.490800
  0
SEQEND
  8
gg1
  0
POLYLINE
  8
gg1
 62
1
 40
0.000000
 41
0.000000
 66
  1
  0
VERTEX
  8
gg1
 10
0.899100
 20
0.461200
  0
VERTEX
  8
gg1
 10
0.911100
 20
0.461200
  0
SEQEND
  8
gg1
  0
POLYLINE
  8
gg1
 62
1
 40
0.000000
 41
0.000000
 66
  1
  0
VERTEX
  8
gg1
 10
0.905100
 20
0.455200
  0
VERTEX
  8
gg1
 10
0.905100
 20
0.467200
  0
SEQEND
  8
gg1
  0
POLYLINE
  8
gg1
 62
1
 40
0.000000
 41
0.000000
 66
  1
  0
VERTEX
  8
gg1
 10
0.899100
 20
0.484800
  0
VERTEX
  8
gg1
 10
0.911100
 20
0.484800
  0
SEQEND
  8
gg1
  0
POLYLINE
  8
gg1
 62
1
 40
0.000000
 41
0.000000
 66
  1
  0
VERTEX
  8
gg1
 10
0.905100
 20
0.478800
  0
VERTEX
  8
gg1
 10
0.905100
 20
0.490800
  0
SEQEND
  8
gg1
  0
POLYLINE
  8
gg1
 62
1
 40
0.000000
 41
0.000000
 66
  1
  0
VERTEX
  8
gg1
 10
0.875400
 20
0.461200
  0
VERTEX
  8
gg1
 10
0.887400
 20
0.461200
  0
SEQEND
  8
gg1
  0
POLYLINE
  8
gg1
 62
1
 40
0.000000
 41
0.000000
 66
  1
  0
VERTEX
  8
gg1
 10
0.881400
 20
0.455200
  0
VERTEX
  8
gg1
 10
0.881400
 20
0.467200
  0
SEQEND
  8
gg1
  0
POLYLINE
  8
gg1
 62
1
 40
0.000000
 41
0.000000
 66
  1
  0
VERTEX
  8
gg1
 10
0.875400
 20
0.484800
  0
VERTEX
  8
gg1
 10
0.887400
 20
0.484800
  0
SEQEND
  8
gg1
  0
POLYLINE
  8
gg1
 62
1
 40
0.000000
 41
0.000000
 66
  1
  0
VERTEX
  8
gg1
 10
0.881400
 20
0.478800
  0
VERTEX
  8
gg1
 10
0.881400
 20
0.490800
  0
SEQEND
  8
gg1
  0
POLYLINE
  8
gg1
 62
1
 40
0.000000
 41
0.000000
 66
  1
  0
VERTEX
  8
gg1
 10
0.851800
 20
0.461200
  0
VERTEX
  8
gg1
 10
0.863800
 20
0.461200
  0
SEQEND
  8
gg1
  0
POLYLINE
  8
gg1
 62
1
 40
0.000000
 41
0.000000
 66
  1
  0
VERTEX
  8
gg1
 10
0.857800
 20
0.455200
  0
VERTEX
  8
gg1
 10
0.857800
 20
0.467200
  0
SEQEND
  8
gg1
  0
POLYLINE
  8
gg1
 62
1
 40
0.000000
 41
0.000000
 66
  1
  0
VERTEX
  8
gg1
 10
0.851800
 20
0.484800
  0
VERTEX
  8
gg1
 10
0.863800
 20
0.484800
  0
SEQEND
  8
gg1
  0
POLYLINE
  8
gg1
 62
1
 40
0.000000
 41
0.000000
 66
  1
  0
VERTEX
  8
gg1
 10
0.857800
 20
0.478800
  0
VERTEX
  8
gg1
 10
0.857800
 20
0.490800
  0
SEQEND
  8
gg1
  0
ENDSEC
  0
EOF
