  0
SECTION
  2
HEADER
  9
$EXTMIN
 10
0.092000
 20
0.473000
  9
$EXTMAX
 10
1.422000
 20
1.294000
  9
$LIMMIN
 10
0.092000
 20
0.473000
  9
$LIMMAX
 10
1.422000
 20
1.294000
  9
$FILLMODE
 70
  1
  0
ENDSEC
  0
SECTION
  2
TABLES
  0
TABLE
  2
LTYPE
 70
  1
  0
LTYPE
  2
CONTINUOUS
 70
 64
  3
Solid line
 72
 65
 73
  0
 40
0.0
  0
ENDTAB
  0
TABLE
  2
LAYER
 70
 1
  0
LAYER
  2
0
 70
  0
 62
7
  6
CONTINUOUS
  0
LAYER
  2
gg1
 70
  0
 62
1
  6
CONTINUOUS
  0
ENDTAB
  0
TABLE
  2
STYLE
 70
  1
  0
STYLE
  2
STANDARD
 70
  0
 40
0.0
 41
1.0
 50
0.0
 71
  0
 42
0.2
  3
txt
  4

  0
ENDTAB
  0
ENDSEC
  0
SECTION
  2
BLOCKS
  0
BLOCK
  8
0
  2
D10
 70
64
 10
0.0
 20
0.0
  3
D10
  0
CIRCLE
  8
0
 10
0.000000
 20
0.000000
 40
0.003950
 0
ENDBLK
  8
0
  0
BLOCK
  8
0
  2
D11
 70
64
 10
0.0
 20
0.0
  3
D11
  0
CIRCLE
  8
0
 10
0.000000
 20
0.000000
 40
0.005000
 0
ENDBLK
  8
0
  0
BLOCK
  8
0
  2
D12
 70
64
 10
0.0
 20
0.0
  3
D12
  0
CIRCLE
  8
0
 10
0.000000
 20
0.000000
 40
0.003000
 0
ENDBLK
  8
0
  0
BLOCK
  8
0
  2
D13
 70
64
 10
0.0
 20
0.0
  3
D13
  0
CIRCLE
  8
0
 10
0.000000
 20
0.000000
 40
0.001000
 0
ENDBLK
  8
0
  0
ENDSEC
  0
SECTION
  2
ENTITIES
  0
POLYLINE
  8
gg1
 62
1
 40
0.000000
 41
0.000000
 66
  1
  0
VERTEX
  8
gg1
 10
0.217000
 20
0.589000
  0
VERTEX
  8
gg1
 10
0.217000
 20
1.289000
  0
VERTEX
  8
gg1
 10
1.417000
 20
1.289000
  0
SEQEND
  8
gg1
  0
POLYLINE
  8
gg1
 62
1
 40
0.000000
 41
0.000000
 66
  1
  0
VERTEX
  8
gg1
 10
1.417000
 20
0.589000
  0
VERTEX
  8
gg1
 10
1.417000
 20
1.289000
  0
SEQEND
  8
gg1
  0
POLYLINE
  8
gg1
 62
1
 40
0.000000
 41
0.000000
 66
  1
  0
VERTEX
  8
gg1
 10
0.217000
 20
0.589000
  0
VERTEX
  8
gg1
 10
1.417000
 20
0.589000
  0
SEQEND
  8
gg1
  0
POLYLINE
  8
gg1
 62
1
 40
0.000000
 41
0.000000
 66
  1
  0
VERTEX
  8
gg1
 10
0.097000
 20
0.649000
  0
VERTEX
  8
gg1
 10
0.117000
 20
0.589000
  0
VERTEX
  8
gg1
 10
0.137000
 20
0.649000
  0
SEQEND
  8
gg1
  0
POLYLINE
  8
gg1
 62
1
 40
0.000000
 41
0.000000
 66
  1
  0
VERTEX
  8
gg1
 10
0.117000
 20
1.289000
  0
VERTEX
  8
gg1
 10
0.137000
 20
1.229000
  0
SEQEND
  8
gg1
  0
POLYLINE
  8
gg1
 62
1
 40
0.000000
 41
0.000000
 66
  1
  0
VERTEX
  8
gg1
 10
0.097000
 20
1.229000
  0
VERTEX
  8
gg1
 10
0.117000
 20
1.289000
  0
SEQEND
  8
gg1
  0
POLYLINE
  8
gg1
 62
1
 40
0.000000
 41
0.000000
 66
  1
  0
VERTEX
  8
gg1
 10
0.117000
 20
0.589000
  0
VERTEX
  8
gg1
 10
0.117000
 20
0.754000
  0
SEQEND
  8
gg1
  0
POLYLINE
  8
gg1
 62
1
 40
0.000000
 41
0.000000
 66
  1
  0
VERTEX
  8
gg1
 10
0.117000
 20
1.095900
  0
VERTEX
  8
gg1
 10
0.117000
 20
1.289000
  0
SEQEND
  8
gg1
  0
POLYLINE
  8
gg1
 62
1
 40
0.000000
 41
0.000000
 66
  1
  0
VERTEX
  8
gg1
 10
0.107000
 20
0.589000
  0
VERTEX
  8
gg1
 10
0.203100
 20
0.589000
  0
SEQEND
  8
gg1
  0
POLYLINE
  8
gg1
 62
1
 40
0.000000
 41
0.000000
 66
  1
  0
VERTEX
  8
gg1
 10
0.107000
 20
1.289000
  0
VERTEX
  8
gg1
 10
0.203100
 20
1.289000
  0
SEQEND
  8
gg1
  0
POLYLINE
  8
gg1
 62
1
 40
0.000000
 41
0.000000
 66
  1
  0
VERTEX
  8
gg1
 10
0.217000
 20
0.512000
  0
VERTEX
  8
gg1
 10
0.277000
 20
0.532000
  0
SEQEND
  8
gg1
  0
POLYLINE
  8
gg1
 62
1
 40
0.000000
 41
0.000000
 66
  1
  0
VERTEX
  8
gg1
 10
0.217000
 20
0.512000
  0
VERTEX
  8
gg1
 10
0.277000
 20
0.492000
  0
SEQEND
  8
gg1
  0
POLYLINE
  8
gg1
 62
1
 40
0.000000
 41
0.000000
 66
  1
  0
VERTEX
  8
gg1
 10
1.357000
 20
0.492000
  0
VERTEX
  8
gg1
 10
1.417000
 20
0.512000
  0
SEQEND
  8
gg1
  0
POLYLINE
  8
gg1
 62
1
 40
0.000000
 41
0.000000
 66
  1
  0
VERTEX
  8
gg1
 10
1.357000
 20
0.532000
  0
VERTEX
  8
gg1
 10
1.417000
 20
0.512000
  0
SEQEND
  8
gg1
  0
POLYLINE
  8
gg1
 62
1
 40
0.000000
 41
0.000000
 66
  1
  0
VERTEX
  8
gg1
 10
0.217000
 20
0.512000
  0
VERTEX
  8
gg1
 10
0.605100
 20
0.512000
  0
SEQEND
  8
gg1
  0
POLYLINE
  8
gg1
 62
1
 40
0.000000
 41
0.000000
 66
  1
  0
VERTEX
  8
gg1
 10
0.996900
 20
0.512000
  0
VERTEX
  8
gg1
 10
1.417000
 20
0.512000
  0
SEQEND
  8
gg1
  0
POLYLINE
  8
gg1
 62
1
 40
0.000000
 41
0.000000
 66
  1
  0
VERTEX
  8
gg1
 10
0.217000
 20
0.502000
  0
VERTEX
  8
gg1
 10
0.217000
 20
0.575100
  0
SEQEND
  8
gg1
  0
POLYLINE
  8
gg1
 62
1
 40
0.000000
 41
0.000000
 66
  1
  0
VERTEX
  8
gg1
 10
1.417000
 20
0.502000
  0
VERTEX
  8
gg1
 10
1.417000
 20
0.575100
  0
SEQEND
  8
gg1
  0
POLYLINE
  8
gg1
 62
1
 40
0.000000
 41
0.000000
 66
  1
  0
VERTEX
  8
gg1
 10
0.101000
 20
0.770000
  0
VERTEX
  8
gg1
 10
0.101000
 20
0.810000
  0
VERTEX
  8
gg1
 10
0.111000
 20
0.810000
  0
VERTEX
  8
gg1
 10
0.151000
 20
0.770000
  0
VERTEX
  8
gg1
 10
0.161000
 20
0.770000
  0
SEQEND
  8
gg1
  0
POLYLINE
  8
gg1
 62
1
 40
0.000000
 41
0.000000
 66
  1
  0
VERTEX
  8
gg1
 10
0.111000
 20
0.830000
  0
VERTEX
  8
gg1
 10
0.101000
 20
0.840000
  0
VERTEX
  8
gg1
 10
0.101000
 20
0.860000
  0
VERTEX
  8
gg1
 10
0.111000
 20
0.870000
  0
VERTEX
  8
gg1
 10
0.151000
 20
0.870000
  0
VERTEX
  8
gg1
 10
0.161000
 20
0.860000
  0
VERTEX
  8
gg1
 10
0.161000
 20
0.840000
  0
VERTEX
  8
gg1
 10
0.151000
 20
0.830000
  0
VERTEX
  8
gg1
 10
0.111000
 20
0.830000
  0
SEQEND
  8
gg1
  0
POLYLINE
  8
gg1
 62
1
 40
0.000000
 41
0.000000
 66
  1
  0
VERTEX
  8
gg1
 10
0.111000
 20
0.890000
  0
VERTEX
  8
gg1
 10
0.101000
 20
0.900000
  0
VERTEX
  8
gg1
 10
0.101000
 20
0.920000
  0
VERTEX
  8
gg1
 10
0.111000
 20
0.929900
  0
VERTEX
  8
gg1
 10
0.151000
 20
0.929900
  0
VERTEX
  8
gg1
 10
0.161000
 20
0.920000
  0
VERTEX
  8
gg1
 10
0.161000
 20
0.900000
  0
VERTEX
  8
gg1
 10
0.151000
 20
0.890000
  0
VERTEX
  8
gg1
 10
0.111000
 20
0.890000
  0
SEQEND
  8
gg1
  0
POLYLINE
  8
gg1
 62
1
 40
0.000000
 41
0.000000
 66
  1
  0
VERTEX
  8
gg1
 10
0.161000
 20
0.949900
  0
VERTEX
  8
gg1
 10
0.121000
 20
0.949900
  0
VERTEX
  8
gg1
 10
0.121000
 20
0.959900
  0
VERTEX
  8
gg1
 10
0.131000
 20
0.969900
  0
VERTEX
  8
gg1
 10
0.161000
 20
0.969900
  0
VERTEX
  8
gg1
 10
0.131000
 20
0.969900
  0
VERTEX
  8
gg1
 10
0.121000
 20
0.979900
  0
VERTEX
  8
gg1
 10
0.131000
 20
0.989900
  0
VERTEX
  8
gg1
 10
0.161000
 20
0.989900
  0
SEQEND
  8
gg1
  0
POLYLINE
  8
gg1
 62
1
 40
0.000000
 41
0.000000
 66
  1
  0
VERTEX
  8
gg1
 10
0.161000
 20
1.009900
  0
VERTEX
  8
gg1
 10
0.161000
 20
1.029900
  0
VERTEX
  8
gg1
 10
0.161000
 20
1.019900
  0
VERTEX
  8
gg1
 10
0.121000
 20
1.019900
  0
VERTEX
  8
gg1
 10
0.121000
 20
1.009900
  0
SEQEND
  8
gg1
  0
POLYLINE
  8
gg1
 62
1
 40
0.000000
 41
0.000000
 66
  1
  0
VERTEX
  8
gg1
 10
0.161000
 20
1.059900
  0
VERTEX
  8
gg1
 10
0.161000
 20
1.079900
  0
VERTEX
  8
gg1
 10
0.161000
 20
1.069900
  0
VERTEX
  8
gg1
 10
0.101000
 20
1.069900
  0
VERTEX
  8
gg1
 10
0.101000
 20
1.059900
  0
SEQEND
  8
gg1
  0
POLYLINE
  8
gg1
 62
1
 40
0.000000
 41
0.000000
 66
  1
  0
VERTEX
  8
gg1
 10
0.621100
 20
0.476000
  0
VERTEX
  8
gg1
 10
0.641100
 20
0.476000
  0
VERTEX
  8
gg1
 10
0.631100
 20
0.476000
  0
VERTEX
  8
gg1
 10
0.631100
 20
0.536000
  0
VERTEX
  8
gg1
 10
0.621100
 20
0.526000
  0
SEQEND
  8
gg1
  0
POLYLINE
  8
gg1
 62
1
 40
0.000000
 41
0.000000
 66
  1
  0
VERTEX
  8
gg1
 10
0.711000
 20
0.476000
  0
VERTEX
  8
gg1
 10
0.671000
 20
0.476000
  0
VERTEX
  8
gg1
 10
0.711000
 20
0.516000
  0
VERTEX
  8
gg1
 10
0.711000
 20
0.526000
  0
VERTEX
  8
gg1
 10
0.701000
 20
0.536000
  0
VERTEX
  8
gg1
 10
0.681000
 20
0.536000
  0
VERTEX
  8
gg1
 10
0.671000
 20
0.526000
  0
SEQEND
  8
gg1
  0
POLYLINE
  8
gg1
 62
1
 40
0.000000
 41
0.000000
 66
  1
  0
VERTEX
  8
gg1
 10
0.731000
 20
0.526000
  0
VERTEX
  8
gg1
 10
0.741000
 20
0.536000
  0
VERTEX
  8
gg1
 10
0.761000
 20
0.536000
  0
VERTEX
  8
gg1
 10
0.771000
 20
0.526000
  0
VERTEX
  8
gg1
 10
0.771000
 20
0.486000
  0
VERTEX
  8
gg1
 10
0.761000
 20
0.476000
  0
VERTEX
  8
gg1
 10
0.741000
 20
0.476000
  0
VERTEX
  8
gg1
 10
0.731000
 20
0.486000
  0
VERTEX
  8
gg1
 10
0.731000
 20
0.526000
  0
SEQEND
  8
gg1
  0
POLYLINE
  8
gg1
 62
1
 40
0.000000
 41
0.000000
 66
  1
  0
VERTEX
  8
gg1
 10
0.791000
 20
0.526000
  0
VERTEX
  8
gg1
 10
0.801000
 20
0.536000
  0
VERTEX
  8
gg1
 10
0.821000
 20
0.536000
  0
VERTEX
  8
gg1
 10
0.831000
 20
0.526000
  0
VERTEX
  8
gg1
 10
0.831000
 20
0.486000
  0
VERTEX
  8
gg1
 10
0.821000
 20
0.476000
  0
VERTEX
  8
gg1
 10
0.801000
 20
0.476000
  0
VERTEX
  8
gg1
 10
0.791000
 20
0.486000
  0
VERTEX
  8
gg1
 10
0.791000
 20
0.526000
  0
SEQEND
  8
gg1
  0
POLYLINE
  8
gg1
 62
1
 40
0.000000
 41
0.000000
 66
  1
  0
VERTEX
  8
gg1
 10
0.851000
 20
0.476000
  0
VERTEX
  8
gg1
 10
0.851000
 20
0.516000
  0
VERTEX
  8
gg1
 10
0.861000
 20
0.516000
  0
VERTEX
  8
gg1
 10
0.871000
 20
0.506000
  0
VERTEX
  8
gg1
 10
0.871000
 20
0.476000
  0
VERTEX
  8
gg1
 10
0.871000
 20
0.506000
  0
VERTEX
  8
gg1
 10
0.881000
 20
0.516000
  0
VERTEX
  8
gg1
 10
0.891000
 20
0.506000
  0
VERTEX
  8
gg1
 10
0.891000
 20
0.476000
  0
SEQEND
  8
gg1
  0
POLYLINE
  8
gg1
 62
1
 40
0.000000
 41
0.000000
 66
  1
  0
VERTEX
  8
gg1
 10
0.911000
 20
0.476000
  0
VERTEX
  8
gg1
 10
0.931000
 20
0.476000
  0
VERTEX
  8
gg1
 10
0.921000
 20
0.476000
  0
VERTEX
  8
gg1
 10
0.921000
 20
0.516000
  0
VERTEX
  8
gg1
 10
0.911000
 20
0.516000
  0
SEQEND
  8
gg1
  0
POLYLINE
  8
gg1
 62
1
 40
0.000000
 41
0.000000
 66
  1
  0
VERTEX
  8
gg1
 10
0.960900
 20
0.476000
  0
VERTEX
  8
gg1
 10
0.980900
 20
0.476000
  0
VERTEX
  8
gg1
 10
0.970900
 20
0.476000
  0
VERTEX
  8
gg1
 10
0.970900
 20
0.536000
  0
VERTEX
  8
gg1
 10
0.960900
 20
0.536000
  0
SEQEND
  8
gg1
  0
POLYLINE
  8
gg1
 62
1
 40
0.000000
 41
0.000000
 66
  1
  0
VERTEX
  8
gg1
 10
0.947000
 20
1.089000
  0
VERTEX
  8
gg1
 10
0.987000
 20
1.089000
  0
SEQEND
  8
gg1
  0
POLYLINE
  8
gg1
 62
1
 40
0.000000
 41
0.000000
 66
  1
  0
VERTEX
  8
gg1
 10
0.967000
 20
1.069000
  0
VERTEX
  8
gg1
 10
0.967000
 20
1.109000
  0
SEQEND
  8
gg1
  0
POLYLINE
  8
gg1
 62
1
 40
0.000000
 41
0.000000
 66
  1
  0
VERTEX
  8
gg1
 10
0.847000
 20
1.089000
  0
VERTEX
  8
gg1
 10
0.887000
 20
1.089000
  0
SEQEND
  8
gg1
  0
POLYLINE
  8
gg1
 62
1
 40
0.000000
 41
0.000000
 66
  1
  0
VERTEX
  8
gg1
 10
0.867000
 20
1.069000
  0
VERTEX
  8
gg1
 10
0.867000
 20
1.109000
  0
SEQEND
  8
gg1
  0
POLYLINE
  8
gg1
 62
1
 40
0.000000
 41
0.000000
 66
  1
  0
VERTEX
  8
gg1
 10
0.947000
 20
1.189000
  0
VERTEX
  8
gg1
 10
0.987000
 20
1.189000
  0
SEQEND
  8
gg1
  0
POLYLINE
  8
gg1
 62
1
 40
0.000000
 41
0.000000
 66
  1
  0
VERTEX
  8
gg1
 10
0.967000
 20
1.169000
  0
VERTEX
  8
gg1
 10
0.967000
 20
1.209000
  0
SEQEND
  8
gg1
  0
POLYLINE
  8
gg1
 62
1
 40
0.000000
 41
0.000000
 66
  1
  0
VERTEX
  8
gg1
 10
0.847000
 20
1.189000
  0
VERTEX
  8
gg1
 10
0.887000
 20
1.189000
  0
SEQEND
  8
gg1
  0
POLYLINE
  8
gg1
 62
1
 40
0.000000
 41
0.000000
 66
  1
  0
VERTEX
  8
gg1
 10
0.867000
 20
1.169000
  0
VERTEX
  8
gg1
 10
0.867000
 20
1.209000
  0
SEQEND
  8
gg1
  0
POLYLINE
  8
gg1
 62
1
 40
0.000000
 41
0.000000
 66
  1
  0
VERTEX
  8
gg1
 10
0.547000
 20
0.639000
  0
VERTEX
  8
gg1
 10
0.587000
 20
0.639000
  0
SEQEND
  8
gg1
  0
POLYLINE
  8
gg1
 62
1
 40
0.000000
 41
0.000000
 66
  1
  0
VERTEX
  8
gg1
 10
0.567000
 20
0.619000
  0
VERTEX
  8
gg1
 10
0.567000
 20
0.659000
  0
SEQEND
  8
gg1
  0
POLYLINE
  8
gg1
 62
1
 40
0.000000
 41
0.000000
 66
  1
  0
VERTEX
  8
gg1
 10
0.447000
 20
0.639000
  0
VERTEX
  8
gg1
 10
0.487000
 20
0.639000
  0
SEQEND
  8
gg1
  0
POLYLINE
  8
gg1
 62
1
 40
0.000000
 41
0.000000
 66
  1
  0
VERTEX
  8
gg1
 10
0.467000
 20
0.619000
  0
VERTEX
  8
gg1
 10
0.467000
 20
0.659000
  0
SEQEND
  8
gg1
  0
POLYLINE
  8
gg1
 62
1
 40
0.000000
 41
0.000000
 66
  1
  0
VERTEX
  8
gg1
 10
0.747000
 20
0.639000
  0
VERTEX
  8
gg1
 10
0.787000
 20
0.639000
  0
SEQEND
  8
gg1
  0
POLYLINE
  8
gg1
 62
1
 40
0.000000
 41
0.000000
 66
  1
  0
VERTEX
  8
gg1
 10
0.767000
 20
0.619000
  0
VERTEX
  8
gg1
 10
0.767000
 20
0.659000
  0
SEQEND
  8
gg1
  0
POLYLINE
  8
gg1
 62
1
 40
0.000000
 41
0.000000
 66
  1
  0
VERTEX
  8
gg1
 10
0.647000
 20
0.639000
  0
VERTEX
  8
gg1
 10
0.687000
 20
0.639000
  0
SEQEND
  8
gg1
  0
POLYLINE
  8
gg1
 62
1
 40
0.000000
 41
0.000000
 66
  1
  0
VERTEX
  8
gg1
 10
0.667000
 20
0.619000
  0
VERTEX
  8
gg1
 10
0.667000
 20
0.659000
  0
SEQEND
  8
gg1
  0
POLYLINE
  8
gg1
 62
1
 40
0.000000
 41
0.000000
 66
  1
  0
VERTEX
  8
gg1
 10
0.847000
 20
0.639000
  0
VERTEX
  8
gg1
 10
0.887000
 20
0.639000
  0
SEQEND
  8
gg1
  0
POLYLINE
  8
gg1
 62
1
 40
0.000000
 41
0.000000
 66
  1
  0
VERTEX
  8
gg1
 10
0.867000
 20
0.619000
  0
VERTEX
  8
gg1
 10
0.867000
 20
0.659000
  0
SEQEND
  8
gg1
  0
POLYLINE
  8
gg1
 62
1
 40
0.000000
 41
0.000000
 66
  1
  0
VERTEX
  8
gg1
 10
0.947000
 20
0.639000
  0
VERTEX
  8
gg1
 10
0.987000
 20
0.639000
  0
SEQEND
  8
gg1
  0
POLYLINE
  8
gg1
 62
1
 40
0.000000
 41
0.000000
 66
  1
  0
VERTEX
  8
gg1
 10
0.967000
 20
0.619000
  0
VERTEX
  8
gg1
 10
0.967000
 20
0.659000
  0
SEQEND
  8
gg1
  0
POLYLINE
  8
gg1
 62
1
 40
0.000000
 41
0.000000
 66
  1
  0
VERTEX
  8
gg1
 10
1.047000
 20
0.639000
  0
VERTEX
  8
gg1
 10
1.087000
 20
0.639000
  0
SEQEND
  8
gg1
  0
POLYLINE
  8
gg1
 62
1
 40
0.000000
 41
0.000000
 66
  1
  0
VERTEX
  8
gg1
 10
1.067000
 20
0.619000
  0
VERTEX
  8
gg1
 10
1.067000
 20
0.659000
  0
SEQEND
  8
gg1
  0
POLYLINE
  8
gg1
 62
1
 40
0.000000
 41
0.000000
 66
  1
  0
VERTEX
  8
gg1
 10
1.147000
 20
0.639000
  0
VERTEX
  8
gg1
 10
1.187000
 20
0.639000
  0
SEQEND
  8
gg1
  0
POLYLINE
  8
gg1
 62
1
 40
0.000000
 41
0.000000
 66
  1
  0
VERTEX
  8
gg1
 10
1.167000
 20
0.619000
  0
VERTEX
  8
gg1
 10
1.167000
 20
0.659000
  0
SEQEND
  8
gg1
  0
POLYLINE
  8
gg1
 62
1
 40
0.000000
 41
0.000000
 66
  1
  0
VERTEX
  8
gg1
 10
0.247000
 20
0.639000
  0
VERTEX
  8
gg1
 10
0.287000
 20
0.639000
  0
SEQEND
  8
gg1
  0
POLYLINE
  8
gg1
 62
1
 40
0.000000
 41
0.000000
 66
  1
  0
VERTEX
  8
gg1
 10
0.267000
 20
0.619000
  0
VERTEX
  8
gg1
 10
0.267000
 20
0.659000
  0
SEQEND
  8
gg1
  0
POLYLINE
  8
gg1
 62
1
 40
0.000000
 41
0.000000
 66
  1
  0
VERTEX
  8
gg1
 10
0.347000
 20
0.639000
  0
VERTEX
  8
gg1
 10
0.387000
 20
0.639000
  0
SEQEND
  8
gg1
  0
POLYLINE
  8
gg1
 62
1
 40
0.000000
 41
0.000000
 66
  1
  0
VERTEX
  8
gg1
 10
0.367000
 20
0.619000
  0
VERTEX
  8
gg1
 10
0.367000
 20
0.659000
  0
SEQEND
  8
gg1
  0
POLYLINE
  8
gg1
 62
1
 40
0.000000
 41
0.000000
 66
  1
  0
VERTEX
  8
gg1
 10
1.247000
 20
0.639000
  0
VERTEX
  8
gg1
 10
1.287000
 20
0.639000
  0
SEQEND
  8
gg1
  0
POLYLINE
  8
gg1
 62
1
 40
0.000000
 41
0.000000
 66
  1
  0
VERTEX
  8
gg1
 10
1.267000
 20
0.619000
  0
VERTEX
  8
gg1
 10
1.267000
 20
0.659000
  0
SEQEND
  8
gg1
  0
POLYLINE
  8
gg1
 62
1
 40
0.000000
 41
0.000000
 66
  1
  0
VERTEX
  8
gg1
 10
1.347000
 20
0.639000
  0
VERTEX
  8
gg1
 10
1.387000
 20
0.639000
  0
SEQEND
  8
gg1
  0
POLYLINE
  8
gg1
 62
1
 40
0.000000
 41
0.000000
 66
  1
  0
VERTEX
  8
gg1
 10
1.367000
 20
0.619000
  0
VERTEX
  8
gg1
 10
1.367000
 20
0.659000
  0
SEQEND
  8
gg1
  0
POLYLINE
  8
gg1
 62
1
 40
0.000000
 41
0.000000
 66
  1
  0
VERTEX
  8
gg1
 10
1.274000
 20
1.189000
  0
VERTEX
  8
gg1
 10
1.360000
 20
1.189000
  0
SEQEND
  8
gg1
  0
POLYLINE
  8
gg1
 62
1
 40
0.000000
 41
0.000000
 66
  1
  0
VERTEX
  8
gg1
 10
1.317000
 20
1.146000
  0
VERTEX
  8
gg1
 10
1.317000
 20
1.232000
  0
SEQEND
  8
gg1
  0
POLYLINE
  8
gg1
 62
1
 40
0.000000
 41
0.000000
 66
  1
  0
VERTEX
  8
gg1
 10
0.274000
 20
1.189000
  0
VERTEX
  8
gg1
 10
0.360000
 20
1.189000
  0
SEQEND
  8
gg1
  0
POLYLINE
  8
gg1
 62
1
 40
0.000000
 41
0.000000
 66
  1
  0
VERTEX
  8
gg1
 10
0.317000
 20
1.146000
  0
VERTEX
  8
gg1
 10
0.317000
 20
1.232000
  0
SEQEND
  8
gg1
  0
POLYLINE
  8
gg1
 62
1
 40
0.000000
 41
0.000000
 66
  1
  0
VERTEX
  8
gg1
 10
1.124500
 20
0.992500
  0
VERTEX
  8
gg1
 10
1.139500
 20
0.992500
  0
SEQEND
  8
gg1
  0
POLYLINE
  8
gg1
 62
1
 40
0.000000
 41
0.000000
 66
  1
  0
VERTEX
  8
gg1
 10
1.132000
 20
0.985000
  0
VERTEX
  8
gg1
 10
1.132000
 20
1.000000
  0
SEQEND
  8
gg1
  0
POLYLINE
  8
gg1
 62
1
 40
0.000000
 41
0.000000
 66
  1
  0
VERTEX
  8
gg1
 10
1.124500
 20
0.933500
  0
VERTEX
  8
gg1
 10
1.139500
 20
0.933500
  0
SEQEND
  8
gg1
  0
POLYLINE
  8
gg1
 62
1
 40
0.000000
 41
0.000000
 66
  1
  0
VERTEX
  8
gg1
 10
1.132000
 20
0.926000
  0
VERTEX
  8
gg1
 10
1.132000
 20
0.941000
  0
SEQEND
  8
gg1
  0
POLYLINE
  8
gg1
 62
1
 40
0.000000
 41
0.000000
 66
  1
  0
VERTEX
  8
gg1
 10
1.154000
 20
0.963000
  0
VERTEX
  8
gg1
 10
1.169000
 20
0.963000
  0
SEQEND
  8
gg1
  0
POLYLINE
  8
gg1
 62
1
 40
0.000000
 41
0.000000
 66
  1
  0
VERTEX
  8
gg1
 10
1.161500
 20
0.955500
  0
VERTEX
  8
gg1
 10
1.161500
 20
0.970500
  0
SEQEND
  8
gg1
  0
POLYLINE
  8
gg1
 62
1
 40
0.000000
 41
0.000000
 66
  1
  0
VERTEX
  8
gg1
 10
1.095000
 20
0.963000
  0
VERTEX
  8
gg1
 10
1.110000
 20
0.963000
  0
SEQEND
  8
gg1
  0
POLYLINE
  8
gg1
 62
1
 40
0.000000
 41
0.000000
 66
  1
  0
VERTEX
  8
gg1
 10
1.102500
 20
0.955500
  0
VERTEX
  8
gg1
 10
1.102500
 20
0.970500
  0
SEQEND
  8
gg1
  0
POLYLINE
  8
gg1
 62
1
 40
0.000000
 41
0.000000
 66
  1
  0
VERTEX
  8
gg1
 10
1.049500
 20
1.159000
  0
VERTEX
  8
gg1
 10
1.064500
 20
1.159000
  0
SEQEND
  8
gg1
  0
POLYLINE
  8
gg1
 62
1
 40
0.000000
 41
0.000000
 66
  1
  0
VERTEX
  8
gg1
 10
1.057000
 20
1.151500
  0
VERTEX
  8
gg1
 10
1.057000
 20
1.166500
  0
SEQEND
  8
gg1
  0
POLYLINE
  8
gg1
 62
1
 40
0.000000
 41
0.000000
 66
  1
  0
VERTEX
  8
gg1
 10
1.209500
 20
1.104000
  0
VERTEX
  8
gg1
 10
1.224500
 20
1.104000
  0
SEQEND
  8
gg1
  0
POLYLINE
  8
gg1
 62
1
 40
0.000000
 41
0.000000
 66
  1
  0
VERTEX
  8
gg1
 10
1.217000
 20
1.096500
  0
VERTEX
  8
gg1
 10
1.217000
 20
1.111500
  0
SEQEND
  8
gg1
  0
POLYLINE
  8
gg1
 62
1
 40
0.000000
 41
0.000000
 66
  1
  0
VERTEX
  8
gg1
 10
1.259500
 20
1.024000
  0
VERTEX
  8
gg1
 10
1.274500
 20
1.024000
  0
SEQEND
  8
gg1
  0
POLYLINE
  8
gg1
 62
1
 40
0.000000
 41
0.000000
 66
  1
  0
VERTEX
  8
gg1
 10
1.267000
 20
1.016500
  0
VERTEX
  8
gg1
 10
1.267000
 20
1.031500
  0
SEQEND
  8
gg1
  0
POLYLINE
  8
gg1
 62
1
 40
0.000000
 41
0.000000
 66
  1
  0
VERTEX
  8
gg1
 10
1.324500
 20
0.819000
  0
VERTEX
  8
gg1
 10
1.339500
 20
0.819000
  0
SEQEND
  8
gg1
  0
POLYLINE
  8
gg1
 62
1
 40
0.000000
 41
0.000000
 66
  1
  0
VERTEX
  8
gg1
 10
1.332000
 20
0.811500
  0
VERTEX
  8
gg1
 10
1.332000
 20
0.826500
  0
SEQEND
  8
gg1
  0
POLYLINE
  8
gg1
 62
1
 40
0.000000
 41
0.000000
 66
  1
  0
VERTEX
  8
gg1
 10
0.859500
 20
1.019000
  0
VERTEX
  8
gg1
 10
0.874500
 20
1.019000
  0
SEQEND
  8
gg1
  0
POLYLINE
  8
gg1
 62
1
 40
0.000000
 41
0.000000
 66
  1
  0
VERTEX
  8
gg1
 10
0.867000
 20
1.011500
  0
VERTEX
  8
gg1
 10
0.867000
 20
1.026500
  0
SEQEND
  8
gg1
  0
POLYLINE
  8
gg1
 62
1
 40
0.000000
 41
0.000000
 66
  1
  0
VERTEX
  8
gg1
 10
0.949500
 20
0.959000
  0
VERTEX
  8
gg1
 10
0.964500
 20
0.959000
  0
SEQEND
  8
gg1
  0
POLYLINE
  8
gg1
 62
1
 40
0.000000
 41
0.000000
 66
  1
  0
VERTEX
  8
gg1
 10
0.957000
 20
0.951500
  0
VERTEX
  8
gg1
 10
0.957000
 20
0.966500
  0
SEQEND
  8
gg1
  0
POLYLINE
  8
gg1
 62
1
 40
0.000000
 41
0.000000
 66
  1
  0
VERTEX
  8
gg1
 10
0.529500
 20
0.999000
  0
VERTEX
  8
gg1
 10
0.544500
 20
0.999000
  0
SEQEND
  8
gg1
  0
POLYLINE
  8
gg1
 62
1
 40
0.000000
 41
0.000000
 66
  1
  0
VERTEX
  8
gg1
 10
0.537000
 20
0.991500
  0
VERTEX
  8
gg1
 10
0.537000
 20
1.006500
  0
SEQEND
  8
gg1
  0
POLYLINE
  8
gg1
 62
1
 40
0.000000
 41
0.000000
 66
  1
  0
VERTEX
  8
gg1
 10
0.484500
 20
1.044000
  0
VERTEX
  8
gg1
 10
0.499500
 20
1.044000
  0
SEQEND
  8
gg1
  0
POLYLINE
  8
gg1
 62
1
 40
0.000000
 41
0.000000
 66
  1
  0
VERTEX
  8
gg1
 10
0.492000
 20
1.036500
  0
VERTEX
  8
gg1
 10
0.492000
 20
1.051500
  0
SEQEND
  8
gg1
  0
POLYLINE
  8
gg1
 62
1
 40
0.000000
 41
0.000000
 66
  1
  0
VERTEX
  8
gg1
 10
0.529500
 20
1.039000
  0
VERTEX
  8
gg1
 10
0.544500
 20
1.039000
  0
SEQEND
  8
gg1
  0
POLYLINE
  8
gg1
 62
1
 40
0.000000
 41
0.000000
 66
  1
  0
VERTEX
  8
gg1
 10
0.537000
 20
1.031500
  0
VERTEX
  8
gg1
 10
0.537000
 20
1.046500
  0
SEQEND
  8
gg1
  0
POLYLINE
  8
gg1
 62
1
 40
0.000000
 41
0.000000
 66
  1
  0
VERTEX
  8
gg1
 10
0.379500
 20
0.969000
  0
VERTEX
  8
gg1
 10
0.394500
 20
0.969000
  0
SEQEND
  8
gg1
  0
POLYLINE
  8
gg1
 62
1
 40
0.000000
 41
0.000000
 66
  1
  0
VERTEX
  8
gg1
 10
0.387000
 20
0.961500
  0
VERTEX
  8
gg1
 10
0.387000
 20
0.976500
  0
SEQEND
  8
gg1
  0
POLYLINE
  8
gg1
 62
1
 40
0.000000
 41
0.000000
 66
  1
  0
VERTEX
  8
gg1
 10
0.399500
 20
0.939000
  0
VERTEX
  8
gg1
 10
0.414500
 20
0.939000
  0
SEQEND
  8
gg1
  0
POLYLINE
  8
gg1
 62
1
 40
0.000000
 41
0.000000
 66
  1
  0
VERTEX
  8
gg1
 10
0.407000
 20
0.931500
  0
VERTEX
  8
gg1
 10
0.407000
 20
0.946500
  0
SEQEND
  8
gg1
  0
POLYLINE
  8
gg1
 62
1
 40
0.000000
 41
0.000000
 66
  1
  0
VERTEX
  8
gg1
 10
0.384500
 20
0.909000
  0
VERTEX
  8
gg1
 10
0.399500
 20
0.909000
  0
SEQEND
  8
gg1
  0
POLYLINE
  8
gg1
 62
1
 40
0.000000
 41
0.000000
 66
  1
  0
VERTEX
  8
gg1
 10
0.392000
 20
0.901500
  0
VERTEX
  8
gg1
 10
0.392000
 20
0.916500
  0
SEQEND
  8
gg1
  0
POLYLINE
  8
gg1
 62
1
 40
0.000000
 41
0.000000
 66
  1
  0
VERTEX
  8
gg1
 10
0.389500
 20
0.874000
  0
VERTEX
  8
gg1
 10
0.404500
 20
0.874000
  0
SEQEND
  8
gg1
  0
POLYLINE
  8
gg1
 62
1
 40
0.000000
 41
0.000000
 66
  1
  0
VERTEX
  8
gg1
 10
0.397000
 20
0.866500
  0
VERTEX
  8
gg1
 10
0.397000
 20
0.881500
  0
SEQEND
  8
gg1
  0
POLYLINE
  8
gg1
 62
1
 40
0.000000
 41
0.000000
 66
  1
  0
VERTEX
  8
gg1
 10
0.374500
 20
0.834000
  0
VERTEX
  8
gg1
 10
0.389500
 20
0.834000
  0
SEQEND
  8
gg1
  0
POLYLINE
  8
gg1
 62
1
 40
0.000000
 41
0.000000
 66
  1
  0
VERTEX
  8
gg1
 10
0.382000
 20
0.826500
  0
VERTEX
  8
gg1
 10
0.382000
 20
0.841500
  0
SEQEND
  8
gg1
  0
POLYLINE
  8
gg1
 62
1
 40
0.000000
 41
0.000000
 66
  1
  0
VERTEX
  8
gg1
 10
0.404500
 20
0.809000
  0
VERTEX
  8
gg1
 10
0.419500
 20
0.809000
  0
SEQEND
  8
gg1
  0
POLYLINE
  8
gg1
 62
1
 40
0.000000
 41
0.000000
 66
  1
  0
VERTEX
  8
gg1
 10
0.412000
 20
0.801500
  0
VERTEX
  8
gg1
 10
0.412000
 20
0.816500
  0
SEQEND
  8
gg1
  0
POLYLINE
  8
gg1
 62
1
 40
0.000000
 41
0.000000
 66
  1
  0
VERTEX
  8
gg1
 10
0.399500
 20
0.774000
  0
VERTEX
  8
gg1
 10
0.414500
 20
0.774000
  0
SEQEND
  8
gg1
  0
POLYLINE
  8
gg1
 62
1
 40
0.000000
 41
0.000000
 66
  1
  0
VERTEX
  8
gg1
 10
0.407000
 20
0.766500
  0
VERTEX
  8
gg1
 10
0.407000
 20
0.781500
  0
SEQEND
  8
gg1
  0
POLYLINE
  8
gg1
 62
1
 40
0.000000
 41
0.000000
 66
  1
  0
VERTEX
  8
gg1
 10
0.399500
 20
0.734000
  0
VERTEX
  8
gg1
 10
0.414500
 20
0.734000
  0
SEQEND
  8
gg1
  0
POLYLINE
  8
gg1
 62
1
 40
0.000000
 41
0.000000
 66
  1
  0
VERTEX
  8
gg1
 10
0.407000
 20
0.726500
  0
VERTEX
  8
gg1
 10
0.407000
 20
0.741500
  0
SEQEND
  8
gg1
  0
POLYLINE
  8
gg1
 62
1
 40
0.000000
 41
0.000000
 66
  1
  0
VERTEX
  8
gg1
 10
0.534500
 20
0.959000
  0
VERTEX
  8
gg1
 10
0.549500
 20
0.959000
  0
SEQEND
  8
gg1
  0
POLYLINE
  8
gg1
 62
1
 40
0.000000
 41
0.000000
 66
  1
  0
VERTEX
  8
gg1
 10
0.542000
 20
0.951500
  0
VERTEX
  8
gg1
 10
0.542000
 20
0.966500
  0
SEQEND
  8
gg1
  0
POLYLINE
  8
gg1
 62
1
 40
0.000000
 41
0.000000
 66
  1
  0
VERTEX
  8
gg1
 10
0.529500
 20
0.909000
  0
VERTEX
  8
gg1
 10
0.544500
 20
0.909000
  0
SEQEND
  8
gg1
  0
POLYLINE
  8
gg1
 62
1
 40
0.000000
 41
0.000000
 66
  1
  0
VERTEX
  8
gg1
 10
0.537000
 20
0.901500
  0
VERTEX
  8
gg1
 10
0.537000
 20
0.916500
  0
SEQEND
  8
gg1
  0
POLYLINE
  8
gg1
 62
1
 40
0.000000
 41
0.000000
 66
  1
  0
VERTEX
  8
gg1
 10
0.554500
 20
0.889000
  0
VERTEX
  8
gg1
 10
0.569500
 20
0.889000
  0
SEQEND
  8
gg1
  0
POLYLINE
  8
gg1
 62
1
 40
0.000000
 41
0.000000
 66
  1
  0
VERTEX
  8
gg1
 10
0.562000
 20
0.881500
  0
VERTEX
  8
gg1
 10
0.562000
 20
0.896500
  0
SEQEND
  8
gg1
  0
POLYLINE
  8
gg1
 62
1
 40
0.000000
 41
0.000000
 66
  1
  0
VERTEX
  8
gg1
 10
0.559500
 20
0.924000
  0
VERTEX
  8
gg1
 10
0.574500
 20
0.924000
  0
SEQEND
  8
gg1
  0
POLYLINE
  8
gg1
 62
1
 40
0.000000
 41
0.000000
 66
  1
  0
VERTEX
  8
gg1
 10
0.567000
 20
0.916500
  0
VERTEX
  8
gg1
 10
0.567000
 20
0.931500
  0
SEQEND
  8
gg1
  0
POLYLINE
  8
gg1
 62
1
 40
0.000000
 41
0.000000
 66
  1
  0
VERTEX
  8
gg1
 10
0.884500
 20
0.854000
  0
VERTEX
  8
gg1
 10
0.899500
 20
0.854000
  0
SEQEND
  8
gg1
  0
POLYLINE
  8
gg1
 62
1
 40
0.000000
 41
0.000000
 66
  1
  0
VERTEX
  8
gg1
 10
0.892000
 20
0.846500
  0
VERTEX
  8
gg1
 10
0.892000
 20
0.861500
  0
SEQEND
  8
gg1
  0
POLYLINE
  8
gg1
 62
1
 40
0.000000
 41
0.000000
 66
  1
  0
VERTEX
  8
gg1
 10
0.399500
 20
1.004000
  0
VERTEX
  8
gg1
 10
0.414500
 20
1.004000
  0
SEQEND
  8
gg1
  0
POLYLINE
  8
gg1
 62
1
 40
0.000000
 41
0.000000
 66
  1
  0
VERTEX
  8
gg1
 10
0.407000
 20
0.996500
  0
VERTEX
  8
gg1
 10
0.407000
 20
1.011500
  0
SEQEND
  8
gg1
  0
POLYLINE
  8
gg1
 62
1
 40
0.000000
 41
0.000000
 66
  1
  0
VERTEX
  8
gg1
 10
0.854500
 20
0.789000
  0
VERTEX
  8
gg1
 10
0.869500
 20
0.789000
  0
SEQEND
  8
gg1
  0
POLYLINE
  8
gg1
 62
1
 40
0.000000
 41
0.000000
 66
  1
  0
VERTEX
  8
gg1
 10
0.862000
 20
0.781500
  0
VERTEX
  8
gg1
 10
0.862000
 20
0.796500
  0
SEQEND
  8
gg1
  0
POLYLINE
  8
gg1
 62
1
 40
0.000000
 41
0.000000
 66
  1
  0
VERTEX
  8
gg1
 10
0.929500
 20
0.819000
  0
VERTEX
  8
gg1
 10
0.944500
 20
0.819000
  0
SEQEND
  8
gg1
  0
POLYLINE
  8
gg1
 62
1
 40
0.000000
 41
0.000000
 66
  1
  0
VERTEX
  8
gg1
 10
0.937000
 20
0.811500
  0
VERTEX
  8
gg1
 10
0.937000
 20
0.826500
  0
SEQEND
  8
gg1
  0
POLYLINE
  8
gg1
 62
1
 40
0.000000
 41
0.000000
 66
  1
  0
VERTEX
  8
gg1
 10
1.009500
 20
0.834000
  0
VERTEX
  8
gg1
 10
1.024500
 20
0.834000
  0
SEQEND
  8
gg1
  0
POLYLINE
  8
gg1
 62
1
 40
0.000000
 41
0.000000
 66
  1
  0
VERTEX
  8
gg1
 10
1.017000
 20
0.826500
  0
VERTEX
  8
gg1
 10
1.017000
 20
0.841500
  0
SEQEND
  8
gg1
  0
POLYLINE
  8
gg1
 62
1
 40
0.000000
 41
0.000000
 66
  1
  0
VERTEX
  8
gg1
 10
1.039500
 20
0.789000
  0
VERTEX
  8
gg1
 10
1.054500
 20
0.789000
  0
SEQEND
  8
gg1
  0
POLYLINE
  8
gg1
 62
1
 40
0.000000
 41
0.000000
 66
  1
  0
VERTEX
  8
gg1
 10
1.047000
 20
0.781500
  0
VERTEX
  8
gg1
 10
1.047000
 20
0.796500
  0
SEQEND
  8
gg1
  0
POLYLINE
  8
gg1
 62
1
 40
0.000000
 41
0.000000
 66
  1
  0
VERTEX
  8
gg1
 10
0.979500
 20
0.899000
  0
VERTEX
  8
gg1
 10
0.994500
 20
0.899000
  0
SEQEND
  8
gg1
  0
POLYLINE
  8
gg1
 62
1
 40
0.000000
 41
0.000000
 66
  1
  0
VERTEX
  8
gg1
 10
0.987000
 20
0.891500
  0
VERTEX
  8
gg1
 10
0.987000
 20
0.906500
  0
SEQEND
  8
gg1
  0
POLYLINE
  8
gg1
 62
1
 40
0.000000
 41
0.000000
 66
  1
  0
VERTEX
  8
gg1
 10
0.884500
 20
0.924000
  0
VERTEX
  8
gg1
 10
0.899500
 20
0.924000
  0
SEQEND
  8
gg1
  0
POLYLINE
  8
gg1
 62
1
 40
0.000000
 41
0.000000
 66
  1
  0
VERTEX
  8
gg1
 10
0.892000
 20
0.916500
  0
VERTEX
  8
gg1
 10
0.892000
 20
0.931500
  0
SEQEND
  8
gg1
  0
POLYLINE
  8
gg1
 62
1
 40
0.000000
 41
0.000000
 66
  1
  0
VERTEX
  8
gg1
 10
1.074500
 20
0.744000
  0
VERTEX
  8
gg1
 10
1.089500
 20
0.744000
  0
SEQEND
  8
gg1
  0
POLYLINE
  8
gg1
 62
1
 40
0.000000
 41
0.000000
 66
  1
  0
VERTEX
  8
gg1
 10
1.082000
 20
0.736500
  0
VERTEX
  8
gg1
 10
1.082000
 20
0.751500
  0
SEQEND
  8
gg1
  0
POLYLINE
  8
gg1
 62
1
 40
0.000000
 41
0.000000
 66
  1
  0
VERTEX
  8
gg1
 10
0.784500
 20
1.094000
  0
VERTEX
  8
gg1
 10
0.799500
 20
1.094000
  0
SEQEND
  8
gg1
  0
POLYLINE
  8
gg1
 62
1
 40
0.000000
 41
0.000000
 66
  1
  0
VERTEX
  8
gg1
 10
0.792000
 20
1.086500
  0
VERTEX
  8
gg1
 10
0.792000
 20
1.101500
  0
SEQEND
  8
gg1
  0
POLYLINE
  8
gg1
 62
1
 40
0.000000
 41
0.000000
 66
  1
  0
VERTEX
  8
gg1
 10
0.644500
 20
1.184000
  0
VERTEX
  8
gg1
 10
0.659500
 20
1.184000
  0
SEQEND
  8
gg1
  0
POLYLINE
  8
gg1
 62
1
 40
0.000000
 41
0.000000
 66
  1
  0
VERTEX
  8
gg1
 10
0.652000
 20
1.176500
  0
VERTEX
  8
gg1
 10
0.652000
 20
1.191500
  0
SEQEND
  8
gg1
  0
POLYLINE
  8
gg1
 62
1
 40
0.000000
 41
0.000000
 66
  1
  0
VERTEX
  8
gg1
 10
0.644500
 20
1.154000
  0
VERTEX
  8
gg1
 10
0.659500
 20
1.154000
  0
SEQEND
  8
gg1
  0
POLYLINE
  8
gg1
 62
1
 40
0.000000
 41
0.000000
 66
  1
  0
VERTEX
  8
gg1
 10
0.652000
 20
1.146500
  0
VERTEX
  8
gg1
 10
0.652000
 20
1.161500
  0
SEQEND
  8
gg1
  0
POLYLINE
  8
gg1
 62
1
 40
0.000000
 41
0.000000
 66
  1
  0
VERTEX
  8
gg1
 10
1.044500
 20
1.224000
  0
VERTEX
  8
gg1
 10
1.059500
 20
1.224000
  0
SEQEND
  8
gg1
  0
POLYLINE
  8
gg1
 62
1
 40
0.000000
 41
0.000000
 66
  1
  0
VERTEX
  8
gg1
 10
1.052000
 20
1.216500
  0
VERTEX
  8
gg1
 10
1.052000
 20
1.231500
  0
SEQEND
  8
gg1
  0
ENDSEC
  0
EOF
